  0
SECTION
  2
HEADER
  9
$ACADVER
  1
AC1009
  9
$INSBASE
 10
0
 20
0
 30
0
  9
$EXTMIN
 10
0
 20
0
  9
$EXTMAX
 10
594
 20
420
  9
$LIMMIN
 10
0
 20
0
  9
$LIMMAX
 10
594
 20
420
  9
$LTSCALE
 40
2
  0
ENDSEC
  0
SECTION
  2
TABLES
  0
TABLE
  2
LTYPE
 70
     9
  0
LTYPE
  2
CONTINUOUS
 70
    64
  3
実線
 72
    65
 73
     0
 40
0.0
  0
LTYPE
  2
DASHED1
 70
    64
  3
--  --  --  --  --  --  --  --  
 72
    65
 73
     2
 40
2.5
 49
1.25
 49
-1.25
  0
LTYPE
  2
DASHED2
 70
    64
  3
----    ----    ----    ----    
 72
    65
 73
     2
 40
5.0
 49
2.5
 49
-2.5
  0
LTYPE
  2
DASHED3
 70
    64
  3
------  ------  ------  ------  
 72
    65
 73
     2
 40
5.0
 49
3.75
 49
-1.25
  0
LTYPE
  2
CENTER1
 70
    64
  3
----- - ----- - ----- - ----- - 
 72
    65
 73
     4
 40
10.0
 49
6.25
 49
-1.25
 49
1.25
 49
-1.25
  0
LTYPE
  2
CENTER2
 70
    64
  3
----------  --  ----------  --  
 72
    65
 73
     4
 40
20.0
 49
12.5
 49
-2.5
 49
2.5
 49
-2.5
  0
LTYPE
  2
PHANTOM1
 70
    64
  3
--- - - --- - - --- - - --- - - 
 72
    65
 73
     6
 40
10.0
 49
3.25
 49
-1.25
 49
1.25
 49
-1.25
 49
1.25
 49
-1.25
  0
LTYPE
  2
PHANTOM2
 70
    64
  3
--------  -  -  --------  -  -  
 72
    65
 73
     6
 40
20.0
 49
10.0
 49
-2.5
 49
1.25
 49
-2.5
 49
1.25
 49
-2.5
  0
LTYPE
  2
DOT
 70
    64
  3
-   -   -   -   -   -   -   -   
 72
    65
 73
     2
 40
2.5
 49
0.625
 49
-1.875
  0
LTYPE
  2
DUMMY
 70
    64
  3
ダミー
 72
    65
 73
     0
 40
0.0
  0
LTYPE
  2
RAND1
 70
    64
  3
ランダム線1
 72
    65
 73
     4
 40
10.0
 49
1.0
 49
-2.0
 49
3.0
 49
-4.0
  0
LTYPE
  2
RAND2
 70
    64
  3
ランダム線2
 72
    65
 73
     4
 40
14.0
 49
2.0
 49
-3.0
 49
4.0
 49
-5.0
  0
LTYPE
  2
RAND3
 70
    64
  3
ランダム線3
 72
    65
 73
     4
 40
18.0
 49
3.0
 49
-4.0
 49
5.0
 49
-6.0
  0
LTYPE
  2
RAND4
 70
    64
  3
ランダム線4
 72
    65
 73
     4
 40
22.0
 49
4.0
 49
-5.0
 49
6.0
 49
-7.0
  0
LTYPE
  2
RAND5
 70
    64
  3
ランダム線5
 72
    65
 73
     4
 40
26.0
 49
5.0
 49
-6.0
 49
7.0
 49
-8.0
  0
LTYPE
  2
LONG1
 70
    64
  3
----------  --  ----------  --  
 72
    65
 73
     4
 40
40.0
 49
32.5
 49
-2.5
 49
2.5
 49
-2.5
  0
LTYPE
  2
LONG2
 70
    64
  3
--------  -  -  --------  -  -  
 72
    65
 73
     6
 40
40.0
 49
30.0
 49
-2.5
 49
1.25
 49
-2.5
 49
1.25
 49
-2.5
  0
LTYPE
  2
LONG3
 70
    64
  3
+++++++++++++++..+++++++++++++++
 72
    65
 73
     2
 40
40.0
 49
37.5
 49
-2.5
  0
LTYPE
  2
LONG4
 70
    64
  3
+++++++++++++++..+++++++++++++++
 72
    65
 73
     2
 40
80.0
 49
75.0
 49
-5.0
  0
LTYPE
  2
LONG5
 70
    64
  3
----------  --  ----------  --  
 72
    65
 73
     4
 40
60.0
 49
37.5
 49
-7.5
 49
7.5
 49
-7.5
  0
LTYPE
  2
dashed
 70
   64
  3
-------   -------------   ------
 72
   65
 73
    2
 40
7.5
 49
6
 49
-1.5
  0
LTYPE
  2
dashed_spaced
 70
   64
  3
----        --------        ----
 72
   65
 73
    2
 40
12
 49
6
 49
-6
  0
LTYPE
  2
long_dashed_dotted
 70
   64
  3
------------- --- --------------
 72
   65
 73
    4
 40
15.25
 49
12
 49
-1.5
 49
0.25
 49
-1.5
  0
LTYPE
  2
long_dashed_double-dotted
 70
   64
  3
----------- --- --- ------------
 72
   65
 73
    6
 40
17
 49
12
 49
-1.5
 49
0.25
 49
-1.5
 49
0.25
 49
-1.5
  0
LTYPE
  2
long_dashed_triplicate-dotted
 70
   64
  3
--------- --- --- --- ----------
 72
   65
 73
    8
 40
18.75
 49
12
 49
-1.5
 49
0.25
 49
-1.5
 49
0.25
 49
-1.5
 49
0.25
 49
-1.5
  0
LTYPE
  2
dotted
 70
   64
  3
   -       -       -       -    
 72
   65
 73
    2
 40
1.75
 49
0.25
 49
-1.5
  0
LTYPE
  2
chain
 70
   64
  3
-------------- -- --------------
 72
   65
 73
    4
 40
18.5
 49
12
 49
-1.5
 49
3.5
 49
-1.5
  0
LTYPE
  2
chain_double_dash
 70
   64
  3
------------ -- -- -------------
 72
   65
 73
    6
 40
23.5
 49
12
 49
-1.5
 49
3.5
 49
-1.5
 49
3.5
 49
-1.5
  0
LTYPE
  2
dashed_dotted
 70
   64
  3
-----------     -     ----------
 72
   65
 73
    4
 40
9.25
 49
6
 49
-1.5
 49
0.25
 49
-1.5
  0
LTYPE
  2
double-dashed_dotted
 70
   64
  3
------   -----------   -   -----
 72
   65
 73
    6
 40
16.75
 49
6
 49
-1.5
 49
6
 49
-1.5
 49
0.25
 49
-1.5
  0
LTYPE
  2
dashed_double-dotted
 70
   64
  3
---------    -    -    ---------
 72
   65
 73
    6
 40
11
 49
6
 49
-1.5
 49
0.25
 49
-1.5
 49
0.25
 49
-1.5
  0
LTYPE
  2
double-dashed_double-dotted
 70
   64
  3
-----   ---------   -   -   ----
 72
   65
 73
    8
 40
18.5
 49
6
 49
-1.5
 49
6
 49
-1.5
 49
0.25
 49
-1.5
 49
0.25
 49
-1.5
  0
LTYPE
  2
dashed_triplicate-dotted
 70
   64
  3
-------    -    -    -    ------
 72
   65
 73
    8
 40
12.75
 49
6
 49
-1.5
 49
0.25
 49
-1.5
 49
0.25
 49
-1.5
 49
0.25
 49
-1.5
  0
LTYPE
  2
double-dashed_triplicate-dotted
 70
   64
  3
-----  ---------  -  -  -  -----
 72
   65
 73
   10
 40
20.25
 49
6
 49
-1.5
 49
6
 49
-1.5
 49
0.25
 49
-1.5
 49
0.25
 49
-1.5
 49
0.25
 49
-1.5
  0
LTYPE
  2
undefined
 70
   64
  3
--------------------------------
 72
   65
 73
    0
 40
0
  0
LTYPE
  2
_
 70
   64
  3
                                
 72
   65
 73
    0
 40
0
  0
LTYPE
  2
__18
 70
   64
  3
                                
 72
   65
 73
    0
 40
0
  0
LTYPE
  2
__19
 70
   64
  3
                                
 72
   65
 73
    0
 40
0
  0
LTYPE
  2
__20
 70
   64
  3
                                
 72
   65
 73
    0
 40
0
  0
LTYPE
  2
__21
 70
   64
  3
                                
 72
   65
 73
    0
 40
0
  0
LTYPE
  2
__22
 70
   64
  3
                                
 72
   65
 73
    0
 40
0
  0
LTYPE
  2
__23
 70
   64
  3
                                
 72
   65
 73
    0
 40
0
  0
LTYPE
  2
__24
 70
   64
  3
                                
 72
   65
 73
    0
 40
0
  0
LTYPE
  2
__25
 70
   64
  3
                                
 72
   65
 73
    0
 40
0
  0
LTYPE
  2
__26
 70
   64
  3
                                
 72
   65
 73
    0
 40
0
  0
LTYPE
  2
__27
 70
   64
  3
                                
 72
   65
 73
    0
 40
0
  0
LTYPE
  2
__28
 70
   64
  3
                                
 72
   65
 73
    0
 40
0
  0
LTYPE
  2
__29
 70
   64
  3
                                
 72
   65
 73
    0
 40
0
  0
LTYPE
  2
__30
 70
   64
  3
                                
 72
   65
 73
    0
 40
0
  0
LTYPE
  2
__31
 70
   64
  3
                                
 72
   65
 73
    0
 40
0
  0
LTYPE
  2
__32
 70
   64
  3
                                
 72
   65
 73
    0
 40
0
  0
ENDTAB
  0
TABLE
  2
STYLE
  5
3
100
AcDbSymbolTable
 70
     1
  0
STYLE
  5
10
100
AcDbSymbolTableRecord
100
AcDbTextStyleTableRecord
  2
STANDARD
 70
     0
 40
0.0
 41
1.0
 50
0.0
 71
     0
 42
0.2
  3
txt
  4
bigfont.shx
  0
STYLE
  5
26
100
AcDbSymbolTableRecord
100
AcDbTextStyleTableRecord
  2
TATEGAKI
 70
    68
 40
0.0
 41
1.0
 50
0.0
 71
     0
 42
1.0
  3
txt
  4
bigfont.shx
  0
ENDTAB
  0
TABLE
  2
LAYER
 70
    9
  0
LAYER
  2
_0-0_0
 70
   64
 62
    7
  6
CONTINUOUS
  0
LAYER
  2
_0-1_DEFPOINTS
 70
   64
 62
    7
  6
CONTINUOUS
  0
LAYER
  2
_0-3_デ__タ_003
 70
   64
 62
    7
  6
CONTINUOUS
  0
LAYER
  2
_0-4_デ__タ_004
 70
   64
 62
    7
  6
CONTINUOUS
  0
LAYER
  2
_0-5_デ__タ_005
 70
   64
 62
    7
  6
CONTINUOUS
  0
LAYER
  2
_0-6_図面
 70
   64
 62
    7
  6
CONTINUOUS
  0
LAYER
  2
_0-8_会社ロゴ項目
 70
   64
 62
    7
  6
CONTINUOUS
  0
LAYER
  2
_f-0____-240
 70
   64
 62
    7
  6
CONTINUOUS
  0
LAYER
  2
ADD_LINE
 70
   64
 62
    7
  6
CONTINUOUS
  0
ENDTAB
  0
ENDSEC
  0
SECTION
  2
BLOCKS
  0
ENDSEC
  0
SECTION
  2
ENTITIES
  0
LINE
  8
_f-0____-240
  6
CONTINUOUS
 62
    7
 10
18.699755716962045
 20
408.22860076990639
 11
567.03281478977158
 21
408.22860076990639
  0
LINE
  8
_f-0____-240
  6
CONTINUOUS
 62
    7
 10
567.03281478977158
 20
408.22860076990639
 11
567.03281478977158
 21
20.518356981051056
  0
LINE
  8
_f-0____-240
  6
CONTINUOUS
 62
    7
 10
567.03281478977158
 20
20.518356981051056
 11
18.699755716962045
 21
20.518356981051056
  0
LINE
  8
_f-0____-240
  6
CONTINUOUS
 62
    7
 10
18.699755716962045
 20
20.518356981051056
 11
18.699755716962045
 21
408.22860076990639
  0
LINE
  8
_f-0____-240
  6
CONTINUOUS
 62
    7
 10
216.91194625162836
 20
54.435381685400216
 11
216.91194625162836
 21
30.926275605400178
  0
LINE
  8
_f-0____-240
  6
CONTINUOUS
 62
    7
 10
304.26488743162838
 20
30.926275605400178
 11
304.26488743162838
 21
54.435381685400216
  0
LINE
  8
_f-0____-240
  6
CONTINUOUS
 62
    7
 10
351.02959331162833
 20
54.435381685400216
 11
351.02959331162833
 21
30.926275605400178
  0
LINE
  8
_f-0____-240
  6
CONTINUOUS
 62
    7
 10
405.2942991916284
 20
30.926275605400178
 11
405.2942991916284
 21
54.435381685400216
  0
LINE
  8
_f-0____-240
  6
CONTINUOUS
 62
    7
 10
556.51227625162835
 20
54.435381685400216
 11
556.51227625162835
 21
30.926275605400178
  0
LINE
  8
_f-0____-240
  6
CONTINUOUS
 62
    7
 10
556.51227625404681
 20
30.926275605400178
 11
29.184381891628391
 21
30.926275605400178
  0
LINE
  8
_f-0____-240
  6
CONTINUOUS
 62
    7
 10
29.184381891628391
 20
30.926275605400178
 11
29.184381891628391
 21
54.435381685400216
  0
LINE
  8
_f-0____-240
  6
CONTINUOUS
 62
    7
 10
29.184381891628391
 20
54.435381685400216
 11
556.51227625404681
 21
54.435381685400216
  0
TEXT
  8
_f-0____-240
 62
    7
 10
420.22303921568579
 20
44.971405228758158
 40
6.9233972105152191
 41
1.000000000000008
 50
0
  1
KOHLER
  0
TEXT
  8
_f-0____-240
 62
    7
 10
313.7177383551558
 20
37.630770332693544
 40
6.9233972105152191
 41
1.0000000000000095
 50
0
  1
S=1/2
  0
TEXT
  8
_f-0____-240
 62
    7
 10
434.95070806100176
 20
32.858115468409551
 40
6.9233972105151906
 41
1.000000000000012
 50
0
  1
日鉄物産マテックス株式会社
  0
TEXT
  8
_f-0____-240
 62
    7
 10
225.97349636145233
 20
38.631535947712393
 40
6.9233972105152191
 41
1.0000000000000056
 50
0
  1
77804T-NA
  0
LINE
  8
_0-0_0
  6
CONTINUOUS
 62
    7
 10
134.57164755284848
 20
217.49697137015266
 11
136.5554018621493
 21
217.49697137015266
  0
LINE
  8
_0-0_0
  6
CONTINUOUS
 62
    7
 10
211.51071123199839
 20
221.67506813309262
 11
210.15479026694564
 21
221.67506813309262
  0
ARC
  8
_0-3_デ__タ_003
  6
CONTINUOUS
 62
    7
 10
213.29907171279339
 20
217.98919656938477
 40
2.5887212883558277
 50
193.32843006167619
 51
274.34756871648278
  0
LINE
  8
_0-3_デ__タ_003
  6
CONTINUOUS
 62
    7
 10
233.1213079494236
 20
208.28531781344702
 11
119.01680962387579
 21
208.28531781344702
  0
LINE
  8
_0-3_デ__タ_003
  6
CONTINUOUS
 62
    7
 10
119.01680962387579
 20
208.28531781344702
 11
120.21725680726425
 21
207.08374410108161
  0
LINE
  8
_0-3_デ__タ_003
  6
CONTINUOUS
 62
    7
 10
148.14315779695696
 20
105.55177707282645
 11
148.24765365750707
 21
105.86545294334401
  0
LINE
  8
_0-3_デ__タ_003
  6
CONTINUOUS
 62
    7
 10
148.24765365750707
 20
105.97001238934304
 11
148.24765365750707
 21
106.07456936786254
  0
LINE
  8
_0-3_デ__タ_003
  6
CONTINUOUS
 62
    7
 10
148.24765365750707
 20
106.07456936786254
 11
148.14315779695696
 21
106.17912881386162
  0
LINE
  8
_0-3_デ__タ_003
  6
CONTINUOUS
 62
    7
 10
148.14315779695696
 20
106.17912881386162
 11
146.99495854384358
 21
106.70107229593198
  0
LINE
  8
_0-3_デ__タ_003
  6
CONTINUOUS
 62
    7
 10
146.99495854384358
 20
106.70107229593198
 11
146.78596435670622
 21
107.01474816644959
  0
LINE
  8
_0-3_デ__タ_003
  6
CONTINUOUS
 62
    7
 10
146.78596435670622
 20
107.01474816644959
 11
146.99495854384358
 21
107.32757275652189
  0
LINE
  8
_0-3_デ__タ_003
  6
CONTINUOUS
 62
    7
 10
146.99495854384358
 20
107.32757275652189
 11
148.14315779695696
 21
107.85036751903762
  0
LINE
  8
_0-3_デ__タ_003
  6
CONTINUOUS
 62
    7
 10
148.14315779695696
 20
107.85036751903762
 11
148.24765365750707
 21
108.16319210910997
  0
LINE
  8
_0-3_デ__タ_003
  6
CONTINUOUS
 62
    7
 10
148.24765365750707
 20
108.26775155510894
 11
148.24765365750707
 21
108.37231100110797
  0
LINE
  8
_0-3_デ__タ_003
  6
CONTINUOUS
 62
    7
 10
148.24765365750707
 20
108.37231100110797
 11
148.14315779695696
 21
108.47686797962753
  0
LINE
  8
_0-3_デ__タ_003
  6
CONTINUOUS
 62
    7
 10
148.14315779695696
 20
108.47686797962753
 11
146.99495854384358
 21
108.99881146169788
  0
LINE
  8
_0-3_デ__タ_003
  6
CONTINUOUS
 62
    7
 10
146.99495854384358
 20
108.99881146169788
 11
146.78596435670622
 21
109.31248733221544
  0
LINE
  8
_0-3_デ__タ_003
  6
CONTINUOUS
 62
    7
 10
146.78596435670622
 20
109.31248733221544
 11
146.99495854384358
 21
109.62616320273305
  0
LINE
  8
_0-3_デ__タ_003
  6
CONTINUOUS
 62
    7
 10
146.99495854384358
 20
109.62616320273305
 11
148.14315779695696
 21
110.25266613080255
  0
LINE
  8
_0-3_デ__タ_003
  6
CONTINUOUS
 62
    7
 10
148.14315779695696
 20
110.25266613080255
 11
148.24765365750707
 21
110.46178255532114
  0
LINE
  8
_0-3_デ__タ_003
  6
CONTINUOUS
 62
    7
 10
148.24765365750707
 20
110.56634200132017
 11
148.24765365750707
 21
110.67005016687382
  0
LINE
  8
_0-3_デ__タ_003
  6
CONTINUOUS
 62
    7
 10
148.24765365750707
 20
110.67005016687382
 11
148.14315779695696
 21
110.77460961287296
  0
LINE
  8
_0-3_デ__タ_003
  6
CONTINUOUS
 62
    7
 10
148.14315779695696
 20
110.77460961287296
 11
146.99495854384358
 21
111.40196135390808
  0
LINE
  8
_0-3_デ__タ_003
  6
CONTINUOUS
 62
    7
 10
146.99495854384358
 20
111.40196135390808
 11
146.78596435670622
 21
111.61022896546093
  0
LINE
  8
_0-3_デ__タ_003
  6
CONTINUOUS
 62
    7
 10
146.78596435670622
 20
111.61022896546093
 11
146.99495854384358
 21
111.92390483597855
  0
LINE
  8
_0-3_デ__タ_003
  6
CONTINUOUS
 62
    7
 10
146.99495854384358
 20
111.92390483597855
 11
148.14315779695696
 21
112.55040529656846
  0
LINE
  8
_0-3_デ__タ_003
  6
CONTINUOUS
 62
    7
 10
148.14315779695696
 20
112.55040529656846
 11
148.24765365750707
 21
112.75952172108693
  0
LINE
  8
_0-3_デ__タ_003
  6
CONTINUOUS
 62
    7
 10
148.24765365750707
 20
112.86408116708601
 11
148.24765365750707
 21
112.96864061308504
  0
LINE
  8
_0-3_デ__タ_003
  6
CONTINUOUS
 62
    7
 10
148.24765365750707
 20
112.96864061308504
 11
148.14315779695696
 21
113.07319759160454
  0
LINE
  8
_0-3_デ__タ_003
  6
CONTINUOUS
 62
    7
 10
148.14315779695696
 20
113.07319759160454
 11
146.99495854384358
 21
113.69970051967398
  0
LINE
  8
_0-3_デ__タ_003
  6
CONTINUOUS
 62
    7
 10
146.99495854384358
 20
113.69970051967398
 11
146.78596435670622
 21
113.90881694419257
  0
LINE
  8
_0-3_デ__タ_003
  6
CONTINUOUS
 62
    7
 10
146.78596435670622
 20
113.90881694419257
 11
146.99495854384358
 21
114.22164400174445
  0
LINE
  8
_0-3_デ__タ_003
  6
CONTINUOUS
 62
    7
 10
146.99495854384358
 20
114.22164400174445
 11
148.14315779695696
 21
114.84899574277962
  0
LINE
  8
_0-3_デ__タ_003
  6
CONTINUOUS
 62
    7
 10
148.14315779695696
 20
114.84899574277962
 11
148.24765365750707
 21
115.05726335433236
  0
LINE
  8
_0-3_デ__タ_003
  6
CONTINUOUS
 62
    7
 10
148.24765365750707
 20
115.05726335433236
 11
148.14315779695696
 21
115.37093922484998
  0
LINE
  8
_0-3_デ__タ_003
  6
CONTINUOUS
 62
    7
 10
148.14315779695696
 20
115.37093922484998
 11
146.99495854384358
 21
115.99743968543989
  0
LINE
  8
_0-3_デ__タ_003
  6
CONTINUOUS
 62
    7
 10
146.99495854384358
 20
115.99743968543989
 11
146.78596435670622
 21
116.206558577438
  0
LINE
  8
_0-3_デ__タ_003
  6
CONTINUOUS
 62
    7
 10
148.24765365750707
 20
99.075941144120534
 11
148.24765365750707
 21
99.180500590119621
  0
LINE
  8
_0-3_デ__タ_003
  6
CONTINUOUS
 62
    7
 10
148.24765365750707
 20
99.180500590119621
 11
148.14315779695696
 21
99.180500590119621
  0
LINE
  8
_0-3_デ__タ_003
  6
CONTINUOUS
 62
    7
 10
148.14315779695696
 20
99.180500590119621
 11
146.99495854384358
 21
99.80700105070953
  0
LINE
  8
_0-3_デ__タ_003
  6
CONTINUOUS
 62
    7
 10
146.99495854384358
 20
99.80700105070953
 11
146.78596435670622
 21
100.12067692122714
  0
LINE
  8
_0-3_デ__タ_003
  6
CONTINUOUS
 62
    7
 10
146.78596435670622
 20
100.12067692122714
 11
146.99495854384358
 21
100.32894453277983
  0
LINE
  8
_0-3_デ__タ_003
  6
CONTINUOUS
 62
    7
 10
146.99495854384358
 20
100.32894453277983
 11
148.14315779695696
 21
100.95629627381506
  0
LINE
  8
_0-3_デ__タ_003
  6
CONTINUOUS
 62
    7
 10
148.14315779695696
 20
100.95629627381506
 11
148.24765365750707
 21
101.26912333136694
  0
LINE
  8
_0-3_デ__タ_003
  6
CONTINUOUS
 62
    7
 10
148.24765365750707
 20
101.37368277736597
 11
148.24765365750707
 21
101.47823975588553
  0
LINE
  8
_0-3_デ__タ_003
  6
CONTINUOUS
 62
    7
 10
148.24765365750707
 20
101.47823975588553
 11
148.14315779695696
 21
101.58279920188455
  0
LINE
  8
_0-3_デ__タ_003
  6
CONTINUOUS
 62
    7
 10
148.14315779695696
 20
101.58279920188455
 11
146.99495854384358
 21
102.10474268395491
  0
LINE
  8
_0-3_デ__タ_003
  6
CONTINUOUS
 62
    7
 10
146.99495854384358
 20
102.10474268395491
 11
146.78596435670622
 21
102.41841855447252
  0
LINE
  8
_0-3_デ__タ_003
  6
CONTINUOUS
 62
    7
 10
146.78596435670622
 20
102.41841855447252
 11
146.99495854384358
 21
102.73209442499008
  0
LINE
  8
_0-3_デ__タ_003
  6
CONTINUOUS
 62
    7
 10
146.99495854384358
 20
102.73209442499008
 11
148.14315779695696
 21
103.25403790706055
  0
LINE
  8
_0-3_デ__タ_003
  6
CONTINUOUS
 62
    7
 10
148.14315779695696
 20
103.25403790706055
 11
148.24765365750707
 21
103.56771377757816
  0
LINE
  8
_0-3_デ__タ_003
  6
CONTINUOUS
 62
    7
 10
148.24765365750707
 20
103.6722707560976
 11
148.24765365750707
 21
103.77598138913096
  0
LINE
  8
_0-3_デ__タ_003
  6
CONTINUOUS
 62
    7
 10
148.24765365750707
 20
103.77598138913096
 11
148.14315779695696
 21
103.88053836765046
  0
LINE
  8
_0-3_デ__タ_003
  6
CONTINUOUS
 62
    7
 10
148.14315779695696
 20
103.88053836765046
 11
146.99495854384358
 21
104.40333313016608
  0
LINE
  8
_0-3_デ__タ_003
  6
CONTINUOUS
 62
    7
 10
146.99495854384358
 20
104.40333313016608
 11
146.78596435670622
 21
104.71615772023837
  0
LINE
  8
_0-3_デ__タ_003
  6
CONTINUOUS
 62
    7
 10
146.78596435670622
 20
104.71615772023837
 11
146.99495854384358
 21
105.02983359075598
  0
LINE
  8
_0-3_デ__タ_003
  6
CONTINUOUS
 62
    7
 10
146.99495854384358
 20
105.02983359075598
 11
148.14315779695696
 21
105.55177707282645
  0
LINE
  8
_0-3_デ__タ_003
  6
CONTINUOUS
 62
    7
 10
148.35215198409438
 20
105.91815830656618
 11
148.34960456766098
 21
105.95216017478727
  0
LINE
  8
_0-3_デ__タ_003
  6
CONTINUOUS
 62
    7
 10
148.34960456766098
 20
105.95130889434195
 11
148.34790546802631
 21
105.96321201569886
  0
LINE
  8
_0-3_デ__タ_003
  6
CONTINUOUS
 62
    7
 10
148.34663052679102
 20
105.9810617627751
 11
148.3313386300791
 21
106.03886740623047
  0
LINE
  8
_0-3_デ__タ_003
  6
CONTINUOUS
 62
    7
 10
148.35215198409438
 20
108.21589747233203
 11
148.34960456766098
 21
108.24989934055317
  0
LINE
  8
_0-3_デ__タ_003
  6
CONTINUOUS
 62
    7
 10
148.34960456766098
 20
108.24989934055317
 11
148.34790546802631
 21
108.26095118146476
  0
LINE
  8
_0-3_デ__タ_003
  6
CONTINUOUS
 62
    7
 10
148.34663052679102
 20
108.27965220898626
 11
148.3313386300791
 21
108.33660657199637
  0
LINE
  8
_0-3_デ__タ_003
  6
CONTINUOUS
 62
    7
 10
148.35215198409438
 20
110.51363663809794
 11
148.34960456766098
 21
110.54764097379849
  0
LINE
  8
_0-3_デ__タ_003
  6
CONTINUOUS
 62
    7
 10
148.34960456766098
 20
110.54764097379849
 11
148.34790546802631
 21
110.55869034723067
  0
LINE
  8
_0-3_デ__タ_003
  6
CONTINUOUS
 62
    7
 10
148.34663052679102
 20
110.57739137475217
 11
148.3313386300791
 21
110.63434820524181
  0
LINE
  8
_0-3_デ__タ_003
  6
CONTINUOUS
 62
    7
 10
169.02227116034547
 20
83.824830027531917
 11
174.55511908953659
 21
83.824830027531917
  0
LINE
  8
_0-3_デ__タ_003
  6
CONTINUOUS
 62
    7
 10
174.55511908953659
 20
83.824830027531917
 11
174.55511908953659
 21
82.884653696424451
  0
LINE
  8
_0-3_デ__タ_003
  6
CONTINUOUS
 62
    7
 10
174.55511908953659
 20
82.884653696424451
 11
170.06639871130815
 21
82.884653696424451
  0
LINE
  8
_0-3_デ__タ_003
  6
CONTINUOUS
 62
    7
 10
170.06639871130815
 20
82.884653696424451
 11
170.06639871130815
 21
80.064971048588063
  0
LINE
  8
_0-3_デ__タ_003
  6
CONTINUOUS
 62
    7
 10
170.06639871130815
 20
80.064971048588063
 11
174.55511908953659
 21
76.8262018037899
  0
LINE
  8
_0-3_デ__タ_003
  6
CONTINUOUS
 62
    7
 10
174.55511908953659
 20
76.8262018037899
 11
177.47850015717555
 21
76.8262018037899
  0
LINE
  8
_0-3_デ__タ_003
  6
CONTINUOUS
 62
    7
 10
177.47850015717555
 20
76.8262018037899
 11
182.07129470359186
 21
80.064971048588063
  0
LINE
  8
_0-3_デ__タ_003
  6
CONTINUOUS
 62
    7
 10
182.07129470359186
 20
80.064971048588063
 11
182.07129470359186
 21
82.884653696424451
  0
LINE
  8
_0-3_デ__タ_003
  6
CONTINUOUS
 62
    7
 10
182.07129470359186
 20
82.884653696424451
 11
177.47850015717555
 21
82.884653696424451
  0
LINE
  8
_0-3_デ__タ_003
  6
CONTINUOUS
 62
    7
 10
177.47850015717555
 20
82.884653696424451
 11
177.47850015717555
 21
83.824830027531917
  0
LINE
  8
_0-3_デ__タ_003
  6
CONTINUOUS
 62
    7
 10
177.47850015717555
 20
83.824830027531917
 11
183.01092146193
 21
83.824830027531917
  0
LINE
  8
_0-3_デ__タ_003
  6
CONTINUOUS
 62
    7
 10
203.89003729135575
 20
115.99743968543989
 11
205.0386607028685
 21
115.37093922484998
  0
LINE
  8
_0-3_デ__タ_003
  6
CONTINUOUS
 62
    7
 10
205.0386607028685
 20
115.37093922484998
 11
205.24765489000592
 21
115.05726335433236
  0
LINE
  8
_0-3_デ__タ_003
  6
CONTINUOUS
 62
    7
 10
205.24765489000592
 20
115.05726335433236
 11
205.0386607028685
 21
114.84899574277962
  0
LINE
  8
_0-3_デ__タ_003
  6
CONTINUOUS
 62
    7
 10
205.0386607028685
 20
114.84899574277962
 11
203.89003729135575
 21
114.22164400174445
  0
LINE
  8
_0-3_デ__タ_003
  6
CONTINUOUS
 62
    7
 10
203.89003729135575
 20
114.22164400174445
 11
203.78638974760437
 21
113.90881694419257
  0
LINE
  8
_0-3_デ__タ_003
  6
CONTINUOUS
 62
    7
 10
203.79318614614303
 20
113.89181601008205
 11
203.80677894322028
 21
113.83996192730514
  0
LINE
  8
_0-3_デ__タ_003
  6
CONTINUOUS
 62
    7
 10
203.78638974760437
 20
113.80425996567313
 11
203.89003729135575
 21
113.69970051967398
  0
LINE
  8
_0-3_デ__タ_003
  6
CONTINUOUS
 62
    7
 10
203.89003729135575
 20
113.69970051967398
 11
205.0386607028685
 21
113.07319759160454
  0
LINE
  8
_0-3_デ__タ_003
  6
CONTINUOUS
 62
    7
 10
205.0386607028685
 20
113.07319759160454
 11
205.24765489000592
 21
112.75952172108693
  0
LINE
  8
_0-3_デ__タ_003
  6
CONTINUOUS
 62
    7
 10
205.24765489000592
 20
112.75952172108693
 11
205.0386607028685
 21
112.55040529656846
  0
LINE
  8
_0-3_デ__タ_003
  6
CONTINUOUS
 62
    7
 10
205.0386607028685
 20
112.55040529656846
 11
203.89003729135575
 21
111.92390483597855
  0
LINE
  8
_0-3_デ__タ_003
  6
CONTINUOUS
 62
    7
 10
203.89003729135575
 20
111.92390483597855
 11
203.78638974760437
 21
111.61022896546093
  0
LINE
  8
_0-3_デ__タ_003
  6
CONTINUOUS
 62
    7
 10
203.79318614614303
 20
111.59322556387089
 11
203.80677894322028
 21
111.54137148109398
  0
LINE
  8
_0-3_デ__タ_003
  6
CONTINUOUS
 62
    7
 10
203.78638974760437
 20
111.50651833242763
 11
203.89003729135575
 21
111.40196135390808
  0
LINE
  8
_0-3_デ__タ_003
  6
CONTINUOUS
 62
    7
 10
203.89003729135575
 20
111.40196135390808
 11
205.0386607028685
 21
110.77460961287296
  0
LINE
  8
_0-3_デ__タ_003
  6
CONTINUOUS
 62
    7
 10
205.0386607028685
 20
110.77460961287296
 11
205.24765489000592
 21
110.46178255532114
  0
LINE
  8
_0-3_デ__タ_003
  6
CONTINUOUS
 62
    7
 10
205.24765489000592
 20
110.46178255532114
 11
205.0386607028685
 21
110.25266613080255
  0
LINE
  8
_0-3_デ__タ_003
  6
CONTINUOUS
 62
    7
 10
205.0386607028685
 20
110.25266613080255
 11
203.89003729135575
 21
109.62616320273305
  0
LINE
  8
_0-3_デ__タ_003
  6
CONTINUOUS
 62
    7
 10
203.89003729135575
 20
109.62616320273305
 11
203.78638974760437
 21
109.31248733221544
  0
LINE
  8
_0-3_デ__タ_003
  6
CONTINUOUS
 62
    7
 10
203.79318614614303
 20
109.29548639810498
 11
203.80677894322028
 21
109.24363231532807
  0
LINE
  8
_0-3_デ__タ_003
  6
CONTINUOUS
 62
    7
 10
203.78638974760437
 20
109.207930353696
 11
203.89003729135575
 21
108.99881146169788
  0
LINE
  8
_0-3_デ__タ_003
  6
CONTINUOUS
 62
    7
 10
203.89003729135575
 20
108.99881146169788
 11
205.0386607028685
 21
108.47686797962753
  0
LINE
  8
_0-3_デ__タ_003
  6
CONTINUOUS
 62
    7
 10
205.0386607028685
 20
108.47686797962753
 11
205.24765489000592
 21
108.16319210910997
  0
LINE
  8
_0-3_デ__タ_003
  6
CONTINUOUS
 62
    7
 10
205.24765489000592
 20
108.16319210910997
 11
205.0386607028685
 21
107.85036751903762
  0
LINE
  8
_0-3_デ__タ_003
  6
CONTINUOUS
 62
    7
 10
205.0386607028685
 20
107.85036751903762
 11
203.89003729135575
 21
107.32757275652189
  0
LINE
  8
_0-3_デ__タ_003
  6
CONTINUOUS
 62
    7
 10
203.89003729135575
 20
107.32757275652189
 11
203.78638974760437
 21
107.01474816644959
  0
LINE
  8
_0-3_デ__タ_003
  6
CONTINUOUS
 62
    7
 10
203.79318614614303
 20
106.99774723233908
 11
203.80677894322028
 21
106.94589314956217
  0
LINE
  8
_0-3_デ__タ_003
  6
CONTINUOUS
 62
    7
 10
203.78638974760437
 20
106.91018872045056
 11
203.89003729135575
 21
106.70107229593198
  0
LINE
  8
_0-3_デ__タ_003
  6
CONTINUOUS
 62
    7
 10
203.89003729135575
 20
106.70107229593198
 11
205.0386607028685
 21
106.17912881386162
  0
LINE
  8
_0-3_デ__タ_003
  6
CONTINUOUS
 62
    7
 10
205.0386607028685
 20
106.17912881386162
 11
205.24765489000592
 21
105.86545294334401
  0
LINE
  8
_0-3_デ__タ_003
  6
CONTINUOUS
 62
    7
 10
205.24765489000592
 20
105.86545294334401
 11
205.0386607028685
 21
105.55177707282645
  0
LINE
  8
_0-3_デ__タ_003
  6
CONTINUOUS
 62
    7
 10
205.0386607028685
 20
105.55177707282645
 11
203.89003729135575
 21
105.02983359075598
  0
LINE
  8
_0-3_デ__タ_003
  6
CONTINUOUS
 62
    7
 10
203.89003729135575
 20
105.02983359075598
 11
203.78638974760437
 21
104.71615772023837
  0
LINE
  8
_0-3_デ__タ_003
  6
CONTINUOUS
 62
    7
 10
203.79318614614303
 20
104.69915678612786
 11
203.80677894322028
 21
104.647302703351
  0
LINE
  8
_0-3_デ__タ_003
  6
CONTINUOUS
 62
    7
 10
203.78638974760437
 20
104.61159827423934
 11
203.89003729135575
 21
104.40333313016608
  0
LINE
  8
_0-3_デ__タ_003
  6
CONTINUOUS
 62
    7
 10
203.89003729135575
 20
104.40333313016608
 11
205.0386607028685
 21
103.88053836765046
  0
LINE
  8
_0-3_デ__タ_003
  6
CONTINUOUS
 62
    7
 10
205.0386607028685
 20
103.88053836765046
 11
205.24765489000592
 21
103.56771377757816
  0
LINE
  8
_0-3_デ__タ_003
  6
CONTINUOUS
 62
    7
 10
205.24765489000592
 20
103.56771377757816
 11
205.0386607028685
 21
103.25403790706055
  0
LINE
  8
_0-3_デ__タ_003
  6
CONTINUOUS
 62
    7
 10
205.0386607028685
 20
103.25403790706055
 11
203.89003729135575
 21
102.73209442499008
  0
LINE
  8
_0-3_デ__タ_003
  6
CONTINUOUS
 62
    7
 10
203.89003729135575
 20
102.73209442499008
 11
203.78638974760437
 21
102.41841855447252
  0
LINE
  8
_0-3_デ__タ_003
  6
CONTINUOUS
 62
    7
 10
203.78638974760437
 20
102.41841855447252
 11
203.78638974760437
 21
102.31385910847349
  0
LINE
  8
_0-3_デ__タ_003
  6
CONTINUOUS
 62
    7
 10
203.78638974760437
 20
102.31385910847349
 11
203.89003729135575
 21
102.10474268395491
  0
LINE
  8
_0-3_デ__タ_003
  6
CONTINUOUS
 62
    7
 10
203.89003729135575
 20
102.10474268395491
 11
205.0386607028685
 21
101.58279920188455
  0
LINE
  8
_0-3_デ__タ_003
  6
CONTINUOUS
 62
    7
 10
205.0386607028685
 20
101.58279920188455
 11
205.24765489000592
 21
101.26912333136694
  0
LINE
  8
_0-3_デ__タ_003
  6
CONTINUOUS
 62
    7
 10
205.24765489000592
 20
101.26912333136694
 11
205.0386607028685
 21
100.95629627381506
  0
LINE
  8
_0-3_デ__タ_003
  6
CONTINUOUS
 62
    7
 10
205.0386607028685
 20
100.95629627381506
 11
203.89003729135575
 21
100.32894453277983
  0
LINE
  8
_0-3_デ__タ_003
  6
CONTINUOUS
 62
    7
 10
203.89003729135575
 20
100.32894453277983
 11
203.78638974760437
 21
100.12067692122714
  0
LINE
  8
_0-3_デ__タ_003
  6
CONTINUOUS
 62
    7
 10
203.78638974760437
 20
100.12067692122714
 11
203.89003729135575
 21
99.80700105070953
  0
LINE
  8
_0-3_デ__タ_003
  6
CONTINUOUS
 62
    7
 10
203.89003729135575
 20
99.80700105070953
 11
205.0386607028685
 21
99.180500590119621
  0
LINE
  8
_0-3_デ__タ_003
  6
CONTINUOUS
 62
    7
 10
205.0386607028685
 20
99.180500590119621
 11
205.24765489000592
 21
98.971384165601037
  0
LINE
  8
_0-3_デ__タ_003
  6
CONTINUOUS
 62
    7
 10
205.24765489000592
 20
98.971384165601037
 11
205.0386607028685
 21
98.657708295083481
  0
LINE
  8
_0-3_デ__タ_003
  6
CONTINUOUS
 62
    7
 10
205.0386607028685
 20
98.657708295083481
 11
203.89003729135575
 21
98.031205367013982
  0
LINE
  8
_0-3_デ__タ_003
  6
CONTINUOUS
 62
    7
 10
203.89003729135575
 20
98.031205367013982
 11
203.78638974760437
 21
97.822088942495398
  0
LINE
  8
_0-3_デ__タ_003
  6
CONTINUOUS
 62
    7
 10
203.78638974760437
 20
97.822088942495398
 11
203.78638974760437
 21
96.881910143908456
  0
LINE
  8
_0-3_デ__タ_003
  6
CONTINUOUS
 62
    7
 10
205.24765489000592
 20
116.52023444795562
 11
203.78638974760437
 21
116.52023444795562
  0
LINE
  8
_0-3_デ__タ_003
  6
CONTINUOUS
 62
    7
 10
210.67642865100899
 20
118.08691370713247
 11
210.67642865100899
 21
119.86270939082807
  0
LINE
  8
_0-3_デ__タ_003
  6
CONTINUOUS
 62
    7
 10
210.67642865100899
 20
119.91456347360487
 11
210.47083266314095
 21
120.51896518733066
  0
LINE
  8
_0-3_デ__タ_003
  6
CONTINUOUS
 62
    7
 10
210.46743446387163
 20
120.48921231889751
 11
210.15479026694564
 21
120.90744516793457
  0
LINE
  8
_0-3_デ__タ_003
  6
CONTINUOUS
 62
    7
 10
210.14969296804171
 20
120.98225174550045
 11
210.02055892977043
 21
121.96578415980908
  0
LINE
  8
_0-3_デ__タ_003
  6
CONTINUOUS
 62
    7
 10
203.89003729135575
 20
111.66293186120357
 11
203.89258717382634
 21
111.62807871253717
  0
LINE
  8
_0-3_デ__タ_003
  6
CONTINUOUS
 62
    7
 10
203.89258717382634
 20
111.62892999298244
 11
203.89513459025974
 21
111.61362915228302
  0
LINE
  8
_0-3_デ__タ_003
  6
CONTINUOUS
 62
    7
 10
203.89003729135575
 20
109.36434141499241
 11
203.89258717382634
 21
109.33033954677127
  0
LINE
  8
_0-3_デ__タ_003
  6
CONTINUOUS
 62
    7
 10
203.89258717382634
 20
109.33033954677127
 11
203.89513459025974
 21
109.3150387060718
  0
LINE
  8
_0-3_デ__タ_003
  6
CONTINUOUS
 62
    7
 10
203.89003729135575
 20
107.06660224922651
 11
203.89258717382634
 21
107.03260038100537
  0
LINE
  8
_0-3_デ__タ_003
  6
CONTINUOUS
 62
    7
 10
203.89258717382634
 20
107.03260038100537
 11
203.89513459025974
 21
107.01729707282642
  0
LINE
  8
_0-3_デ__タ_003
  6
CONTINUOUS
 62
    7
 10
203.89003729135575
 20
104.7688630834606
 11
203.89258717382634
 21
104.73400993479426
  0
LINE
  8
_0-3_デ__タ_003
  6
CONTINUOUS
 62
    7
 10
203.89258717382634
 20
104.73485874776004
 11
203.89513459025974
 21
104.71955790706046
  0
LINE
  8
_0-3_デ__タ_003
  6
CONTINUOUS
 62
    7
 10
203.89003729135575
 20
102.47027263724938
 11
203.89258717382634
 21
102.43626830154882
  0
LINE
  8
_0-3_デ__タ_003
  6
CONTINUOUS
 62
    7
 10
203.89258717382634
 20
102.43626830154882
 11
203.89513459025974
 21
102.4209674608493
  0
LINE
  8
_0-3_デ__タ_003
  6
CONTINUOUS
 62
    7
 10
203.79318614614303
 20
102.40141762036195
 11
203.80677894322028
 21
102.34956353758515
  0
LINE
  8
_0-3_デ__タ_003
  6
CONTINUOUS
 62
    7
 10
148.3313386300791
 20
99.144798628487493
 11
148.34663052679102
 21
99.086992985032126
  0
LINE
  8
_0-3_デ__タ_003
  6
CONTINUOUS
 62
    7
 10
148.34790546802631
 20
99.068291957510567
 11
148.34960456766098
 21
99.057240116598919
  0
LINE
  8
_0-3_デ__タ_003
  6
CONTINUOUS
 62
    7
 10
148.34960456766098
 20
99.058091397044237
 11
148.35215198409438
 21
99.024087061343678
  0
LINE
  8
_0-3_デ__タ_003
  6
CONTINUOUS
 62
    7
 10
148.35215198409438
 20
101.32182622710958
 11
148.34960456766098
 21
101.35583056281014
  0
LINE
  8
_0-3_デ__タ_003
  6
CONTINUOUS
 62
    7
 10
148.34960456766098
 20
101.35583056281014
 11
148.34790546802631
 21
101.3668799362422
  0
LINE
  8
_0-3_デ__タ_003
  6
CONTINUOUS
 62
    7
 10
148.34663052679102
 20
101.3855834312434
 11
148.3313386300791
 21
101.44253779425334
  0
LINE
  8
_0-3_デ__タ_003
  6
CONTINUOUS
 62
    7
 10
148.35215198409438
 20
103.61956786035502
 11
148.34960456766098
 21
103.65356972857604
  0
LINE
  8
_0-3_デ__タ_003
  6
CONTINUOUS
 62
    7
 10
148.34960456766098
 20
103.65356972857604
 11
148.34790546802631
 21
103.66462156948764
  0
LINE
  8
_0-3_デ__タ_003
  6
CONTINUOUS
 62
    7
 10
148.34663052679102
 20
103.68332259700919
 11
148.3313386300791
 21
103.74027696001924
  0
LINE
  8
_0-3_デ__タ_003
  6
CONTINUOUS
 62
    7
 10
148.35215198409438
 20
112.8122270843091
 11
148.34960456766098
 21
112.84622895253024
  0
LINE
  8
_0-3_デ__タ_003
  6
CONTINUOUS
 62
    7
 10
148.34960456766098
 20
112.84538013956445
 11
148.34790546802631
 21
112.85728079344183
  0
LINE
  8
_0-3_デ__タ_003
  6
CONTINUOUS
 62
    7
 10
148.34663052679102
 20
112.87513300799766
 11
148.3313386300791
 21
112.93293618397344
  0
LINE
  8
_0-3_デ__タ_003
  6
CONTINUOUS
 62
    7
 10
170.06639871130815
 20
82.780945530870568
 11
171.63216218029694
 21
82.884653696424451
  0
LINE
  8
_0-3_デ__タ_003
  6
CONTINUOUS
 62
    7
 10
203.89003729135575
 20
113.96067102696948
 11
203.89258717382634
 21
113.9266691587484
  0
LINE
  8
_0-3_デ__タ_003
  6
CONTINUOUS
 62
    7
 10
203.89258717382634
 20
113.9266691587484
 11
203.89513459025974
 21
113.91136831804893
  0
LINE
  8
_0-0_0
  6
CONTINUOUS
 62
    7
 10
218.8017499793684
 20
223.65020408732323
 11
219.65132199103246
 21
222.59781912360677
  0
LINE
  8
_0-0_0
  6
CONTINUOUS
 62
    7
 10
217.46197169386355
 20
221.46637364757748
 11
214.53859062622459
 21
221.46637364757748
  0
LINE
  8
_0-0_0
  6
CONTINUOUS
 62
    7
 10
214.53859062622459
 20
221.46637364757748
 11
214.53859062622459
 21
218.43715016873978
  0
LINE
  8
_0-0_0
  6
CONTINUOUS
 62
    7
 10
215.47821738456278
 20
217.49697137015266
 11
217.46197169386355
 21
217.49697137015266
  0
LINE
  8
_0-0_0
  6
CONTINUOUS
 62
    7
 10
185.82980666901889
 20
221.67506813309262
 11
166.20381257769318
 21
221.67506813309262
  0
LINE
  8
_0-0_0
  6
CONTINUOUS
 62
    7
 10
141.98375146475306
 20
221.67506813309262
 11
140.52248385631432
 21
221.67506813309262
  0
LINE
  8
_0-0_0
  6
CONTINUOUS
 62
    7
 10
187.50006846459499
 20
221.46637364757748
 11
187.39642092084361
 21
221.67506813309262
  0
LINE
  8
_0-0_0
  6
CONTINUOUS
 62
    7
 10
183.53341062882933
 20
217.49697137015266
 11
168.50020861788275
 21
217.49697137015266
  0
LINE
  8
_0-0_0
  6
CONTINUOUS
 62
    7
 10
182.90727391817862
 20
209.349472329788
 11
183.53341062882933
 21
209.45403177578692
  0
LINE
  8
_0-0_0
  6
CONTINUOUS
 62
    7
 10
183.53341062882933
 20
209.45403177578692
 11
183.53341062882933
 21
217.49697137015266
  0
LINE
  8
_0-0_0
  6
CONTINUOUS
 62
    7
 10
133.33679175233033
 20
223.65020408732323
 11
132.48636895783034
 21
222.59781912360677
  0
LINE
  8
_0-0_0
  6
CONTINUOUS
 62
    7
 10
132.48636895783034
 20
222.59781912360677
 11
133.47569869604735
 21
221.67506813309262
  0
LINE
  8
_0-0_0
  6
CONTINUOUS
 62
    7
 10
133.4234482997351
 20
221.67506813309262
 11
134.57164755284848
 21
221.67506813309262
  0
ARC
  8
_0-0_0
  6
CONTINUOUS
 62
    7
 10
176.16105767519403
 20
-84.846281946027943
 40
311.45465102765399
 50
82.135126731974367
 51
97.903068700290447
  0
LINE
  8
_0-5_デ__タ_005
  6
CONTINUOUS
 62
    7
 10
233.95643884721161
 20
204.15865319428048
 11
233.95643884721161
 21
200.18967532333858
  0
LINE
  8
_0-5_デ__タ_005
  6
CONTINUOUS
 62
    7
 10
233.95643884721161
 20
200.18967532333858
 11
118.07718039950041
 21
200.18967532333858
  0
LINE
  8
_0-4_デ__タ_004
  6
CONTINUOUS
 62
    7
 10
127.57711032285656
 20
206.87462767656302
 11
127.57711032285656
 21
204.47232906479809
  0
LINE
  8
_0-4_デ__タ_004
  6
CONTINUOUS
 62
    7
 10
224.45650892385552
 20
204.47232906479809
 11
224.45650892385552
 21
206.87462767656302
  0
LINE
  8
_0-3_デ__タ_003
  6
CONTINUOUS
 62
    7
 10
141.49930302001448
 20
122.44018603360404
 11
142.11713448512958
 21
121.96578415980908
  0
LINE
  8
_0-3_デ__タ_003
  6
CONTINUOUS
 62
    7
 10
142.11713448512958
 20
121.96578415980908
 11
141.97733172860259
 21
120.90101519002546
  0
LINE
  8
_0-3_デ__タ_003
  6
CONTINUOUS
 62
    7
 10
141.97733172860259
 20
120.90101519002546
 11
141.70341826386667
 21
120.62666473605394
  0
LINE
  8
_0-3_デ__タ_003
  6
CONTINUOUS
 62
    7
 10
141.70341826386667
 20
120.62666473605394
 11
141.3576147541024
 21
119.60798573682125
  0
LINE
  8
_0-3_デ__タ_003
  6
CONTINUOUS
 62
    7
 10
141.3576147541024
 20
119.60798573682125
 11
141.3576147541024
 21
118.24285583152722
  0
LINE
  8
_0-3_デ__タ_003
  6
CONTINUOUS
 62
    7
 10
141.3576147541024
 20
118.24285583152722
 11
142.55810417634351
 21
117.04217793002597
  0
LINE
  8
_0-3_デ__タ_003
  6
CONTINUOUS
 62
    7
 10
138.31371847562852
 20
122.87937112928921
 11
141.49930302001448
 21
122.44018603360404
  0
LINE
  8
_0-0_0
  6
CONTINUOUS
 62
    7
 10
213.80795805502387
 20
122.89151093066239
 11
138.30282709352693
 21
122.89151093066239
  0
LINE
  8
_0-3_デ__タ_003
  6
CONTINUOUS
 62
    7
 10
183.01092146193
 20
83.824830027531917
 11
183.01092146193
 21
96.881910143908456
  0
LINE
  8
_0-3_デ__タ_003
  6
CONTINUOUS
 62
    7
 10
169.02227116034547
 20
96.881910143908456
 11
169.02227116034547
 21
83.824830027531917
  0
LINE
  8
_0-3_デ__タ_003
  6
CONTINUOUS
 62
    7
 10
146.78596435670622
 20
116.52023444795562
 11
146.78596435670622
 21
117.04217793002597
  0
LINE
  8
_0-3_デ__タ_003
  6
CONTINUOUS
 62
    7
 10
142.55810417634351
 20
117.04217793002597
 11
146.78596435670622
 21
117.04217793002597
  0
LINE
  8
_0-3_デ__タ_003
  6
CONTINUOUS
 62
    7
 10
146.78596435670622
 20
116.206558577438
 11
146.89046021725628
 21
116.52023444795562
  0
LINE
  8
_0-3_デ__タ_003
  6
CONTINUOUS
 62
    7
 10
146.78596435670622
 20
116.52023444795562
 11
146.89046021725628
 21
116.52023444795562
  0
LINE
  8
_0-3_デ__タ_003
  6
CONTINUOUS
 62
    7
 10
210.02055892977043
 20
121.96578415980908
 11
210.66168100406034
 21
122.45780613494496
  0
LINE
  8
_0-3_デ__タ_003
  6
CONTINUOUS
 62
    7
 10
210.66168100406034
 20
122.45780613494496
 11
213.84084230068092
 21
122.89604392467849
  0
LINE
  8
_0-3_デ__タ_003
  6
CONTINUOUS
 62
    7
 10
205.24765489000592
 20
117.04217793002597
 11
205.24765489000592
 21
116.52023444795562
  0
LINE
  8
_0-3_デ__タ_003
  6
CONTINUOUS
 62
    7
 10
205.24765489000592
 20
117.04217793002597
 11
209.57954206762949
 21
117.04217793002597
  0
LINE
  8
_0-3_デ__タ_003
  6
CONTINUOUS
 62
    7
 10
209.57954206762949
 20
117.04217793002597
 11
210.67642865100899
 21
118.13876778990938
  0
LINE
  8
_0-3_デ__タ_003
  6
CONTINUOUS
 62
    7
 10
203.78638974760437
 20
116.10199913143892
 11
203.89003729135575
 21
115.99743968543989
  0
LINE
  8
_0-3_デ__タ_003
  6
CONTINUOUS
 62
    7
 10
203.78638974760437
 20
116.52023444795562
 11
203.78638974760437
 21
116.10199913143892
  0
LINE
  8
_0-6_図面
  6
CONTINUOUS
 62
    7
 10
122.41095129446884
 20
182.54013335438259
 11
125.17621595607969
 21
182.54013335438259
  0
LINE
  8
_0-6_図面
  6
CONTINUOUS
 62
    7
 10
120.16320581175748
 20
184.7690161269901
 11
122.41095129446884
 21
182.54013335438259
  0
LINE
  8
_0-6_図面
  6
CONTINUOUS
 62
    7
 10
120.06093470880126
 20
198.62601254311403
 11
120.16320581175748
 21
184.7690161269901
  0
LINE
  8
_0-6_図面
  6
CONTINUOUS
 62
    7
 10
117.03347947297436
 20
199.200237528527
 11
117.60736578731277
 21
198.62601254311403
  0
LINE
  8
_0-6_図面
  6
CONTINUOUS
 62
    7
 10
117.03347947297436
 20
200.18967532330751
 11
117.03347947297436
 21
199.200237528527
  0
LINE
  8
_0-6_図面
  6
CONTINUOUS
 62
    7
 10
118.07718039950041
 20
200.18967532330751
 11
117.03347947297436
 21
200.18967532330751
  0
LINE
  8
_0-6_図面
  6
CONTINUOUS
 62
    7
 10
233.95643884721161
 20
200.18967532333858
 11
234.99971561533837
 21
200.18967532333858
  0
LINE
  8
_0-6_図面
  6
CONTINUOUS
 62
    7
 10
234.99971561533837
 20
199.09610194240753
 11
234.99971561533837
 21
200.18967532333858
  0
LINE
  8
_0-6_図面
  6
CONTINUOUS
 62
    7
 10
234.53074931994942
 20
198.62601254311403
 11
234.99971561533837
 21
199.09610194240753
  0
LINE
  8
_0-6_図面
  6
CONTINUOUS
 62
    7
 10
231.97268453791085
 20
198.62601254311403
 11
234.53074931994942
 21
198.62601254311403
  0
LINE
  8
_0-4_デ__タ_004
  6
CONTINUOUS
 62
    7
 10
231.76453866757217
 20
204.15865319428048
 11
231.76453866757217
 21
206.87462767656302
  0
LINE
  8
_0-5_デ__タ_005
  6
CONTINUOUS
 62
    7
 10
231.76453866757217
 20
204.15865319428048
 11
233.95643884721161
 21
204.15865319428048
  0
LINE
  8
_0-5_デ__タ_005
  6
CONTINUOUS
 62
    7
 10
118.07718039950041
 20
200.18967532333858
 11
118.07718039950041
 21
204.47232906479809
  0
LINE
  8
_0-0_0
  6
CONTINUOUS
 62
    7
 10
139.37386044480158
 20
215.40792422242237
 11
136.5554018621493
 21
215.40792422242237
  0
ARC
  8
_0-6_図面
  6
CONTINUOUS
 62
    7
 10
136.94918163749921
 20
214.34741510676983
 40
1.1312568655511912
 50
110.3705663599259
 51
173.89397130839944
  0
ARC
  8
_0-6_図面
  6
CONTINUOUS
 62
    7
 10
139.19665912253484
 20
217.47771938982785
 40
2.0773666849230543
 50
274.89333007281732
 51
351.86389440258267
  0
LINE
  8
_0-4_デ__タ_004
  6
CONTINUOUS
 62
    7
 10
118.07718039950041
 20
204.47232906479809
 11
231.76453866757217
 21
204.47232906479809
  0
LINE
  8
_0-4_デ__タ_004
  6
CONTINUOUS
 62
    7
 10
120.26950473753928
 20
206.87462767656302
 11
120.26950473753928
 21
204.47232906479809
  0
LINE
  8
_0-4_デ__タ_004
  6
CONTINUOUS
 62
    7
 10
231.76453866757217
 20
206.87462767656302
 11
120.26950473753928
 21
206.87462767656302
  0
LINE
  8
_0-3_デ__タ_003
  6
CONTINUOUS
 62
    7
 10
231.92086076603513
 20
207.08374410108161
 11
224.45650892385552
 21
207.08374410108161
  0
LINE
  8
_0-3_デ__タ_003
  6
CONTINUOUS
 62
    7
 10
233.1213079494236
 20
208.28531781344702
 11
231.92086076603513
 21
207.08374410108161
  0
LINE
  8
_0-3_デ__タ_003
  6
CONTINUOUS
 62
    7
 10
120.11276094671408
 20
209.38191014080996
 11
119.01680962387579
 21
208.28531781344702
  0
LINE
  8
_0-3_デ__タ_003
  6
CONTINUOUS
 62
    7
 10
168.50020861788275
 20
209.45403177578692
 11
169.12676948693277
 21
209.349472329788
  0
LINE
  8
_0-3_デ__タ_003
  6
CONTINUOUS
 62
    7
 10
169.12676948693277
 20
209.349472329788
 11
182.90727391817862
 21
209.349472329788
  0
LINE
  8
_0-0_0
  6
CONTINUOUS
 62
    7
 10
217.46197169386355
 20
221.67506813309262
 11
217.46197169386355
 21
221.46637364757748
  0
LINE
  8
_0-0_0
  6
CONTINUOUS
 62
    7
 10
219.65132199103246
 20
222.59781912360677
 11
218.66241887725201
 21
221.67506813309262
  0
LINE
  8
_0-0_0
  6
CONTINUOUS
 62
    7
 10
218.66241887725201
 20
221.67506813309262
 11
134.57164755284848
 21
221.67506813309262
  0
LINE
  8
_0-0_0
  6
CONTINUOUS
 62
    7
 10
134.57164755284848
 20
221.46637364757748
 11
134.57164755284848
 21
221.67506813309262
  0
LINE
  8
_0-0_0
  6
CONTINUOUS
 62
    7
 10
132.58831740194705
 20
209.38191014080996
 11
132.58831740194705
 21
215.40792422242237
  0
LINE
  8
_0-0_0
  6
CONTINUOUS
 62
    7
 10
135.72093053413116
 20
209.38191014080996
 11
135.82434266651197
 21
214.46774542383548
  0
LINE
  8
_0-0_0
  6
CONTINUOUS
 62
    7
 10
216.20885242180074
 20
214.46774542383548
 11
216.31268602441443
 21
209.38191014080996
  0
LINE
  8
_0-0_0
  6
CONTINUOUS
 62
    7
 10
219.54937354691575
 20
215.40792422242237
 11
219.54937354691575
 21
209.38191014080996
  0
LINE
  8
_0-0_0
  6
CONTINUOUS
 62
    7
 10
210.78007866079761
 20
217.39241192415375
 11
210.78007866079761
 21
219.16821007532874
  0
LINE
  8
_0-0_0
  6
CONTINUOUS
 62
    7
 10
168.50020861788275
 20
217.49697137015266
 11
168.50020861788275
 21
209.38191014080996
  0
LINE
  8
_0-0_0
  6
CONTINUOUS
 62
    7
 10
164.53355078211709
 20
221.46637364757748
 11
164.63719832586847
 21
221.67506813309262
  0
LINE
  8
_0-0_0
  6
CONTINUOUS
 62
    7
 10
168.50020861788275
 20
217.49697137015266
 11
164.53355078211709
 21
221.46637364757748
  0
LINE
  8
_0-0_0
  6
CONTINUOUS
 62
    7
 10
187.50006846459499
 20
221.46637364757748
 11
183.53341062882933
 21
217.54924985941238
  0
LINE
  8
_0-0_0
  6
CONTINUOUS
 62
    7
 10
215.58271571115003
 20
215.40792422242237
 11
213.49531385809789
 21
215.40792422242237
  0
LINE
  8
_0-0_0
  6
CONTINUOUS
 62
    7
 10
214.53859062622459
 20
221.46637364757748
 11
187.50006846459499
 21
221.46637364757748
  0
ARC
  8
_0-3_デ__タ_003
  6
CONTINUOUS
 62
    7
 10
202.53469639747985
 20
218.44296742432826
 40
8.2772160519745714
 50
5.0266533569599536
 51
21.424107075720368
  0
LINE
  8
_0-0_0
  6
CONTINUOUS
 62
    7
 10
134.57164755284848
 20
221.46637364757748
 11
164.53355078211709
 21
221.46637364757748
  0
LINE
  8
_0-0_0
  6
CONTINUOUS
 62
    7
 10
137.59910278867537
 20
218.4894286579995
 11
137.59910278867537
 21
221.46637364757748
  0
ARC
  8
_0-3_デ__タ_003
  6
CONTINUOUS
 62
    7
 10
156.11919937154423
 20
217.07046597591852
 40
14.866514337646848
 50
162.80096945012056
 51
179.56351335408567
  0
LINE
  8
_0-3_デ__タ_003
  6
CONTINUOUS
 62
    7
 10
203.78638974760437
 20
96.881910143908456
 11
148.24765365750707
 21
96.881910143908456
  0
LINE
  8
_0-3_デ__タ_003
  6
CONTINUOUS
 62
    7
 10
148.24765365750707
 20
96.881910143908456
 11
148.24765365750707
 21
98.971384165601037
  0
LINE
  8
_0-6_図面
  6
CONTINUOUS
 62
    7
 10
231.86844937550219
 20
184.56022726874502
 11
231.97268453791085
 21
198.62601254311403
  0
LINE
  8
_0-6_図面
  6
CONTINUOUS
 62
    7
 10
229.83168410649441
 20
182.54013335438259
 11
231.86844937550219
 21
184.56022726874502
  0
LINE
  8
_0-6_図面
  6
CONTINUOUS
 62
    7
 10
226.85740329063239
 20
182.54013335438259
 11
229.83168410649441
 21
182.54013335438259
  0
LINE
  8
_0-1_DEFPOINTS
  6
CONTINUOUS
 62
    7
 10
127.57711032285656
 20
236.90287109800693
 11
224.45650892385552
 21
236.90287109800693
  0
LINE
  8
_0-1_DEFPOINTS
  6
CONTINUOUS
 62
    7
 10
127.57711032285656
 20
236.90287109800693
 11
129.54672582888099
 21
237.25016745334079
  0
LINE
  8
_0-1_DEFPOINTS
  6
CONTINUOUS
 62
    7
 10
127.57711032285656
 20
236.90287109800693
 11
129.54672582888099
 21
236.55557474267306
  0
LINE
  8
_0-1_DEFPOINTS
  6
CONTINUOUS
 62
    7
 10
224.45650892385552
 20
236.90287109800693
 11
222.48689341783111
 21
236.55557474267306
  0
LINE
  8
_0-1_DEFPOINTS
  6
CONTINUOUS
 62
    7
 10
224.45650892385552
 20
236.90287109800693
 11
222.48689341783111
 21
237.25016745334079
  0
LINE
  8
_0-1_DEFPOINTS
  6
CONTINUOUS
 62
    7
 10
127.57711032285656
 20
236.90287109800693
 11
127.57711032285656
 21
209.38191014080996
  0
LINE
  8
_0-1_DEFPOINTS
  6
CONTINUOUS
 62
    7
 10
224.45650892385552
 20
236.90287109800693
 11
224.45650892385552
 21
209.38191014080996
  0
LINE
  8
_0-1_DEFPOINTS
  6
CONTINUOUS
 62
    7
 10
94.066113473697698
 20
207.08374410108163
 11
94.066113473697698
 21
183.8942528361265
  0
LINE
  8
_0-1_DEFPOINTS
  6
CONTINUOUS
 62
    7
 10
94.066113473697698
 20
207.08374410108163
 11
94.413409829031565
 21
205.1141285950572
  0
LINE
  8
_0-1_DEFPOINTS
  6
CONTINUOUS
 62
    7
 10
94.066113473697698
 20
207.08374410108163
 11
93.71881711836383
 21
205.1141285950572
  0
LINE
  8
_0-1_DEFPOINTS
  6
CONTINUOUS
 62
    7
 10
94.066113473697698
 20
183.8942528361265
 11
93.71881711836383
 21
185.86386834215094
  0
LINE
  8
_0-1_DEFPOINTS
  6
CONTINUOUS
 62
    7
 10
94.066113473697698
 20
183.8942528361265
 11
94.413409829031565
 21
185.86386834215094
  0
LINE
  8
_0-1_DEFPOINTS
  6
CONTINUOUS
 62
    7
 10
94.066113473697698
 20
207.08374410108163
 11
120.26950473753928
 21
207.08374410108161
  0
LINE
  8
_0-1_DEFPOINTS
  6
CONTINUOUS
 62
    7
 10
94.066113473697698
 20
183.8942528361265
 11
120.26950473753928
 21
183.8942528361265
  0
LINE
  8
_0-1_DEFPOINTS
  6
CONTINUOUS
 62
    7
 10
66.250823761137696
 20
209.38191014081002
 11
66.250823761137696
 21
96.881912231445313
  0
LINE
  8
_0-1_DEFPOINTS
  6
CONTINUOUS
 62
    7
 10
66.250823761137696
 20
209.38191014081002
 11
66.598120116471563
 21
207.41229463478561
  0
LINE
  8
_0-1_DEFPOINTS
  6
CONTINUOUS
 62
    7
 10
66.250823761137696
 20
209.38191014081002
 11
65.903527405803828
 21
207.41229463478561
  0
LINE
  8
_0-1_DEFPOINTS
  6
CONTINUOUS
 62
    7
 10
66.250823761137696
 20
96.881912231445313
 11
65.903527405803828
 21
98.851527737469723
  0
LINE
  8
_0-1_DEFPOINTS
  6
CONTINUOUS
 62
    7
 10
66.250823761137696
 20
96.881912231445313
 11
66.598120116471563
 21
98.851527737469723
  0
LINE
  8
_0-1_DEFPOINTS
  6
CONTINUOUS
 62
    7
 10
146.78596435670622
 20
65.026072870558437
 11
205.24765489000592
 21
65.026072870558437
  0
LINE
  8
_0-1_DEFPOINTS
  6
CONTINUOUS
 62
    7
 10
146.78596435670622
 20
65.026072870558437
 11
148.75557986273063
 21
65.373369225892304
  0
LINE
  8
_0-1_DEFPOINTS
  6
CONTINUOUS
 62
    7
 10
146.78596435670622
 20
65.026072870558437
 11
148.75557986273063
 21
64.67877651522457
  0
LINE
  8
_0-1_DEFPOINTS
  6
CONTINUOUS
 62
    7
 10
205.24765489000592
 20
65.026072870558437
 11
203.27803938398151
 21
64.67877651522457
  0
LINE
  8
_0-1_DEFPOINTS
  6
CONTINUOUS
 62
    7
 10
205.24765489000592
 20
65.026072870558437
 11
203.27803938398151
 21
65.373369225892304
  0
LINE
  8
_0-1_DEFPOINTS
  6
CONTINUOUS
 62
    7
 10
146.78596435670622
 20
65.026072870558437
 11
146.78596435670622
 21
96.881910143908456
  0
LINE
  8
_0-1_DEFPOINTS
  6
CONTINUOUS
 62
    7
 10
205.24765489000592
 20
65.026072870558437
 11
205.24765489000592
 21
96.881910143908456
  0
LINE
  8
_0-1_DEFPOINTS
  6
CONTINUOUS
 62
    7
 10
66.250823761137696
 20
96.881912231445313
 11
146.78596435670622
 21
96.881910143908456
  0
LINE
  8
_0-1_DEFPOINTS
  6
CONTINUOUS
 62
    7
 10
119.01680962387579
 20
247.5230788961394
 11
120.9864251299002
 21
247.87037525147323
  0
LINE
  8
_0-1_DEFPOINTS
  6
CONTINUOUS
 62
    7
 10
119.01680962387579
 20
247.5230788961394
 11
120.9864251299002
 21
247.17578254080553
  0
LINE
  8
_0-1_DEFPOINTS
  6
CONTINUOUS
 62
    7
 10
233.01680962283629
 20
247.5230788961394
 11
231.04719411681188
 21
247.17578254080553
  0
LINE
  8
_0-1_DEFPOINTS
  6
CONTINUOUS
 62
    7
 10
233.01680962283629
 20
247.5230788961394
 11
231.04719411681188
 21
247.87037525147323
  0
CIRCLE
  8
_0-0_0
  6
CONTINUOUS
 62
    7
 10
176.06884547283036
 20
317.97516422975821
 40
43.582476515000003
  0
CIRCLE
  8
_0-0_0
  6
CONTINUOUS
 62
    7
 10
176.06884547283036
 20
317.97516422975821
 40
45.466789259000002
  0
CIRCLE
  8
_0-0_0
  6
CONTINUOUS
 62
    7
 10
176.06884547283036
 20
317.97516422975821
 40
57.287850973967053
  0
LINE
  8
_0-0_0
  6
CONTINUOUS
 62
    7
 10
187.39642092211707
 20
273.94205214393082
 11
187.39642092211707
 21
275.94696850856491
  0
LINE
  8
_0-0_0
  6
CONTINUOUS
 62
    7
 10
164.53355078211709
 20
273.99601119197536
 11
164.53355078211709
 21
275.94696850856491
  0
LINE
  8
_0-0_0
  6
CONTINUOUS
 62
    7
 10
187.39642092211707
 20
362.00827631558553
 11
187.39642092211707
 21
360.00335995095145
  0
LINE
  8
_0-0_0
  6
CONTINUOUS
 62
    7
 10
164.53355078211709
 20
361.954317267541
 11
164.53355078211709
 21
360.00335995095145
  0
LINE
  8
_0-0_0
  6
CONTINUOUS
 62
    7
 10
220.10195755865769
 20
329.30273967904492
 11
218.0970411940236
 21
329.30273967904492
  0
LINE
  8
_0-0_0
  6
CONTINUOUS
 62
    7
 10
220.04799851061316
 20
306.43986953904493
 11
218.0970411940236
 21
306.43986953904493
  0
LINE
  8
_0-0_0
  6
CONTINUOUS
 62
    7
 10
132.03573338700298
 20
329.30273967904492
 11
134.04064975163706
 21
329.30273967904492
  0
LINE
  8
_0-0_0
  6
CONTINUOUS
 62
    7
 10
132.08969243504751
 20
306.43986953904493
 11
134.04064975163706
 21
306.43986953904493
  0
LINE
  8
_0-1_DEFPOINTS
  6
CONTINUOUS
 62
    7
 10
231.385951555052
 20
381.57635936902534
 11
233.35556706107641
 21
381.92365572435921
  0
LINE
  8
_0-1_DEFPOINTS
  6
CONTINUOUS
 62
    7
 10
231.385951555052
 20
382.27095207969307
 11
233.35556706107641
 21
381.92365572435921
  0
LINE
  8
_0-1_DEFPOINTS
  6
CONTINUOUS
 62
    7
 10
233.35556706107641
 20
318.33275763672913
 11
233.35556706107641
 21
381.92365572435921
  0
LINE
  8
_0-1_DEFPOINTS
  6
CONTINUOUS
 62
    7
 10
233.35556706107641
 20
381.92365572435921
 11
118.78211026895028
 21
381.92365572435921
  0
LINE
  8
_0-1_DEFPOINTS
  6
CONTINUOUS
 62
    7
 10
120.75172577497469
 20
382.27095207969307
 11
118.78211026895028
 21
381.92365572435921
  0
LINE
  8
_0-1_DEFPOINTS
  6
CONTINUOUS
 62
    7
 10
120.75172577497469
 20
381.57635936902534
 11
118.78211026895028
 21
381.92365572435921
  0
LINE
  8
_0-1_DEFPOINTS
  6
CONTINUOUS
 62
    7
 10
118.78211026895028
 20
318.33275763672913
 11
118.78211026895028
 21
381.92365572435921
  0
LINE
  8
_0-1_DEFPOINTS
  6
CONTINUOUS
 62
    7
 10
233.01680962283629
 20
247.5230788961394
 11
233.01680962283629
 21
209.79971858336421
  0
LINE
  8
_0-1_DEFPOINTS
  6
CONTINUOUS
 62
    7
 10
119.01680962387579
 20
247.5230788961394
 11
233.01680962283629
 21
247.5230788961394
  0
LINE
  8
_0-1_DEFPOINTS
  6
CONTINUOUS
 62
    7
 10
119.01680962387579
 20
247.5230788961394
 11
119.01680962387579
 21
209.79971858336421
  0
TEXT
  8
_0-1_DEFPOINTS
 62
    7
 10
167.31883866501337
 20
381.92365572435921
 40
7
 41
1
 50
0
  1
φ114
  0
TEXT
  8
_0-1_DEFPOINTS
 62
    7
 10
167.26680962335601
 20
247.5230788961394
 40
7
 41
1
 50
0
  1
φ114
  0
TEXT
  8
_0-1_DEFPOINTS
 62
    7
 10
169.01680962335607
 20
236.90287109800693
 40
7
 41
1
 50
0
  1
φ97
  0
TEXT
  8
_0-1_DEFPOINTS
 62
    7
 10
94.066113473697698
 20
188.48899846860405
 40
7
 41
1
 50
90
  1
23.2
  0
TEXT
  8
_0-1_DEFPOINTS
 62
    7
 10
66.250823761137696
 20
144.38191118612767
 40
7
 41
1
 50
90
  1
112.5
  0
TEXT
  8
_0-1_DEFPOINTS
 62
    7
 10
165.51680962335607
 20
65.026072870558437
 40
7
 41
1
 50
0
  1
φ58.5
  0
LINE
  8
_0-3_デ__タ_003
  6
CONTINUOUS
 62
    7
 10
232.02535662658531
 20
209.38191014080999
 11
233.1213079494236
 21
208.28531781344702
  0
LINE
  8
_0-3_デ__タ_003
  6
CONTINUOUS
 62
    7
 10
120.11276094671408
 20
209.38191014080996
 11
232.02535662658531
 21
209.38191014080996
  0
LINE
  8
_0-4_デ__タ_004
  6
CONTINUOUS
 62
    7
 10
231.24205196671008
 20
207.08374410108161
 11
120.21725680726425
 21
207.08374410108161
  0
ARC
  8
_0-0_0
  6
CONTINUOUS
 62
    7
 10
216.56114464715799
 20
214.50945129712005
 40
3.1203790723001861
 50
16.73449390851367
 51
73.220363226714611
  0
ARC
  8
_0-0_0
  6
CONTINUOUS
 62
    7
 10
215.50586504396139
 20
214.67815803128462
 40
0.7338015527204863
 50
343.33692358985809
 51
83.988418071560986
  0
ARC
  8
_0-0_0
  6
CONTINUOUS
 62
    7
 10
215.63441010527961
 20
218.59269930035083
 40
1.1068043472182851
 50
188.07903471608722
 51
261.88731331883491
  0
ARC
  8
_0-0_0
  6
CONTINUOUS
 62
    7
 10
136.09903692729742
 20
219.02192369806417
 40
1.5917752844434931
 50
286.66060383106867
 51
340.45609901512898
  0
ARC
  8
_0-0_0
  6
CONTINUOUS
 62
    7
 10
135.01981632734473
 20
215.07492175156077
 40
2.454195931422344
 50
99.283757571832268
 51
172.20165265880695
  0
LINE
  8
_0-3_デ__タ_003
  6
CONTINUOUS
 62
    7
 10
119.90387502187338
 20
207.39741997159922
 11
232.23424255142598
 21
207.39741997159922
  0
TEXT
  8
_0-0_0
 62
    7
 10
165.56884547283036
 20
314.47516422975821
 40
7
 41
1
 50
0
  1
KOHLER
  0
LINE
  8
_0-1_DEFPOINTS
  6
CONTINUOUS
 62
    7
 10
66.250823761137696
 20
209.38191014081002
 11
120.11276094671408
 21
209.38191014081002
  0
LINE
  8
_0-8_会社ロゴ項目
  6
CONTINUOUS
 62
    7
 10
445.01447726562498
 20
249.49553426093749
 11
445.22600626562496
 21
249.51672226093748
  0
LINE
  8
_0-8_会社ロゴ項目
  6
CONTINUOUS
 62
    7
 10
445.22600626562496
 20
249.51672226093748
 11
445.73415726562496
 21
249.6648612609375
  0
LINE
  8
_0-8_会社ロゴ項目
  6
CONTINUOUS
 62
    7
 10
445.73415726562496
 20
249.6648612609375
 11
446.19993426562496
 21
249.91876426093748
  0
LINE
  8
_0-8_会社ロゴ項目
  6
CONTINUOUS
 62
    7
 10
446.19993426562496
 20
249.91876426093748
 11
446.60197726562495
 21
250.2364022609375
  0
LINE
  8
_0-8_会社ロゴ項目
  6
CONTINUOUS
 62
    7
 10
446.60197726562495
 20
250.2364022609375
 11
446.94063026562497
 21
250.63844526093749
  0
LINE
  8
_0-8_会社ロゴ項目
  6
CONTINUOUS
 62
    7
 10
446.94063026562497
 20
250.63844526093749
 11
447.17351826562498
 21
251.10422226093749
  0
LINE
  8
_0-8_会社ロゴ項目
  6
CONTINUOUS
 62
    7
 10
447.17351826562498
 20
251.10422226093749
 11
447.32165726562499
 21
251.6122012609375
  0
LINE
  8
_0-8_会社ロゴ項目
  6
CONTINUOUS
 62
    7
 10
447.32165726562499
 20
251.6122012609375
 11
447.38504726562496
 21
252.1413682609375
  0
LINE
  8
_0-8_会社ロゴ項目
  6
CONTINUOUS
 62
    7
 10
447.38504726562496
 20
252.1413682609375
 11
447.32165726562499
 21
252.6493472609375
  0
LINE
  8
_0-8_会社ロゴ項目
  6
CONTINUOUS
 62
    7
 10
447.32165726562499
 20
252.6493472609375
 11
447.17351826562498
 21
253.15732626093748
  0
LINE
  8
_0-8_会社ロゴ項目
  6
CONTINUOUS
 62
    7
 10
447.17351826562498
 20
253.15732626093748
 11
446.94063026562497
 21
253.62293126093749
  0
LINE
  8
_0-8_会社ロゴ項目
  6
CONTINUOUS
 62
    7
 10
446.94063026562497
 20
253.62293126093749
 11
446.60197726562495
 21
254.0251462609375
  0
LINE
  8
_0-8_会社ロゴ項目
  6
CONTINUOUS
 62
    7
 10
446.60197726562495
 20
254.0251462609375
 11
446.19993426562496
 21
254.3426112609375
  0
LINE
  8
_0-8_会社ロゴ項目
  6
CONTINUOUS
 62
    7
 10
446.19993426562496
 20
254.3426112609375
 11
445.73415726562496
 21
254.5966872609375
  0
LINE
  8
_0-8_会社ロゴ項目
  6
CONTINUOUS
 62
    7
 10
445.73415726562496
 20
254.5966872609375
 11
445.22600626562496
 21
254.74482626093749
  0
LINE
  8
_0-8_会社ロゴ項目
  6
CONTINUOUS
 62
    7
 10
445.22600626562496
 20
254.74482626093749
 11
445.01447726562498
 21
254.78720126093748
  0
LINE
  8
_0-8_会社ロゴ項目
  6
CONTINUOUS
 62
    7
 10
431.12901926562495
 20
278.85377726093748
 11
431.12901926562495
 21
278.89597926093745
  0
LINE
  8
_0-8_会社ロゴ項目
  6
CONTINUOUS
 62
    7
 10
431.12901926562495
 20
278.89597926093745
 11
431.29851826562498
 21
279.40395926093748
  0
LINE
  8
_0-8_会社ロゴ項目
  6
CONTINUOUS
 62
    7
 10
431.29851826562498
 20
279.40395926093748
 11
431.34089326562497
 21
279.91211026093748
  0
LINE
  8
_0-8_会社ロゴ項目
  6
CONTINUOUS
 62
    7
 10
431.34089326562497
 20
279.91211026093748
 11
431.29851826562498
 21
280.42008926093752
  0
LINE
  8
_0-8_会社ロゴ項目
  6
CONTINUOUS
 62
    7
 10
431.29851826562498
 20
280.42008926093752
 11
431.12901926562495
 21
280.9068812609375
  0
LINE
  8
_0-8_会社ロゴ項目
  6
CONTINUOUS
 62
    7
 10
431.12901926562495
 20
280.9068812609375
 11
430.89613126562494
 21
281.37248626093748
  0
LINE
  8
_0-8_会社ロゴ項目
  6
CONTINUOUS
 62
    7
 10
430.89613126562494
 20
281.37248626093748
 11
430.55747826562498
 21
281.77470126093749
  0
LINE
  8
_0-8_会社ロゴ項目
  6
CONTINUOUS
 62
    7
 10
430.55747826562498
 20
281.77470126093749
 11
430.15543526562499
 21
282.11335426093751
  0
LINE
  8
_0-8_会社ロゴ項目
  6
CONTINUOUS
 62
    7
 10
430.15543526562499
 20
282.11335426093751
 11
429.68965926562498
 21
282.34624226093752
  0
LINE
  8
_0-8_会社ロゴ項目
  6
CONTINUOUS
 62
    7
 10
429.68965926562498
 20
282.34624226093752
 11
429.18185126562497
 21
282.51556926093747
  0
LINE
  8
_0-8_会社ロゴ項目
  6
CONTINUOUS
 62
    7
 10
429.18185126562497
 20
282.51556926093747
 11
428.67370026562497
 21
282.55794326093746
  0
LINE
  8
_0-8_会社ロゴ項目
  6
CONTINUOUS
 62
    7
 10
428.67370026562497
 20
282.55794326093746
 11
428.144533265625
 21
282.51556926093747
  0
LINE
  8
_0-8_会社ロゴ項目
  6
CONTINUOUS
 62
    7
 10
428.144533265625
 20
282.51556926093747
 11
427.65774126562496
 21
282.34624226093752
  0
LINE
  8
_0-8_会社ロゴ項目
  6
CONTINUOUS
 62
    7
 10
427.65774126562496
 20
282.34624226093752
 11
427.19196426562496
 21
282.11335426093751
  0
LINE
  8
_0-8_会社ロゴ項目
  6
CONTINUOUS
 62
    7
 10
427.19196426562496
 20
282.11335426093751
 11
426.78992226562497
 21
281.77470126093749
  0
LINE
  8
_0-8_会社ロゴ項目
  6
CONTINUOUS
 62
    7
 10
426.78992226562497
 20
281.77470126093749
 11
426.53601826562499
 21
281.47842326093746
  0
LINE
  8
_0-8_会社ロゴ項目
  6
CONTINUOUS
 62
    7
 10
398.72290126562496
 20
281.47842326093746
 11
398.46899726562498
 21
281.77470126093749
  0
LINE
  8
_0-8_会社ロゴ項目
  6
CONTINUOUS
 62
    7
 10
398.46899726562498
 20
281.77470126093749
 11
398.06678326562496
 21
282.11335426093751
  0
LINE
  8
_0-8_会社ロゴ項目
  6
CONTINUOUS
 62
    7
 10
398.06678326562496
 20
282.11335426093751
 11
397.60117826562498
 21
282.34624226093752
  0
LINE
  8
_0-8_会社ロゴ項目
  6
CONTINUOUS
 62
    7
 10
397.60117826562498
 20
282.34624226093752
 11
397.11421426562498
 21
282.51556926093747
  0
LINE
  8
_0-8_会社ロゴ項目
  6
CONTINUOUS
 62
    7
 10
397.11421426562498
 20
282.51556926093747
 11
396.58504726562501
 21
282.55794326093746
  0
LINE
  8
_0-8_会社ロゴ項目
  6
CONTINUOUS
 62
    7
 10
396.58504726562501
 20
282.55794326093746
 11
396.07706826562497
 21
282.51556926093747
  0
LINE
  8
_0-8_会社ロゴ項目
  6
CONTINUOUS
 62
    7
 10
396.07706826562497
 20
282.51556926093747
 11
395.56908826562494
 21
282.34624226093752
  0
LINE
  8
_0-8_会社ロゴ項目
  6
CONTINUOUS
 62
    7
 10
395.56908826562494
 20
282.34624226093752
 11
395.10348426562496
 21
282.11335426093751
  0
LINE
  8
_0-8_会社ロゴ項目
  6
CONTINUOUS
 62
    7
 10
395.10348426562496
 20
282.11335426093751
 11
394.701269265625
 21
281.77470126093749
  0
LINE
  8
_0-8_会社ロゴ項目
  6
CONTINUOUS
 62
    7
 10
394.701269265625
 20
281.77470126093749
 11
394.36261626562498
 21
281.37248626093748
  0
LINE
  8
_0-8_会社ロゴ項目
  6
CONTINUOUS
 62
    7
 10
394.36261626562498
 20
281.37248626093748
 11
394.12972726562498
 21
280.9068812609375
  0
LINE
  8
_0-8_会社ロゴ項目
  6
CONTINUOUS
 62
    7
 10
394.12972726562498
 20
280.9068812609375
 11
393.96040126562497
 21
280.42008926093752
  0
LINE
  8
_0-8_会社ロゴ項目
  6
CONTINUOUS
 62
    7
 10
393.96040126562497
 20
280.42008926093752
 11
393.91819926562499
 21
279.91211026093748
  0
LINE
  8
_0-8_会社ロゴ項目
  6
CONTINUOUS
 62
    7
 10
393.91819926562499
 20
279.91211026093748
 11
393.96040126562497
 21
279.40395926093748
  0
LINE
  8
_0-8_会社ロゴ項目
  6
CONTINUOUS
 62
    7
 10
393.96040126562497
 20
279.40395926093748
 11
394.12972726562498
 21
278.89597926093745
  0
LINE
  8
_0-8_会社ロゴ項目
  6
CONTINUOUS
 62
    7
 10
394.12972726562498
 20
278.89597926093745
 11
394.12972726562498
 21
278.85377726093748
  0
LINE
  8
_0-8_会社ロゴ項目
  6
CONTINUOUS
 62
    7
 10
380.24444226562497
 20
254.78720126093748
 11
380.03274126562496
 21
254.74482626093749
  0
LINE
  8
_0-8_会社ロゴ項目
  6
CONTINUOUS
 62
    7
 10
380.03274126562496
 20
254.74482626093749
 11
379.52476226562499
 21
254.5966872609375
  0
LINE
  8
_0-8_会社ロゴ項目
  6
CONTINUOUS
 62
    7
 10
379.52476226562499
 20
254.5966872609375
 11
379.059157265625
 21
254.3426112609375
  0
LINE
  8
_0-8_会社ロゴ項目
  6
CONTINUOUS
 62
    7
 10
379.059157265625
 20
254.3426112609375
 11
378.65694226562499
 21
254.0251462609375
  0
LINE
  8
_0-8_会社ロゴ項目
  6
CONTINUOUS
 62
    7
 10
378.65694226562499
 20
254.0251462609375
 11
378.31828926562497
 21
253.62293126093749
  0
LINE
  8
_0-8_会社ロゴ項目
  6
CONTINUOUS
 62
    7
 10
378.31828926562497
 20
253.62293126093749
 11
378.08540126562497
 21
253.15732626093748
  0
LINE
  8
_0-8_会社ロゴ項目
  6
CONTINUOUS
 62
    7
 10
378.08540126562497
 20
253.15732626093748
 11
377.93726226562501
 21
252.6493472609375
  0
LINE
  8
_0-8_会社ロゴ項目
  6
CONTINUOUS
 62
    7
 10
377.93726226562501
 20
252.6493472609375
 11
377.87387226562498
 21
252.1413682609375
  0
LINE
  8
_0-8_会社ロゴ項目
  6
CONTINUOUS
 62
    7
 10
377.87387226562498
 20
252.1413682609375
 11
377.93726226562501
 21
251.6122012609375
  0
LINE
  8
_0-8_会社ロゴ項目
  6
CONTINUOUS
 62
    7
 10
377.93726226562501
 20
251.6122012609375
 11
378.08540126562497
 21
251.10422226093749
  0
LINE
  8
_0-8_会社ロゴ項目
  6
CONTINUOUS
 62
    7
 10
378.08540126562497
 20
251.10422226093749
 11
378.31828926562497
 21
250.63844526093749
  0
LINE
  8
_0-8_会社ロゴ項目
  6
CONTINUOUS
 62
    7
 10
378.31828926562497
 20
250.63844526093749
 11
378.65694226562499
 21
250.2364022609375
  0
LINE
  8
_0-8_会社ロゴ項目
  6
CONTINUOUS
 62
    7
 10
378.65694226562499
 20
250.2364022609375
 11
379.059157265625
 21
249.91876426093748
  0
LINE
  8
_0-8_会社ロゴ項目
  6
CONTINUOUS
 62
    7
 10
379.059157265625
 20
249.91876426093748
 11
379.52476226562499
 21
249.6648612609375
  0
LINE
  8
_0-8_会社ロゴ項目
  6
CONTINUOUS
 62
    7
 10
379.52476226562499
 20
249.6648612609375
 11
380.03274126562496
 21
249.51672226093748
  0
LINE
  8
_0-8_会社ロゴ項目
  6
CONTINUOUS
 62
    7
 10
380.03274126562496
 20
249.51672226093748
 11
380.24444226562497
 21
249.49553426093749
  0
LINE
  8
_0-8_会社ロゴ項目
  6
CONTINUOUS
 62
    7
 10
394.12972726562498
 20
225.40777126093749
 11
394.12972726562498
 21
225.36556926093749
  0
LINE
  8
_0-8_会社ロゴ項目
  6
CONTINUOUS
 62
    7
 10
394.12972726562498
 20
225.36556926093749
 11
393.96040126562497
 21
224.85758926093749
  0
LINE
  8
_0-8_会社ロゴ項目
  6
CONTINUOUS
 62
    7
 10
393.96040126562497
 20
224.85758926093749
 11
393.91819926562499
 21
224.34943826093749
  0
LINE
  8
_0-8_会社ロゴ項目
  6
CONTINUOUS
 62
    7
 10
393.91819926562499
 20
224.34943826093749
 11
393.96040126562497
 21
223.82027126093749
  0
LINE
  8
_0-8_会社ロゴ項目
  6
CONTINUOUS
 62
    7
 10
393.96040126562497
 20
223.82027126093749
 11
394.12972726562498
 21
223.33347926093748
  0
LINE
  8
_0-8_会社ロゴ項目
  6
CONTINUOUS
 62
    7
 10
394.12972726562498
 20
223.33347926093748
 11
394.36261626562498
 21
222.8678752609375
  0
LINE
  8
_0-8_会社ロゴ項目
  6
CONTINUOUS
 62
    7
 10
394.36261626562498
 20
222.8678752609375
 11
394.701269265625
 21
222.46566026093748
  0
LINE
  8
_0-8_会社ロゴ項目
  6
CONTINUOUS
 62
    7
 10
394.701269265625
 20
222.46566026093748
 11
395.10348426562496
 21
222.12700726093749
  0
LINE
  8
_0-8_会社ロゴ項目
  6
CONTINUOUS
 62
    7
 10
395.10348426562496
 20
222.12700726093749
 11
395.56908826562494
 21
221.89411826093749
  0
LINE
  8
_0-8_会社ロゴ項目
  6
CONTINUOUS
 62
    7
 10
395.56908826562494
 20
221.89411826093749
 11
396.07706826562497
 21
221.7459792609375
  0
LINE
  8
_0-8_会社ロゴ項目
  6
CONTINUOUS
 62
    7
 10
396.07706826562497
 20
221.7459792609375
 11
396.58504726562501
 21
221.68258926093748
  0
LINE
  8
_0-8_会社ロゴ項目
  6
CONTINUOUS
 62
    7
 10
396.58504726562501
 20
221.68258926093748
 11
397.11421426562498
 21
221.7459792609375
  0
LINE
  8
_0-8_会社ロゴ項目
  6
CONTINUOUS
 62
    7
 10
397.11421426562498
 20
221.7459792609375
 11
397.60117826562498
 21
221.89411826093749
  0
LINE
  8
_0-8_会社ロゴ項目
  6
CONTINUOUS
 62
    7
 10
397.60117826562498
 20
221.89411826093749
 11
398.06678326562496
 21
222.12700726093749
  0
LINE
  8
_0-8_会社ロゴ項目
  6
CONTINUOUS
 62
    7
 10
398.06678326562496
 20
222.12700726093749
 11
398.46899726562498
 21
222.46566026093748
  0
LINE
  8
_0-8_会社ロゴ項目
  6
CONTINUOUS
 62
    7
 10
398.46899726562498
 20
222.46566026093748
 11
398.72290126562496
 21
222.76193826093748
  0
LINE
  8
_0-8_会社ロゴ項目
  6
CONTINUOUS
 62
    7
 10
426.53601826562499
 20
222.76193826093748
 11
426.78992226562497
 21
222.46566026093748
  0
LINE
  8
_0-8_会社ロゴ項目
  6
CONTINUOUS
 62
    7
 10
426.78992226562497
 20
222.46566026093748
 11
427.19196426562496
 21
222.12700726093749
  0
LINE
  8
_0-8_会社ロゴ項目
  6
CONTINUOUS
 62
    7
 10
427.19196426562496
 20
222.12700726093749
 11
427.65774126562496
 21
221.89411826093749
  0
LINE
  8
_0-8_会社ロゴ項目
  6
CONTINUOUS
 62
    7
 10
427.65774126562496
 20
221.89411826093749
 11
428.144533265625
 21
221.7459792609375
  0
LINE
  8
_0-8_会社ロゴ項目
  6
CONTINUOUS
 62
    7
 10
428.144533265625
 20
221.7459792609375
 11
428.67370026562497
 21
221.68258926093748
  0
LINE
  8
_0-8_会社ロゴ項目
  6
CONTINUOUS
 62
    7
 10
428.67370026562497
 20
221.68258926093748
 11
429.18185126562497
 21
221.7459792609375
  0
LINE
  8
_0-8_会社ロゴ項目
  6
CONTINUOUS
 62
    7
 10
429.18185126562497
 20
221.7459792609375
 11
429.68965926562498
 21
221.89411826093749
  0
LINE
  8
_0-8_会社ロゴ項目
  6
CONTINUOUS
 62
    7
 10
429.68965926562498
 20
221.89411826093749
 11
430.15543526562499
 21
222.12700726093749
  0
LINE
  8
_0-8_会社ロゴ項目
  6
CONTINUOUS
 62
    7
 10
430.15543526562499
 20
222.12700726093749
 11
430.55747826562498
 21
222.46566026093748
  0
LINE
  8
_0-8_会社ロゴ項目
  6
CONTINUOUS
 62
    7
 10
430.55747826562498
 20
222.46566026093748
 11
430.89613126562494
 21
222.8678752609375
  0
LINE
  8
_0-8_会社ロゴ項目
  6
CONTINUOUS
 62
    7
 10
430.89613126562494
 20
222.8678752609375
 11
431.12901926562495
 21
223.33347926093748
  0
LINE
  8
_0-8_会社ロゴ項目
  6
CONTINUOUS
 62
    7
 10
431.12901926562495
 20
223.33347926093748
 11
431.29851826562498
 21
223.82027126093749
  0
LINE
  8
_0-8_会社ロゴ項目
  6
CONTINUOUS
 62
    7
 10
431.29851826562498
 20
223.82027126093749
 11
431.34089326562497
 21
224.34943826093749
  0
LINE
  8
_0-8_会社ロゴ項目
  6
CONTINUOUS
 62
    7
 10
431.34089326562497
 20
224.34943826093749
 11
431.29851826562498
 21
224.85758926093749
  0
LINE
  8
_0-8_会社ロゴ項目
  6
CONTINUOUS
 62
    7
 10
431.29851826562498
 20
224.85758926093749
 11
431.12901926562495
 21
225.36556926093749
  0
LINE
  8
_0-8_会社ロゴ項目
  6
CONTINUOUS
 62
    7
 10
431.12901926562495
 20
225.36556926093749
 11
431.12901926562495
 21
225.40777126093749
  0
LINE
  8
_0-8_会社ロゴ項目
  6
CONTINUOUS
 62
    7
 10
426.53601826562499
 20
281.47842326093746
 11
426.38787926562497
 21
281.56300026093749
  0
LINE
  8
_0-8_会社ロゴ項目
  6
CONTINUOUS
 62
    7
 10
426.38787926562497
 20
281.56300026093749
 11
425.47768526562493
 21
281.9652152609375
  0
LINE
  8
_0-8_会社ロゴ項目
  6
CONTINUOUS
 62
    7
 10
425.47768526562493
 20
281.9652152609375
 11
424.54613126562498
 21
282.34624226093752
  0
LINE
  8
_0-8_会社ロゴ項目
  6
CONTINUOUS
 62
    7
 10
424.54613126562498
 20
282.34624226093752
 11
423.61492226562495
 21
282.68489526093748
  0
LINE
  8
_0-8_会社ロゴ項目
  6
CONTINUOUS
 62
    7
 10
423.61492226562495
 20
282.68489526093748
 11
422.66235326562497
 21
283.0235482609375
  0
LINE
  8
_0-8_会社ロゴ項目
  6
CONTINUOUS
 62
    7
 10
422.66235326562497
 20
283.0235482609375
 11
421.73114326562495
 21
283.31982626093748
  0
LINE
  8
_0-8_会社ロゴ項目
  6
CONTINUOUS
 62
    7
 10
421.73114326562495
 20
283.31982626093748
 11
420.75755926562499
 21
283.57390226093753
  0
LINE
  8
_0-8_会社ロゴ項目
  6
CONTINUOUS
 62
    7
 10
420.75755926562499
 20
283.57390226093753
 11
419.78363126562499
 21
283.80661826093751
  0
LINE
  8
_0-8_会社ロゴ項目
  6
CONTINUOUS
 62
    7
 10
419.78363126562499
 20
283.80661826093751
 11
418.83140726562499
 21
284.01831926093746
  0
LINE
  8
_0-8_会社ロゴ項目
  6
CONTINUOUS
 62
    7
 10
418.83140726562499
 20
284.01831926093746
 11
417.83646326562496
 21
284.18764626093753
  0
LINE
  8
_0-8_会社ロゴ項目
  6
CONTINUOUS
 62
    7
 10
417.83646326562496
 20
284.18764626093753
 11
416.84151926562498
 21
284.33578526093748
  0
LINE
  8
_0-8_会社ロゴ項目
  6
CONTINUOUS
 62
    7
 10
416.84151926562498
 20
284.33578526093748
 11
415.86793526562496
 21
284.44172226093747
  0
LINE
  8
_0-8_会社ロゴ項目
  6
CONTINUOUS
 62
    7
 10
415.86793526562496
 20
284.44172226093747
 11
414.87299226562499
 21
284.52629926093749
  0
LINE
  8
_0-8_会社ロゴ項目
  6
CONTINUOUS
 62
    7
 10
414.87299226562499
 20
284.52629926093749
 11
413.87804826562501
 21
284.58986126093748
  0
LINE
  8
_0-8_会社ロゴ項目
  6
CONTINUOUS
 62
    7
 10
413.87804826562501
 20
284.58986126093748
 11
412.88344926562496
 21
284.61104826093748
  0
LINE
  8
_0-8_会社ロゴ項目
  6
CONTINUOUS
 62
    7
 10
412.88344926562496
 20
284.61104826093748
 11
411.888678265625
 21
284.61104826093748
  0
LINE
  8
_0-8_会社ロゴ項目
  6
CONTINUOUS
 62
    7
 10
411.888678265625
 20
284.61104826093748
 11
410.89373426562497
 21
284.56867326093749
  0
LINE
  8
_0-8_会社ロゴ項目
  6
CONTINUOUS
 62
    7
 10
410.89373426562497
 20
284.56867326093749
 11
409.89896326562496
 21
284.48409626093746
  0
LINE
  8
_0-8_会社ロゴ項目
  6
CONTINUOUS
 62
    7
 10
409.89896326562496
 20
284.48409626093746
 11
408.90419226562494
 21
284.39934726093747
  0
LINE
  8
_0-8_会社ロゴ項目
  6
CONTINUOUS
 62
    7
 10
408.90419226562494
 20
284.39934726093747
 11
407.90924826562497
 21
284.27239526093751
  0
LINE
  8
_0-8_会社ロゴ項目
  6
CONTINUOUS
 62
    7
 10
407.90924826562497
 20
284.27239526093751
 11
406.93566426562495
 21
284.1030692609375
  0
LINE
  8
_0-8_会社ロゴ項目
  6
CONTINUOUS
 62
    7
 10
406.93566426562495
 20
284.1030692609375
 11
405.94072126562497
 21
283.91255526093749
  0
LINE
  8
_0-8_会社ロゴ項目
  6
CONTINUOUS
 62
    7
 10
405.94072126562497
 20
283.91255526093749
 11
404.98832426562501
 21
283.70085426093749
  0
LINE
  8
_0-8_会社ロゴ項目
  6
CONTINUOUS
 62
    7
 10
404.98832426562501
 20
283.70085426093749
 11
404.01456826562497
 21
283.44677826093749
  0
LINE
  8
_0-8_会社ロゴ項目
  6
CONTINUOUS
 62
    7
 10
404.01456826562497
 20
283.44677826093749
 11
403.06217126562501
 21
283.17168726093746
  0
LINE
  8
_0-8_会社ロゴ項目
  6
CONTINUOUS
 62
    7
 10
403.06217126562501
 20
283.17168726093746
 11
402.10960226562497
 21
282.85422226093749
  0
LINE
  8
_0-8_会社ロゴ項目
  6
CONTINUOUS
 62
    7
 10
402.10960226562497
 20
282.85422226093749
 11
401.17822126562498
 21
282.51556926093747
  0
LINE
  8
_0-8_会社ロゴ項目
  6
CONTINUOUS
 62
    7
 10
401.17822126562498
 20
282.51556926093747
 11
400.24701126562496
 21
282.15572926093751
  0
LINE
  8
_0-8_会社ロゴ項目
  6
CONTINUOUS
 62
    7
 10
400.24701126562496
 20
282.15572926093751
 11
399.33681726562497
 21
281.75351426093749
  0
LINE
  8
_0-8_会社ロゴ項目
  6
CONTINUOUS
 62
    7
 10
399.33681726562497
 20
281.75351426093749
 11
398.72290126562496
 21
281.47842326093746
  0
LINE
  8
_0-8_会社ロゴ項目
  6
CONTINUOUS
 62
    7
 10
394.12972726562498
 20
278.85377726093748
 11
393.32547026562497
 21
278.28223526093745
  0
LINE
  8
_0-8_会社ロゴ項目
  6
CONTINUOUS
 62
    7
 10
393.32547026562497
 20
278.28223526093745
 11
392.52121226562497
 21
277.66831926093749
  0
LINE
  8
_0-8_会社ロゴ項目
  6
CONTINUOUS
 62
    7
 10
392.52121226562497
 20
277.66831926093749
 11
391.75915726562499
 21
277.05457626093749
  0
LINE
  8
_0-8_会社ロゴ項目
  6
CONTINUOUS
 62
    7
 10
391.75915726562499
 20
277.05457626093749
 11
391.01828926562496
 21
276.39828526093748
  0
LINE
  8
_0-8_会社ロゴ項目
  6
CONTINUOUS
 62
    7
 10
391.01828926562496
 20
276.39828526093748
 11
390.27742226562498
 21
275.7209792609375
  0
LINE
  8
_0-8_会社ロゴ項目
  6
CONTINUOUS
 62
    7
 10
390.27742226562498
 20
275.7209792609375
 11
389.557741265625
 21
275.02248626093751
  0
LINE
  8
_0-8_会社ロゴ項目
  6
CONTINUOUS
 62
    7
 10
389.557741265625
 20
275.02248626093751
 11
388.85924826562496
 21
274.30280626093747
  0
LINE
  8
_0-8_会社ロゴ項目
  6
CONTINUOUS
 62
    7
 10
388.85924826562496
 20
274.30280626093747
 11
388.20313026562496
 21
273.56211026093746
  0
LINE
  8
_0-8_会社ロゴ項目
  6
CONTINUOUS
 62
    7
 10
388.20313026562496
 20
273.56211026093746
 11
387.56819926562497
 21
272.80005526093748
  0
LINE
  8
_0-8_会社ロゴ項目
  6
CONTINUOUS
 62
    7
 10
387.56819926562497
 20
272.80005526093748
 11
386.93309526562496
 21
272.03800026093745
  0
LINE
  8
_0-8_会社ロゴ項目
  6
CONTINUOUS
 62
    7
 10
386.93309526562496
 20
272.03800026093745
 11
386.34053926562501
 21
271.2337422609375
  0
LINE
  8
_0-8_会社ロゴ項目
  6
CONTINUOUS
 62
    7
 10
386.34053926562501
 20
271.2337422609375
 11
385.76899726562499
 21
270.40812526093748
  0
LINE
  8
_0-8_会社ロゴ項目
  6
CONTINUOUS
 62
    7
 10
385.76899726562499
 20
270.40812526093748
 11
385.21864326562496
 21
269.58268026093748
  0
LINE
  8
_0-8_会社ロゴ項目
  6
CONTINUOUS
 62
    7
 10
385.21864326562496
 20
269.58268026093748
 11
384.68947726562499
 21
268.73604826093748
  0
LINE
  8
_0-8_会社ロゴ項目
  6
CONTINUOUS
 62
    7
 10
384.68947726562499
 20
268.73604826093748
 11
384.20268526562495
 21
267.86822926093748
  0
LINE
  8
_0-8_会社ロゴ項目
  6
CONTINUOUS
 62
    7
 10
384.20268526562495
 20
267.86822926093748
 11
383.73690826562495
 21
267.00040926093749
  0
LINE
  8
_0-8_会社ロゴ項目
  6
CONTINUOUS
 62
    7
 10
383.73690826562495
 20
267.00040926093749
 11
383.29249126562496
 21
266.1114022609375
  0
LINE
  8
_0-8_会社ロゴ項目
  6
CONTINUOUS
 62
    7
 10
383.29249126562496
 20
266.1114022609375
 11
382.86908826562501
 21
265.20120826093745
  0
LINE
  8
_0-8_会社ロゴ項目
  6
CONTINUOUS
 62
    7
 10
382.86908826562501
 20
265.20120826093745
 11
382.48806126562499
 21
264.26982626093746
  0
LINE
  8
_0-8_会社ロゴ項目
  6
CONTINUOUS
 62
    7
 10
382.48806126562499
 20
264.26982626093746
 11
382.12822126562497
 21
263.35963226093747
  0
LINE
  8
_0-8_会社ロゴ項目
  6
CONTINUOUS
 62
    7
 10
382.12822126562497
 20
263.35963226093747
 11
381.78956826562501
 21
262.40723526093745
  0
LINE
  8
_0-8_会社ロゴ項目
  6
CONTINUOUS
 62
    7
 10
381.78956826562501
 20
262.40723526093745
 11
381.49328926562498
 21
261.47585426093747
  0
LINE
  8
_0-8_会社ロゴ項目
  6
CONTINUOUS
 62
    7
 10
381.49328926562498
 20
261.47585426093747
 11
381.23921426562498
 21
260.50209826093749
  0
LINE
  8
_0-8_会社ロゴ項目
  6
CONTINUOUS
 62
    7
 10
381.23921426562498
 20
260.50209826093749
 11
380.985310265625
 21
259.52851426093747
  0
LINE
  8
_0-8_会社ロゴ項目
  6
CONTINUOUS
 62
    7
 10
380.985310265625
 20
259.52851426093747
 11
380.773609265625
 21
258.57594526093749
  0
LINE
  8
_0-8_会社ロゴ項目
  6
CONTINUOUS
 62
    7
 10
380.773609265625
 20
258.57594526093749
 11
380.58309526562499
 21
257.58117326093748
  0
LINE
  8
_0-8_会社ロゴ項目
  6
CONTINUOUS
 62
    7
 10
380.58309526562499
 20
257.58117326093748
 11
380.43495626562498
 21
256.58640226093746
  0
LINE
  8
_0-8_会社ロゴ項目
  6
CONTINUOUS
 62
    7
 10
380.43495626562498
 20
256.58640226093746
 11
380.32919226562501
 21
255.61264626093748
  0
LINE
  8
_0-8_会社ロゴ項目
  6
CONTINUOUS
 62
    7
 10
380.32919226562501
 20
255.61264626093748
 11
380.24444226562497
 21
254.78720126093748
  0
LINE
  8
_0-8_会社ロゴ項目
  6
CONTINUOUS
 62
    7
 10
380.24444226562497
 20
249.49553426093749
 11
380.32919226562501
 21
248.64890226093749
  0
LINE
  8
_0-8_会社ロゴ項目
  6
CONTINUOUS
 62
    7
 10
380.32919226562501
 20
248.64890226093749
 11
380.43495626562498
 21
247.67514626093748
  0
LINE
  8
_0-8_会社ロゴ項目
  6
CONTINUOUS
 62
    7
 10
380.43495626562498
 20
247.67514626093748
 11
380.58309526562499
 21
246.6803752609375
  0
LINE
  8
_0-8_会社ロゴ項目
  6
CONTINUOUS
 62
    7
 10
380.58309526562499
 20
246.6803752609375
 11
380.773609265625
 21
245.68543126093749
  0
LINE
  8
_0-8_会社ロゴ項目
  6
CONTINUOUS
 62
    7
 10
380.773609265625
 20
245.68543126093749
 11
380.985310265625
 21
244.7330342609375
  0
LINE
  8
_0-8_会社ロゴ項目
  6
CONTINUOUS
 62
    7
 10
380.985310265625
 20
244.7330342609375
 11
381.23921426562498
 21
243.75927826093749
  0
LINE
  8
_0-8_会社ロゴ項目
  6
CONTINUOUS
 62
    7
 10
381.23921426562498
 20
243.75927826093749
 11
381.49328926562498
 21
242.8068812609375
  0
LINE
  8
_0-8_会社ロゴ項目
  6
CONTINUOUS
 62
    7
 10
381.49328926562498
 20
242.8068812609375
 11
381.78956826562501
 21
241.85431326093749
  0
LINE
  8
_0-8_会社ロゴ項目
  6
CONTINUOUS
 62
    7
 10
381.78956826562501
 20
241.85431326093749
 11
382.12822126562497
 21
240.9229312609375
  0
LINE
  8
_0-8_会社ロゴ項目
  6
CONTINUOUS
 62
    7
 10
382.12822126562497
 20
240.9229312609375
 11
382.48806126562499
 21
239.99172226093748
  0
LINE
  8
_0-8_会社ロゴ項目
  6
CONTINUOUS
 62
    7
 10
382.48806126562499
 20
239.99172226093748
 11
382.86908826562501
 21
239.06034026093749
  0
LINE
  8
_0-8_会社ロゴ項目
  6
CONTINUOUS
 62
    7
 10
382.86908826562501
 20
239.06034026093749
 11
383.29249126562496
 21
238.1501462609375
  0
LINE
  8
_0-8_会社ロゴ項目
  6
CONTINUOUS
 62
    7
 10
383.29249126562496
 20
238.1501462609375
 11
383.73690826562495
 21
237.26113926093748
  0
LINE
  8
_0-8_会社ロゴ項目
  6
CONTINUOUS
 62
    7
 10
383.73690826562495
 20
237.26113926093748
 11
384.20268526562495
 21
236.39331926093749
  0
LINE
  8
_0-8_会社ロゴ項目
  6
CONTINUOUS
 62
    7
 10
384.20268526562495
 20
236.39331926093749
 11
384.68947726562499
 21
235.52550026093749
  0
LINE
  8
_0-8_会社ロゴ項目
  6
CONTINUOUS
 62
    7
 10
384.68947726562499
 20
235.52550026093749
 11
385.21864326562496
 21
234.67886826093749
  0
LINE
  8
_0-8_会社ロゴ項目
  6
CONTINUOUS
 62
    7
 10
385.21864326562496
 20
234.67886826093749
 11
385.76899726562499
 21
233.85342326093749
  0
LINE
  8
_0-8_会社ロゴ項目
  6
CONTINUOUS
 62
    7
 10
385.76899726562499
 20
233.85342326093749
 11
386.34053926562501
 21
233.0278062609375
  0
LINE
  8
_0-8_会社ロゴ項目
  6
CONTINUOUS
 62
    7
 10
386.34053926562501
 20
233.0278062609375
 11
386.93309526562496
 21
232.24473526093749
  0
LINE
  8
_0-8_会社ロゴ項目
  6
CONTINUOUS
 62
    7
 10
386.93309526562496
 20
232.24473526093749
 11
387.56819926562497
 21
231.46149326093749
  0
LINE
  8
_0-8_会社ロゴ項目
  6
CONTINUOUS
 62
    7
 10
387.56819926562497
 20
231.46149326093749
 11
388.20313026562496
 21
230.69961026093748
  0
LINE
  8
_0-8_会社ロゴ項目
  6
CONTINUOUS
 62
    7
 10
388.20313026562496
 20
230.69961026093748
 11
388.85924826562496
 21
229.9587422609375
  0
LINE
  8
_0-8_会社ロゴ項目
  6
CONTINUOUS
 62
    7
 10
388.85924826562496
 20
229.9587422609375
 11
389.557741265625
 21
229.23906226093749
  0
LINE
  8
_0-8_会社ロゴ項目
  6
CONTINUOUS
 62
    7
 10
389.557741265625
 20
229.23906226093749
 11
390.27742226562498
 21
228.5405692609375
  0
LINE
  8
_0-8_会社ロゴ項目
  6
CONTINUOUS
 62
    7
 10
390.27742226562498
 20
228.5405692609375
 11
391.01828926562496
 21
227.86326326093749
  0
LINE
  8
_0-8_会社ロゴ項目
  6
CONTINUOUS
 62
    7
 10
391.01828926562496
 20
227.86326326093749
 11
391.75915726562499
 21
227.20697226093748
  0
LINE
  8
_0-8_会社ロゴ項目
  6
CONTINUOUS
 62
    7
 10
391.75915726562499
 20
227.20697226093748
 11
392.52121226562497
 21
226.59322926093748
  0
LINE
  8
_0-8_会社ロゴ項目
  6
CONTINUOUS
 62
    7
 10
392.52121226562497
 20
226.59322926093748
 11
393.32547026562497
 21
225.97931326093749
  0
LINE
  8
_0-8_会社ロゴ項目
  6
CONTINUOUS
 62
    7
 10
393.32547026562497
 20
225.97931326093749
 11
394.12972726562498
 21
225.40777126093749
  0
LINE
  8
_0-8_会社ロゴ項目
  6
CONTINUOUS
 62
    7
 10
398.72290126562496
 20
222.76193826093748
 11
399.33681726562497
 21
222.48684726093748
  0
LINE
  8
_0-8_会社ロゴ項目
  6
CONTINUOUS
 62
    7
 10
399.33681726562497
 20
222.48684726093748
 11
400.24701126562496
 21
222.0846322609375
  0
LINE
  8
_0-8_会社ロゴ項目
  6
CONTINUOUS
 62
    7
 10
400.24701126562496
 20
222.0846322609375
 11
401.17822126562498
 21
221.72479226093748
  0
LINE
  8
_0-8_会社ロゴ項目
  6
CONTINUOUS
 62
    7
 10
401.17822126562498
 20
221.72479226093748
 11
402.10960226562497
 21
221.38613926093748
  0
LINE
  8
_0-8_会社ロゴ項目
  6
CONTINUOUS
 62
    7
 10
402.10960226562497
 20
221.38613926093748
 11
403.06217126562501
 21
221.06867326093749
  0
LINE
  8
_0-8_会社ロゴ項目
  6
CONTINUOUS
 62
    7
 10
403.06217126562501
 20
221.06867326093749
 11
404.01456826562497
 21
220.79358326093748
  0
LINE
  8
_0-8_会社ロゴ項目
  6
CONTINUOUS
 62
    7
 10
404.01456826562497
 20
220.79358326093748
 11
404.98832426562501
 21
220.53950726093748
  0
LINE
  8
_0-8_会社ロゴ項目
  6
CONTINUOUS
 62
    7
 10
404.98832426562501
 20
220.53950726093748
 11
405.94072126562497
 21
220.32780626093748
  0
LINE
  8
_0-8_会社ロゴ項目
  6
CONTINUOUS
 62
    7
 10
405.94072126562497
 20
220.32780626093748
 11
406.93566426562495
 21
220.1372922609375
  0
LINE
  8
_0-8_会社ロゴ項目
  6
CONTINUOUS
 62
    7
 10
406.93566426562495
 20
220.1372922609375
 11
407.90924826562497
 21
219.96796526093749
  0
LINE
  8
_0-8_会社ロゴ項目
  6
CONTINUOUS
 62
    7
 10
407.90924826562497
 20
219.96796526093749
 11
408.90419226562494
 21
219.8410142609375
  0
LINE
  8
_0-8_会社ロゴ項目
  6
CONTINUOUS
 62
    7
 10
408.90419226562494
 20
219.8410142609375
 11
409.89896326562496
 21
219.75626426093748
  0
LINE
  8
_0-8_会社ロゴ項目
  6
CONTINUOUS
 62
    7
 10
409.89896326562496
 20
219.75626426093748
 11
410.89373426562497
 21
219.67168726093749
  0
LINE
  8
_0-8_会社ロゴ項目
  6
CONTINUOUS
 62
    7
 10
410.89373426562497
 20
219.67168726093749
 11
411.888678265625
 21
219.62931326093749
  0
LINE
  8
_0-8_会社ロゴ項目
  6
CONTINUOUS
 62
    7
 10
411.888678265625
 20
219.62931326093749
 11
412.88344926562496
 21
219.62931326093749
  0
LINE
  8
_0-8_会社ロゴ項目
  6
CONTINUOUS
 62
    7
 10
412.88344926562496
 20
219.62931326093749
 11
413.87804826562501
 21
219.65050026093749
  0
LINE
  8
_0-8_会社ロゴ項目
  6
CONTINUOUS
 62
    7
 10
413.87804826562501
 20
219.65050026093749
 11
414.87299226562499
 21
219.71406226093748
  0
LINE
  8
_0-8_会社ロゴ項目
  6
CONTINUOUS
 62
    7
 10
414.87299226562499
 20
219.71406226093748
 11
415.86793526562496
 21
219.79863926093748
  0
LINE
  8
_0-8_会社ロゴ項目
  6
CONTINUOUS
 62
    7
 10
415.86793526562496
 20
219.79863926093748
 11
416.84151926562498
 21
219.90457626093749
  0
LINE
  8
_0-8_会社ロゴ項目
  6
CONTINUOUS
 62
    7
 10
416.84151926562498
 20
219.90457626093749
 11
417.83646326562496
 21
220.0527152609375
  0
LINE
  8
_0-8_会社ロゴ項目
  6
CONTINUOUS
 62
    7
 10
417.83646326562496
 20
220.0527152609375
 11
418.83140726562499
 21
220.22204126093749
  0
LINE
  8
_0-8_会社ロゴ項目
  6
CONTINUOUS
 62
    7
 10
418.83140726562499
 20
220.22204126093749
 11
419.78363126562499
 21
220.43374226093749
  0
LINE
  8
_0-8_会社ロゴ項目
  6
CONTINUOUS
 62
    7
 10
419.78363126562499
 20
220.43374226093749
 11
420.75755926562499
 21
220.6664592609375
  0
LINE
  8
_0-8_会社ロゴ項目
  6
CONTINUOUS
 62
    7
 10
420.75755926562499
 20
220.6664592609375
 11
421.73114326562495
 21
220.9205342609375
  0
LINE
  8
_0-8_会社ロゴ項目
  6
CONTINUOUS
 62
    7
 10
421.73114326562495
 20
220.9205342609375
 11
422.66235326562497
 21
221.2168132609375
  0
LINE
  8
_0-8_会社ロゴ項目
  6
CONTINUOUS
 62
    7
 10
422.66235326562497
 20
221.2168132609375
 11
423.61492226562495
 21
221.5554652609375
  0
LINE
  8
_0-8_会社ロゴ項目
  6
CONTINUOUS
 62
    7
 10
423.61492226562495
 20
221.5554652609375
 11
424.54613126562498
 21
221.89411826093749
  0
LINE
  8
_0-8_会社ロゴ項目
  6
CONTINUOUS
 62
    7
 10
424.54613126562498
 20
221.89411826093749
 11
425.47768526562493
 21
222.2751462609375
  0
LINE
  8
_0-8_会社ロゴ項目
  6
CONTINUOUS
 62
    7
 10
425.47768526562493
 20
222.2751462609375
 11
426.38787926562497
 21
222.67736126093749
  0
LINE
  8
_0-8_会社ロゴ項目
  6
CONTINUOUS
 62
    7
 10
426.38787926562497
 20
222.67736126093749
 11
426.53601826562499
 21
222.76193826093748
  0
LINE
  8
_0-8_会社ロゴ項目
  6
CONTINUOUS
 62
    7
 10
431.12901926562495
 20
225.40777126093749
 11
431.53140726562498
 21
225.70422226093748
  0
LINE
  8
_0-8_会社ロゴ項目
  6
CONTINUOUS
 62
    7
 10
431.53140726562498
 20
225.70422226093748
 11
432.33549226562496
 21
226.29677826093749
  0
LINE
  8
_0-8_会社ロゴ項目
  6
CONTINUOUS
 62
    7
 10
432.33549226562496
 20
226.29677826093749
 11
433.11890726562501
 21
226.88950726093748
  0
LINE
  8
_0-8_会社ロゴ項目
  6
CONTINUOUS
 62
    7
 10
433.11890726562501
 20
226.88950726093748
 11
433.88096226562499
 21
227.5456252609375
  0
LINE
  8
_0-8_会社ロゴ項目
  6
CONTINUOUS
 62
    7
 10
433.88096226562499
 20
227.5456252609375
 11
434.621657265625
 21
228.20191626093748
  0
LINE
  8
_0-8_会社ロゴ項目
  6
CONTINUOUS
 62
    7
 10
434.621657265625
 20
228.20191626093748
 11
435.34133826562498
 21
228.8792222609375
  0
LINE
  8
_0-8_会社ロゴ項目
  6
CONTINUOUS
 62
    7
 10
435.34133826562498
 20
228.8792222609375
 11
436.06101826562497
 21
229.59890226093748
  0
LINE
  8
_0-8_会社ロゴ項目
  6
CONTINUOUS
 62
    7
 10
436.06101826562497
 20
229.59890226093748
 11
436.73832426562495
 21
230.31858326093749
  0
LINE
  8
_0-8_会社ロゴ項目
  6
CONTINUOUS
 62
    7
 10
436.73832426562495
 20
230.31858326093749
 11
437.373255265625
 21
231.0804652609375
  0
LINE
  8
_0-8_会社ロゴ項目
  6
CONTINUOUS
 62
    7
 10
437.373255265625
 20
231.0804652609375
 11
438.02954626562496
 21
231.8425212609375
  0
LINE
  8
_0-8_会社ロゴ項目
  6
CONTINUOUS
 62
    7
 10
438.02954626562496
 20
231.8425212609375
 11
438.62210226562496
 21
232.6257632609375
  0
LINE
  8
_0-8_会社ロゴ項目
  6
CONTINUOUS
 62
    7
 10
438.62210226562496
 20
232.6257632609375
 11
439.21465926562496
 21
233.43002126093748
  0
LINE
  8
_0-8_会社ロゴ項目
  6
CONTINUOUS
 62
    7
 10
439.21465926562496
 20
233.43002126093748
 11
439.76518526562495
 21
234.25546526093748
  0
LINE
  8
_0-8_会社ロゴ項目
  6
CONTINUOUS
 62
    7
 10
439.76518526562495
 20
234.25546526093748
 11
440.31536726562496
 21
235.10209826093748
  0
LINE
  8
_0-8_会社ロゴ項目
  6
CONTINUOUS
 62
    7
 10
440.31536726562496
 20
235.10209826093748
 11
440.82351826562495
 21
235.9489022609375
  0
LINE
  8
_0-8_会社ロゴ項目
  6
CONTINUOUS
 62
    7
 10
440.82351826562495
 20
235.9489022609375
 11
441.31031026562499
 21
236.8167222609375
  0
LINE
  8
_0-8_会社ロゴ項目
  6
CONTINUOUS
 62
    7
 10
441.31031026562499
 20
236.8167222609375
 11
441.75472726562498
 21
237.72691626093749
  0
LINE
  8
_0-8_会社ロゴ項目
  6
CONTINUOUS
 62
    7
 10
441.75472726562498
 20
237.72691626093749
 11
442.17813026562499
 21
238.61592326093748
  0
LINE
  8
_0-8_会社ロゴ項目
  6
CONTINUOUS
 62
    7
 10
442.17813026562499
 20
238.61592326093748
 11
442.58017226562498
 21
239.52594526093748
  0
LINE
  8
_0-8_会社ロゴ項目
  6
CONTINUOUS
 62
    7
 10
442.58017226562498
 20
239.52594526093748
 11
442.961200265625
 21
240.43613926093749
  0
LINE
  8
_0-8_会社ロゴ項目
  6
CONTINUOUS
 62
    7
 10
442.961200265625
 20
240.43613926093749
 11
443.29985326562496
 21
241.38870826093748
  0
LINE
  8
_0-8_会社ロゴ項目
  6
CONTINUOUS
 62
    7
 10
443.29985326562496
 20
241.38870826093748
 11
443.61749126562495
 21
242.32008926093749
  0
LINE
  8
_0-8_会社ロゴ項目
  6
CONTINUOUS
 62
    7
 10
443.61749126562495
 20
242.32008926093749
 11
443.892754265625
 21
243.27248626093748
  0
LINE
  8
_0-8_会社ロゴ項目
  6
CONTINUOUS
 62
    7
 10
443.892754265625
 20
243.27248626093748
 11
444.16767226562496
 21
244.24624226093749
  0
LINE
  8
_0-8_会社ロゴ項目
  6
CONTINUOUS
 62
    7
 10
444.16767226562496
 20
244.24624226093749
 11
444.37954626562498
 21
245.21982626093748
  0
LINE
  8
_0-8_会社ロゴ項目
  6
CONTINUOUS
 62
    7
 10
444.37954626562498
 20
245.21982626093748
 11
444.59107526562497
 21
246.19358326093749
  0
LINE
  8
_0-8_会社ロゴ項目
  6
CONTINUOUS
 62
    7
 10
444.59107526562497
 20
246.19358326093749
 11
444.760573265625
 21
247.1671672609375
  0
LINE
  8
_0-8_会社ロゴ項目
  6
CONTINUOUS
 62
    7
 10
444.760573265625
 20
247.1671672609375
 11
444.88735326562499
 21
248.16211026093748
  0
LINE
  8
_0-8_会社ロゴ項目
  6
CONTINUOUS
 62
    7
 10
444.88735326562499
 20
248.16211026093748
 11
444.993462265625
 21
249.1356942609375
  0
LINE
  8
_0-8_会社ロゴ項目
  6
CONTINUOUS
 62
    7
 10
444.993462265625
 20
249.1356942609375
 11
445.01447726562498
 21
249.49553426093749
  0
LINE
  8
_0-8_会社ロゴ項目
  6
CONTINUOUS
 62
    7
 10
445.01447726562498
 20
254.78720126093748
 11
444.993462265625
 21
255.1258542609375
  0
LINE
  8
_0-8_会社ロゴ項目
  6
CONTINUOUS
 62
    7
 10
444.993462265625
 20
255.1258542609375
 11
444.88735326562499
 21
256.09961026093748
  0
LINE
  8
_0-8_会社ロゴ項目
  6
CONTINUOUS
 62
    7
 10
444.88735326562499
 20
256.09961026093748
 11
444.760573265625
 21
257.0943812609375
  0
LINE
  8
_0-8_会社ロゴ項目
  6
CONTINUOUS
 62
    7
 10
444.760573265625
 20
257.0943812609375
 11
444.59107526562497
 21
258.06796526093746
  0
LINE
  8
_0-8_会社ロゴ項目
  6
CONTINUOUS
 62
    7
 10
444.59107526562497
 20
258.06796526093746
 11
444.37954626562498
 21
259.06290926093749
  0
LINE
  8
_0-8_会社ロゴ項目
  6
CONTINUOUS
 62
    7
 10
444.37954626562498
 20
259.06290926093749
 11
444.16767226562496
 21
260.01530626093745
  0
LINE
  8
_0-8_会社ロゴ項目
  6
CONTINUOUS
 62
    7
 10
444.16767226562496
 20
260.01530626093745
 11
443.892754265625
 21
260.98906226093749
  0
LINE
  8
_0-8_会社ロゴ項目
  6
CONTINUOUS
 62
    7
 10
443.892754265625
 20
260.98906226093749
 11
443.61749126562495
 21
261.94145926093745
  0
LINE
  8
_0-8_会社ロゴ項目
  6
CONTINUOUS
 62
    7
 10
443.61749126562495
 20
261.94145926093745
 11
443.29985326562496
 21
262.89402726093749
  0
LINE
  8
_0-8_会社ロゴ項目
  6
CONTINUOUS
 62
    7
 10
443.29985326562496
 20
262.89402726093749
 11
442.961200265625
 21
263.82540926093748
  0
LINE
  8
_0-8_会社ロゴ項目
  6
CONTINUOUS
 62
    7
 10
442.961200265625
 20
263.82540926093748
 11
442.58017226562498
 21
264.7354312609375
  0
LINE
  8
_0-8_会社ロゴ項目
  6
CONTINUOUS
 62
    7
 10
442.58017226562498
 20
264.7354312609375
 11
442.17813026562499
 21
265.64562526093749
  0
LINE
  8
_0-8_会社ロゴ項目
  6
CONTINUOUS
 62
    7
 10
442.17813026562499
 20
265.64562526093749
 11
441.75472726562498
 21
266.55581926093748
  0
LINE
  8
_0-8_会社ロゴ項目
  6
CONTINUOUS
 62
    7
 10
441.75472726562498
 20
266.55581926093748
 11
441.31031026562499
 21
267.44482626093748
  0
LINE
  8
_0-8_会社ロゴ項目
  6
CONTINUOUS
 62
    7
 10
441.31031026562499
 20
267.44482626093748
 11
440.82351826562495
 21
268.31264626093747
  0
LINE
  8
_0-8_会社ロゴ項目
  6
CONTINUOUS
 62
    7
 10
440.82351826562495
 20
268.31264626093747
 11
440.31536726562496
 21
269.15927826093747
  0
LINE
  8
_0-8_会社ロゴ項目
  6
CONTINUOUS
 62
    7
 10
440.31536726562496
 20
269.15927826093747
 11
439.76518526562495
 21
270.00608326093749
  0
LINE
  8
_0-8_会社ロゴ項目
  6
CONTINUOUS
 62
    7
 10
439.76518526562495
 20
270.00608326093749
 11
439.21465926562496
 21
270.83152726093749
  0
LINE
  8
_0-8_会社ロゴ項目
  6
CONTINUOUS
 62
    7
 10
439.21465926562496
 20
270.83152726093749
 11
438.62210226562496
 21
271.6357852609375
  0
LINE
  8
_0-8_会社ロゴ項目
  6
CONTINUOUS
 62
    7
 10
438.62210226562496
 20
271.6357852609375
 11
438.02954626562496
 21
272.41902726093747
  0
LINE
  8
_0-8_会社ロゴ項目
  6
CONTINUOUS
 62
    7
 10
438.02954626562496
 20
272.41902726093747
 11
437.373255265625
 21
273.20209826093748
  0
LINE
  8
_0-8_会社ロゴ項目
  6
CONTINUOUS
 62
    7
 10
437.373255265625
 20
273.20209826093748
 11
436.73832426562495
 21
273.94296526093746
  0
LINE
  8
_0-8_会社ロゴ項目
  6
CONTINUOUS
 62
    7
 10
436.73832426562495
 20
273.94296526093746
 11
436.06101826562497
 21
274.66264626093749
  0
LINE
  8
_0-8_会社ロゴ項目
  6
CONTINUOUS
 62
    7
 10
436.06101826562497
 20
274.66264626093749
 11
435.34133826562498
 21
275.38232626093748
  0
LINE
  8
_0-8_会社ロゴ項目
  6
CONTINUOUS
 62
    7
 10
435.34133826562498
 20
275.38232626093748
 11
434.621657265625
 21
276.05963226093752
  0
LINE
  8
_0-8_会社ロゴ項目
  6
CONTINUOUS
 62
    7
 10
434.621657265625
 20
276.05963226093752
 11
433.88096226562499
 21
276.71592326093753
  0
LINE
  8
_0-8_会社ロゴ項目
  6
CONTINUOUS
 62
    7
 10
433.88096226562499
 20
276.71592326093753
 11
433.11890726562501
 21
277.37204126093752
  0
LINE
  8
_0-8_会社ロゴ項目
  6
CONTINUOUS
 62
    7
 10
433.11890726562501
 20
277.37204126093752
 11
432.33549226562496
 21
277.96459826093746
  0
LINE
  8
_0-8_会社ロゴ項目
  6
CONTINUOUS
 62
    7
 10
432.33549226562496
 20
277.96459826093746
 11
431.53140726562498
 21
278.55732626093749
  0
LINE
  8
_0-8_会社ロゴ項目
  6
CONTINUOUS
 62
    7
 10
431.53140726562498
 20
278.55732626093749
 11
431.12901926562495
 21
278.85377726093748
  0
LINE
  8
_0-8_会社ロゴ項目
  6
CONTINUOUS
 62
    7
 10
442.43203326562497
 20
252.1413682609375
 11
442.43203326562497
 21
253.13613926093748
  0
LINE
  8
_0-8_会社ロゴ項目
  6
CONTINUOUS
 62
    7
 10
442.43203326562497
 20
253.13613926093748
 11
442.368643265625
 21
254.13108326093749
  0
LINE
  8
_0-8_会社ロゴ項目
  6
CONTINUOUS
 62
    7
 10
442.368643265625
 20
254.13108326093749
 11
442.28389426562495
 21
255.1258542609375
  0
LINE
  8
_0-8_会社ロゴ項目
  6
CONTINUOUS
 62
    7
 10
442.28389426562495
 20
255.1258542609375
 11
442.17813026562499
 21
256.09961026093748
  0
LINE
  8
_0-8_会社ロゴ項目
  6
CONTINUOUS
 62
    7
 10
442.17813026562499
 20
256.09961026093748
 11
442.02999126562497
 21
257.0943812609375
  0
LINE
  8
_0-8_会社ロゴ項目
  6
CONTINUOUS
 62
    7
 10
442.02999126562497
 20
257.0943812609375
 11
441.83947726562496
 21
258.06796526093746
  0
LINE
  8
_0-8_会社ロゴ項目
  6
CONTINUOUS
 62
    7
 10
441.83947726562496
 20
258.06796526093746
 11
441.62794826562498
 21
259.04172226093749
  0
LINE
  8
_0-8_会社ロゴ項目
  6
CONTINUOUS
 62
    7
 10
441.62794826562498
 20
259.04172226093749
 11
441.37370026562496
 21
260.01530626093745
  0
LINE
  8
_0-8_会社ロゴ項目
  6
CONTINUOUS
 62
    7
 10
441.37370026562496
 20
260.01530626093745
 11
441.09878126562495
 21
260.96787526093749
  0
LINE
  8
_0-8_会社ロゴ項目
  6
CONTINUOUS
 62
    7
 10
441.09878126562495
 20
260.96787526093749
 11
440.80215926562499
 21
261.89925626093748
  0
LINE
  8
_0-8_会社ロゴ項目
  6
CONTINUOUS
 62
    7
 10
440.80215926562499
 20
261.89925626093748
 11
440.44249126562499
 21
262.8516532609375
  0
LINE
  8
_0-8_会社ロゴ項目
  6
CONTINUOUS
 62
    7
 10
440.44249126562499
 20
262.8516532609375
 11
440.06146326562498
 21
263.76184726093749
  0
LINE
  8
_0-8_会社ロゴ項目
  6
CONTINUOUS
 62
    7
 10
440.06146326562498
 20
263.76184726093749
 11
439.68043526562496
 21
264.67204126093748
  0
LINE
  8
_0-8_会社ロゴ項目
  6
CONTINUOUS
 62
    7
 10
439.68043526562496
 20
264.67204126093748
 11
439.23601826562498
 21
265.58223526093747
  0
LINE
  8
_0-8_会社ロゴ項目
  6
CONTINUOUS
 62
    7
 10
439.23601826562498
 20
265.58223526093747
 11
438.77024126562497
 21
266.45005526093746
  0
LINE
  8
_0-8_会社ロゴ項目
  6
CONTINUOUS
 62
    7
 10
438.77024126562497
 20
266.45005526093746
 11
438.26243426562496
 21
267.31787526093746
  0
LINE
  8
_0-8_会社ロゴ項目
  6
CONTINUOUS
 62
    7
 10
438.26243426562496
 20
267.31787526093746
 11
437.75428326562496
 21
268.16450726093746
  0
LINE
  8
_0-8_会社ロゴ項目
  6
CONTINUOUS
 62
    7
 10
437.75428326562496
 20
268.16450726093746
 11
437.20410126562496
 21
269.01113926093745
  0
LINE
  8
_0-8_会社ロゴ項目
  6
CONTINUOUS
 62
    7
 10
437.20410126562496
 20
269.01113926093745
 11
436.63255926562499
 21
269.81556926093748
  0
LINE
  8
_0-8_会社ロゴ項目
  6
CONTINUOUS
 62
    7
 10
436.63255926562499
 20
269.81556926093748
 11
436.01864326562497
 21
270.59863926093749
  0
LINE
  8
_0-8_会社ロゴ項目
  6
CONTINUOUS
 62
    7
 10
436.01864326562497
 20
270.59863926093749
 11
435.38371226562498
 21
271.38188126093746
  0
LINE
  8
_0-8_会社ロゴ項目
  6
CONTINUOUS
 62
    7
 10
435.38371226562498
 20
271.38188126093746
 11
434.74878126562498
 21
272.1227492609375
  0
LINE
  8
_0-8_会社ロゴ項目
  6
CONTINUOUS
 62
    7
 10
434.74878126562498
 20
272.1227492609375
 11
434.05011626562498
 21
272.86344526093745
  0
LINE
  8
_0-8_会社ロゴ項目
  6
CONTINUOUS
 62
    7
 10
434.05011626562498
 20
272.86344526093745
 11
433.35179526562496
 21
273.56211026093746
  0
LINE
  8
_0-8_会社ロゴ項目
  6
CONTINUOUS
 62
    7
 10
433.35179526562496
 20
273.56211026093746
 11
432.63211526562498
 21
274.2394162609375
  0
LINE
  8
_0-8_会社ロゴ項目
  6
CONTINUOUS
 62
    7
 10
432.63211526562498
 20
274.2394162609375
 11
431.87005926562495
 21
274.8955342609375
  0
LINE
  8
_0-8_会社ロゴ項目
  6
CONTINUOUS
 62
    7
 10
431.87005926562495
 20
274.8955342609375
 11
431.10800426562497
 21
275.53046526093749
  0
LINE
  8
_0-8_会社ロゴ項目
  6
CONTINUOUS
 62
    7
 10
431.10800426562497
 20
275.53046526093749
 11
430.303575265625
 21
276.12319426093745
  0
LINE
  8
_0-8_会社ロゴ項目
  6
CONTINUOUS
 62
    7
 10
430.303575265625
 20
276.12319426093745
 11
429.49914526562497
 21
276.69473526093748
  0
LINE
  8
_0-8_会社ロゴ項目
  6
CONTINUOUS
 62
    7
 10
429.49914526562497
 20
276.69473526093748
 11
428.67370026562497
 21
277.24508926093745
  0
LINE
  8
_0-8_会社ロゴ項目
  6
CONTINUOUS
 62
    7
 10
428.67370026562497
 20
277.24508926093745
 11
427.82724026562494
 21
277.77425626093748
  0
LINE
  8
_0-8_会社ロゴ項目
  6
CONTINUOUS
 62
    7
 10
427.82724026562494
 20
277.77425626093748
 11
426.959420265625
 21
278.28223526093745
  0
LINE
  8
_0-8_会社ロゴ項目
  6
CONTINUOUS
 62
    7
 10
426.959420265625
 20
278.28223526093745
 11
426.07024126562499
 21
278.7266532609375
  0
LINE
  8
_0-8_会社ロゴ項目
  6
CONTINUOUS
 62
    7
 10
426.07024126562499
 20
278.7266532609375
 11
425.18140726562501
 21
279.1712422609375
  0
LINE
  8
_0-8_会社ロゴ項目
  6
CONTINUOUS
 62
    7
 10
425.18140726562501
 20
279.1712422609375
 11
424.27121226562497
 21
279.5732852609375
  0
LINE
  8
_0-8_会社ロゴ項目
  6
CONTINUOUS
 62
    7
 10
424.27121226562497
 20
279.5732852609375
 11
423.33965926562496
 21
279.95431326093751
  0
LINE
  8
_0-8_会社ロゴ項目
  6
CONTINUOUS
 62
    7
 10
423.33965926562496
 20
279.95431326093751
 11
422.40844926562499
 21
280.27177826093748
  0
LINE
  8
_0-8_会社ロゴ項目
  6
CONTINUOUS
 62
    7
 10
422.40844926562499
 20
280.27177826093748
 11
421.45588026562496
 21
280.56822926093753
  0
LINE
  8
_0-8_会社ロゴ項目
  6
CONTINUOUS
 62
    7
 10
421.45588026562496
 20
280.56822926093753
 11
420.50331126562497
 21
280.84331926093751
  0
LINE
  8
_0-8_会社ロゴ項目
  6
CONTINUOUS
 62
    7
 10
420.50331126562497
 20
280.84331926093751
 11
419.55108726562497
 21
281.0973952609375
  0
LINE
  8
_0-8_会社ロゴ項目
  6
CONTINUOUS
 62
    7
 10
419.55108726562497
 20
281.0973952609375
 11
418.57715926562497
 21
281.33011126093749
  0
LINE
  8
_0-8_会社ロゴ項目
  6
CONTINUOUS
 62
    7
 10
418.57715926562497
 20
281.33011126093749
 11
417.582215265625
 21
281.49961026093752
  0
LINE
  8
_0-8_会社ロゴ項目
  6
CONTINUOUS
 62
    7
 10
417.582215265625
 20
281.49961026093752
 11
416.60863126562498
 21
281.64774926093753
  0
LINE
  8
_0-8_会社ロゴ項目
  6
CONTINUOUS
 62
    7
 10
416.60863126562498
 20
281.64774926093753
 11
415.61403226562499
 21
281.75351426093749
  0
LINE
  8
_0-8_会社ロゴ項目
  6
CONTINUOUS
 62
    7
 10
415.61403226562499
 20
281.75351426093749
 11
414.61908826562501
 21
281.85927826093746
  0
LINE
  8
_0-8_会社ロゴ項目
  6
CONTINUOUS
 62
    7
 10
414.61908826562501
 20
281.85927826093746
 11
413.624317265625
 21
281.90165326093745
  0
LINE
  8
_0-8_会社ロゴ項目
  6
CONTINUOUS
 62
    7
 10
413.624317265625
 20
281.90165326093745
 11
412.62954626562498
 21
281.92284026093751
  0
LINE
  8
_0-8_会社ロゴ項目
  6
CONTINUOUS
 62
    7
 10
412.62954626562498
 20
281.92284026093751
 11
411.63460226562495
 21
281.90165326093745
  0
LINE
  8
_0-8_会社ロゴ項目
  6
CONTINUOUS
 62
    7
 10
411.63460226562495
 20
281.90165326093745
 11
410.63983126562499
 21
281.85927826093746
  0
LINE
  8
_0-8_会社ロゴ項目
  6
CONTINUOUS
 62
    7
 10
410.63983126562499
 20
281.85927826093746
 11
409.64488726562496
 21
281.75351426093749
  0
LINE
  8
_0-8_会社ロゴ項目
  6
CONTINUOUS
 62
    7
 10
409.64488726562496
 20
281.75351426093749
 11
408.650116265625
 21
281.64774926093753
  0
LINE
  8
_0-8_会社ロゴ項目
  6
CONTINUOUS
 62
    7
 10
408.650116265625
 20
281.64774926093753
 11
407.67653226562499
 21
281.49961026093752
  0
LINE
  8
_0-8_会社ロゴ項目
  6
CONTINUOUS
 62
    7
 10
407.67653226562499
 20
281.49961026093752
 11
406.68158826562501
 21
281.33011126093749
  0
LINE
  8
_0-8_会社ロゴ項目
  6
CONTINUOUS
 62
    7
 10
406.68158826562501
 20
281.33011126093749
 11
405.72919226562499
 21
281.0973952609375
  0
LINE
  8
_0-8_会社ロゴ項目
  6
CONTINUOUS
 62
    7
 10
405.72919226562499
 20
281.0973952609375
 11
404.75543526562501
 21
280.84331926093751
  0
LINE
  8
_0-8_会社ロゴ項目
  6
CONTINUOUS
 62
    7
 10
404.75543526562501
 20
280.84331926093751
 11
403.80303926562499
 21
280.56822926093753
  0
LINE
  8
_0-8_会社ロゴ項目
  6
CONTINUOUS
 62
    7
 10
403.80303926562499
 20
280.56822926093753
 11
402.85047026562495
 21
280.27177826093748
  0
LINE
  8
_0-8_会社ロゴ項目
  6
CONTINUOUS
 62
    7
 10
402.85047026562495
 20
280.27177826093748
 11
401.91908826562496
 21
279.95431326093751
  0
LINE
  8
_0-8_会社ロゴ項目
  6
CONTINUOUS
 62
    7
 10
401.91908826562496
 20
279.95431326093751
 11
400.987879265625
 21
279.5732852609375
  0
LINE
  8
_0-8_会社ロゴ項目
  6
CONTINUOUS
 62
    7
 10
400.987879265625
 20
279.5732852609375
 11
400.07768526562495
 21
279.1712422609375
  0
LINE
  8
_0-8_会社ロゴ項目
  6
CONTINUOUS
 62
    7
 10
400.07768526562495
 20
279.1712422609375
 11
399.18867826562496
 21
278.7266532609375
  0
LINE
  8
_0-8_会社ロゴ項目
  6
CONTINUOUS
 62
    7
 10
399.18867826562496
 20
278.7266532609375
 11
398.29967126562497
 21
278.28223526093745
  0
LINE
  8
_0-8_会社ロゴ項目
  6
CONTINUOUS
 62
    7
 10
398.29967126562497
 20
278.28223526093745
 11
397.43185126562497
 21
277.77425626093748
  0
LINE
  8
_0-8_会社ロゴ項目
  6
CONTINUOUS
 62
    7
 10
397.43185126562497
 20
277.77425626093748
 11
396.58504726562501
 21
277.24508926093745
  0
LINE
  8
_0-8_会社ロゴ項目
  6
CONTINUOUS
 62
    7
 10
396.58504726562501
 20
277.24508926093745
 11
395.75960226562495
 21
276.69473526093748
  0
LINE
  8
_0-8_会社ロゴ項目
  6
CONTINUOUS
 62
    7
 10
395.75960226562495
 20
276.69473526093748
 11
394.95534526562494
 21
276.12319426093745
  0
LINE
  8
_0-8_会社ロゴ項目
  6
CONTINUOUS
 62
    7
 10
394.95534526562494
 20
276.12319426093745
 11
394.15091526562497
 21
275.53046526093749
  0
LINE
  8
_0-8_会社ロゴ項目
  6
CONTINUOUS
 62
    7
 10
394.15091526562497
 20
275.53046526093749
 11
393.38903226562496
 21
274.8955342609375
  0
LINE
  8
_0-8_会社ロゴ項目
  6
CONTINUOUS
 62
    7
 10
393.38903226562496
 20
274.8955342609375
 11
392.62697726562499
 21
274.2394162609375
  0
LINE
  8
_0-8_会社ロゴ項目
  6
CONTINUOUS
 62
    7
 10
392.62697726562499
 20
274.2394162609375
 11
391.90729626562495
 21
273.56211026093746
  0
LINE
  8
_0-8_会社ロゴ項目
  6
CONTINUOUS
 62
    7
 10
391.90729626562495
 20
273.56211026093746
 11
391.20880326562497
 21
272.86344526093745
  0
LINE
  8
_0-8_会社ロゴ項目
  6
CONTINUOUS
 62
    7
 10
391.20880326562497
 20
272.86344526093745
 11
390.51031026562498
 21
272.1227492609375
  0
LINE
  8
_0-8_会社ロゴ項目
  6
CONTINUOUS
 62
    7
 10
390.51031026562498
 20
272.1227492609375
 11
389.87537926562499
 21
271.38188126093746
  0
LINE
  8
_0-8_会社ロゴ項目
  6
CONTINUOUS
 62
    7
 10
389.87537926562499
 20
271.38188126093746
 11
389.24027626562497
 21
270.59863926093749
  0
LINE
  8
_0-8_会社ロゴ項目
  6
CONTINUOUS
 62
    7
 10
389.24027626562497
 20
270.59863926093749
 11
388.62653226562497
 21
269.81556926093748
  0
LINE
  8
_0-8_会社ロゴ項目
  6
CONTINUOUS
 62
    7
 10
388.62653226562497
 20
269.81556926093748
 11
388.05499126562495
 21
269.01113926093745
  0
LINE
  8
_0-8_会社ロゴ項目
  6
CONTINUOUS
 62
    7
 10
388.05499126562495
 20
269.01113926093745
 11
387.50463726562498
 21
268.16450726093746
  0
LINE
  8
_0-8_会社ロゴ項目
  6
CONTINUOUS
 62
    7
 10
387.50463726562498
 20
268.16450726093746
 11
386.97547026562495
 21
267.31787526093746
  0
LINE
  8
_0-8_会社ロゴ項目
  6
CONTINUOUS
 62
    7
 10
386.97547026562495
 20
267.31787526093746
 11
386.48867826562497
 21
266.45005526093746
  0
LINE
  8
_0-8_会社ロゴ項目
  6
CONTINUOUS
 62
    7
 10
386.48867826562497
 20
266.45005526093746
 11
386.02290126562497
 21
265.58223526093747
  0
LINE
  8
_0-8_会社ロゴ項目
  6
CONTINUOUS
 62
    7
 10
386.02290126562497
 20
265.58223526093747
 11
385.59967126562498
 21
264.67204126093748
  0
LINE
  8
_0-8_会社ロゴ項目
  6
CONTINUOUS
 62
    7
 10
385.59967126562498
 20
264.67204126093748
 11
385.19745626562496
 21
263.76184726093749
  0
LINE
  8
_0-8_会社ロゴ項目
  6
CONTINUOUS
 62
    7
 10
385.19745626562496
 20
263.76184726093749
 11
384.81642926562495
 21
262.8516532609375
  0
LINE
  8
_0-8_会社ロゴ項目
  6
CONTINUOUS
 62
    7
 10
384.81642926562495
 20
262.8516532609375
 11
384.47777626562498
 21
261.89925626093748
  0
LINE
  8
_0-8_会社ロゴ項目
  6
CONTINUOUS
 62
    7
 10
384.47777626562498
 20
261.89925626093748
 11
384.16031026562496
 21
260.96787526093749
  0
LINE
  8
_0-8_会社ロゴ項目
  6
CONTINUOUS
 62
    7
 10
384.16031026562496
 20
260.96787526093749
 11
383.88504726562496
 21
260.01530626093745
  0
LINE
  8
_0-8_会社ロゴ項目
  6
CONTINUOUS
 62
    7
 10
383.88504726562496
 20
260.01530626093745
 11
383.63114326562498
 21
259.04172226093749
  0
LINE
  8
_0-8_会社ロゴ項目
  6
CONTINUOUS
 62
    7
 10
383.63114326562498
 20
259.04172226093749
 11
383.41944226562498
 21
258.06796526093746
  0
LINE
  8
_0-8_会社ロゴ項目
  6
CONTINUOUS
 62
    7
 10
383.41944226562498
 20
258.06796526093746
 11
383.22892926562497
 21
257.0943812609375
  0
LINE
  8
_0-8_会社ロゴ項目
  6
CONTINUOUS
 62
    7
 10
383.22892926562497
 20
257.0943812609375
 11
383.08078926562496
 21
256.09961026093748
  0
LINE
  8
_0-8_会社ロゴ項目
  6
CONTINUOUS
 62
    7
 10
383.08078926562496
 20
256.09961026093748
 11
382.97502526562499
 21
255.1258542609375
  0
LINE
  8
_0-8_会社ロゴ項目
  6
CONTINUOUS
 62
    7
 10
382.97502526562499
 20
255.1258542609375
 11
382.89027626562495
 21
254.13108326093749
  0
LINE
  8
_0-8_会社ロゴ項目
  6
CONTINUOUS
 62
    7
 10
382.89027626562495
 20
254.13108326093749
 11
382.84790126562496
 21
253.13613926093748
  0
LINE
  8
_0-8_会社ロゴ項目
  6
CONTINUOUS
 62
    7
 10
382.84790126562496
 20
253.13613926093748
 11
382.82671426562496
 21
252.1413682609375
  0
LINE
  8
_0-8_会社ロゴ項目
  6
CONTINUOUS
 62
    7
 10
382.82671426562496
 20
252.1413682609375
 11
382.84790126562496
 21
251.12540926093749
  0
LINE
  8
_0-8_会社ロゴ項目
  6
CONTINUOUS
 62
    7
 10
382.84790126562496
 20
251.12540926093749
 11
382.89027626562495
 21
250.15165326093748
  0
LINE
  8
_0-8_会社ロゴ項目
  6
CONTINUOUS
 62
    7
 10
382.89027626562495
 20
250.15165326093748
 11
382.97502526562499
 21
249.1356942609375
  0
LINE
  8
_0-8_会社ロゴ項目
  6
CONTINUOUS
 62
    7
 10
382.97502526562499
 20
249.1356942609375
 11
383.08078926562496
 21
248.16211026093748
  0
LINE
  8
_0-8_会社ロゴ項目
  6
CONTINUOUS
 62
    7
 10
383.08078926562496
 20
248.16211026093748
 11
383.22892926562497
 21
247.1671672609375
  0
LINE
  8
_0-8_会社ロゴ項目
  6
CONTINUOUS
 62
    7
 10
383.22892926562497
 20
247.1671672609375
 11
383.41944226562498
 21
246.19358326093749
  0
LINE
  8
_0-8_会社ロゴ項目
  6
CONTINUOUS
 62
    7
 10
383.41944226562498
 20
246.19358326093749
 11
383.63114326562498
 21
245.21982626093748
  0
LINE
  8
_0-8_会社ロゴ項目
  6
CONTINUOUS
 62
    7
 10
383.63114326562498
 20
245.21982626093748
 11
383.88504726562496
 21
244.24624226093749
  0
LINE
  8
_0-8_会社ロゴ項目
  6
CONTINUOUS
 62
    7
 10
383.88504726562496
 20
244.24624226093749
 11
384.16031026562496
 21
243.29367326093748
  0
LINE
  8
_0-8_会社ロゴ項目
  6
CONTINUOUS
 62
    7
 10
384.16031026562496
 20
243.29367326093748
 11
384.47777626562498
 21
242.36229226093749
  0
LINE
  8
_0-8_会社ロゴ項目
  6
CONTINUOUS
 62
    7
 10
384.47777626562498
 20
242.36229226093749
 11
384.81642926562495
 21
241.4098952609375
  0
LINE
  8
_0-8_会社ロゴ項目
  6
CONTINUOUS
 62
    7
 10
384.81642926562495
 20
241.4098952609375
 11
385.19745626562496
 21
240.49970126093748
  0
LINE
  8
_0-8_会社ロゴ項目
  6
CONTINUOUS
 62
    7
 10
385.19745626562496
 20
240.49970126093748
 11
385.59967126562498
 21
239.58950726093749
  0
LINE
  8
_0-8_会社ロゴ項目
  6
CONTINUOUS
 62
    7
 10
385.59967126562498
 20
239.58950726093749
 11
386.02290126562497
 21
238.67931326093748
  0
LINE
  8
_0-8_会社ロゴ項目
  6
CONTINUOUS
 62
    7
 10
386.02290126562497
 20
238.67931326093748
 11
386.48867826562497
 21
237.81149326093748
  0
LINE
  8
_0-8_会社ロゴ項目
  6
CONTINUOUS
 62
    7
 10
386.48867826562497
 20
237.81149326093748
 11
386.97547026562495
 21
236.94367326093749
  0
LINE
  8
_0-8_会社ロゴ項目
  6
CONTINUOUS
 62
    7
 10
386.97547026562495
 20
236.94367326093749
 11
387.50463726562498
 21
236.09704126093749
  0
LINE
  8
_0-8_会社ロゴ項目
  6
CONTINUOUS
 62
    7
 10
387.50463726562498
 20
236.09704126093749
 11
388.05499126562495
 21
235.27159626093749
  0
LINE
  8
_0-8_会社ロゴ項目
  6
CONTINUOUS
 62
    7
 10
388.05499126562495
 20
235.27159626093749
 11
388.62653226562497
 21
234.44597926093749
  0
LINE
  8
_0-8_会社ロゴ項目
  6
CONTINUOUS
 62
    7
 10
388.62653226562497
 20
234.44597926093749
 11
389.24027626562497
 21
233.66290926093748
  0
LINE
  8
_0-8_会社ロゴ項目
  6
CONTINUOUS
 62
    7
 10
389.24027626562497
 20
233.66290926093748
 11
389.87537926562499
 21
232.87966726093748
  0
LINE
  8
_0-8_会社ロゴ項目
  6
CONTINUOUS
 62
    7
 10
389.87537926562499
 20
232.87966726093748
 11
390.51031026562498
 21
232.1387992609375
  0
LINE
  8
_0-8_会社ロゴ項目
  6
CONTINUOUS
 62
    7
 10
390.51031026562498
 20
232.1387992609375
 11
391.20880326562497
 21
231.3979312609375
  0
LINE
  8
_0-8_会社ロゴ項目
  6
CONTINUOUS
 62
    7
 10
391.20880326562497
 20
231.3979312609375
 11
391.90729626562495
 21
230.69961026093748
  0
LINE
  8
_0-8_会社ロゴ項目
  6
CONTINUOUS
 62
    7
 10
391.90729626562495
 20
230.69961026093748
 11
392.62697726562499
 21
230.0221322609375
  0
LINE
  8
_0-8_会社ロゴ項目
  6
CONTINUOUS
 62
    7
 10
392.62697726562499
 20
230.0221322609375
 11
393.38903226562496
 21
229.36601426093748
  0
LINE
  8
_0-8_会社ロゴ項目
  6
CONTINUOUS
 62
    7
 10
393.38903226562496
 20
229.36601426093748
 11
394.15091526562497
 21
228.73108326093748
  0
LINE
  8
_0-8_会社ロゴ項目
  6
CONTINUOUS
 62
    7
 10
394.15091526562497
 20
228.73108326093748
 11
394.95534526562494
 21
228.13835426093749
  0
LINE
  8
_0-8_会社ロゴ項目
  6
CONTINUOUS
 62
    7
 10
394.95534526562494
 20
228.13835426093749
 11
395.75960226562495
 21
227.56681326093749
  0
LINE
  8
_0-8_会社ロゴ項目
  6
CONTINUOUS
 62
    7
 10
395.75960226562495
 20
227.56681326093749
 11
396.58504726562501
 21
227.01645926093749
  0
LINE
  8
_0-8_会社ロゴ項目
  6
CONTINUOUS
 62
    7
 10
396.58504726562501
 20
227.01645926093749
 11
397.43185126562497
 21
226.48729226093749
  0
LINE
  8
_0-8_会社ロゴ項目
  6
CONTINUOUS
 62
    7
 10
397.43185126562497
 20
226.48729226093749
 11
398.29967126562497
 21
226.00050026093749
  0
LINE
  8
_0-8_会社ロゴ項目
  6
CONTINUOUS
 62
    7
 10
398.29967126562497
 20
226.00050026093749
 11
399.18867826562496
 21
225.5348952609375
  0
LINE
  8
_0-8_会社ロゴ項目
  6
CONTINUOUS
 62
    7
 10
399.18867826562496
 20
225.5348952609375
 11
400.07768526562495
 21
225.0903062609375
  0
LINE
  8
_0-8_会社ロゴ項目
  6
CONTINUOUS
 62
    7
 10
400.07768526562495
 20
225.0903062609375
 11
400.987879265625
 21
224.6882632609375
  0
LINE
  8
_0-8_会社ロゴ項目
  6
CONTINUOUS
 62
    7
 10
400.987879265625
 20
224.6882632609375
 11
401.91908826562496
 21
224.30723526093749
  0
LINE
  8
_0-8_会社ロゴ項目
  6
CONTINUOUS
 62
    7
 10
401.91908826562496
 20
224.30723526093749
 11
402.85047026562495
 21
223.96858326093749
  0
LINE
  8
_0-8_会社ロゴ項目
  6
CONTINUOUS
 62
    7
 10
402.85047026562495
 20
223.96858326093749
 11
403.80303926562499
 21
223.6721322609375
  0
LINE
  8
_0-8_会社ロゴ項目
  6
CONTINUOUS
 62
    7
 10
403.80303926562499
 20
223.6721322609375
 11
404.75543526562501
 21
223.3970412609375
  0
LINE
  8
_0-8_会社ロゴ項目
  6
CONTINUOUS
 62
    7
 10
404.75543526562501
 20
223.3970412609375
 11
405.72919226562499
 21
223.1429652609375
  0
LINE
  8
_0-8_会社ロゴ項目
  6
CONTINUOUS
 62
    7
 10
405.72919226562499
 20
223.1429652609375
 11
406.68158826562501
 21
222.9312642609375
  0
LINE
  8
_0-8_会社ロゴ項目
  6
CONTINUOUS
 62
    7
 10
406.68158826562501
 20
222.9312642609375
 11
407.67653226562499
 21
222.74092326093748
  0
LINE
  8
_0-8_会社ロゴ項目
  6
CONTINUOUS
 62
    7
 10
407.67653226562499
 20
222.74092326093748
 11
408.650116265625
 21
222.5926112609375
  0
LINE
  8
_0-8_会社ロゴ項目
  6
CONTINUOUS
 62
    7
 10
408.650116265625
 20
222.5926112609375
 11
409.64488726562496
 21
222.48684726093748
  0
LINE
  8
_0-8_会社ロゴ項目
  6
CONTINUOUS
 62
    7
 10
409.64488726562496
 20
222.48684726093748
 11
410.63983126562499
 21
222.40209826093749
  0
LINE
  8
_0-8_会社ロゴ項目
  6
CONTINUOUS
 62
    7
 10
410.63983126562499
 20
222.40209826093749
 11
411.63460226562495
 21
222.33870826093749
  0
LINE
  8
_0-8_会社ロゴ項目
  6
CONTINUOUS
 62
    7
 10
411.63460226562495
 20
222.33870826093749
 11
412.62954626562498
 21
222.3175212609375
  0
LINE
  8
_0-8_会社ロゴ項目
  6
CONTINUOUS
 62
    7
 10
412.62954626562498
 20
222.3175212609375
 11
413.624317265625
 21
222.33870826093749
  0
LINE
  8
_0-8_会社ロゴ項目
  6
CONTINUOUS
 62
    7
 10
413.624317265625
 20
222.33870826093749
 11
414.61908826562501
 21
222.40209826093749
  0
LINE
  8
_0-8_会社ロゴ項目
  6
CONTINUOUS
 62
    7
 10
414.61908826562501
 20
222.40209826093749
 11
415.61403226562499
 21
222.48684726093748
  0
LINE
  8
_0-8_会社ロゴ項目
  6
CONTINUOUS
 62
    7
 10
415.61403226562499
 20
222.48684726093748
 11
416.60863126562498
 21
222.5926112609375
  0
LINE
  8
_0-8_会社ロゴ項目
  6
CONTINUOUS
 62
    7
 10
416.60863126562498
 20
222.5926112609375
 11
417.582215265625
 21
222.74092326093748
  0
LINE
  8
_0-8_会社ロゴ項目
  6
CONTINUOUS
 62
    7
 10
417.582215265625
 20
222.74092326093748
 11
418.57715926562497
 21
222.9312642609375
  0
LINE
  8
_0-8_会社ロゴ項目
  6
CONTINUOUS
 62
    7
 10
418.57715926562497
 20
222.9312642609375
 11
419.55108726562497
 21
223.1429652609375
  0
LINE
  8
_0-8_会社ロゴ項目
  6
CONTINUOUS
 62
    7
 10
419.55108726562497
 20
223.1429652609375
 11
420.50331126562497
 21
223.3970412609375
  0
LINE
  8
_0-8_会社ロゴ項目
  6
CONTINUOUS
 62
    7
 10
420.50331126562497
 20
223.3970412609375
 11
421.45588026562496
 21
223.6721322609375
  0
LINE
  8
_0-8_会社ロゴ項目
  6
CONTINUOUS
 62
    7
 10
421.45588026562496
 20
223.6721322609375
 11
422.40844926562499
 21
223.96858326093749
  0
LINE
  8
_0-8_会社ロゴ項目
  6
CONTINUOUS
 62
    7
 10
422.40844926562499
 20
223.96858326093749
 11
423.33965926562496
 21
224.30723526093749
  0
LINE
  8
_0-8_会社ロゴ項目
  6
CONTINUOUS
 62
    7
 10
423.33965926562496
 20
224.30723526093749
 11
424.27121226562497
 21
224.6882632609375
  0
LINE
  8
_0-8_会社ロゴ項目
  6
CONTINUOUS
 62
    7
 10
424.27121226562497
 20
224.6882632609375
 11
425.18140726562501
 21
225.0903062609375
  0
LINE
  8
_0-8_会社ロゴ項目
  6
CONTINUOUS
 62
    7
 10
425.18140726562501
 20
225.0903062609375
 11
426.07024126562499
 21
225.5348952609375
  0
LINE
  8
_0-8_会社ロゴ項目
  6
CONTINUOUS
 62
    7
 10
426.07024126562499
 20
225.5348952609375
 11
426.959420265625
 21
226.00050026093749
  0
LINE
  8
_0-8_会社ロゴ項目
  6
CONTINUOUS
 62
    7
 10
426.959420265625
 20
226.00050026093749
 11
427.82724026562494
 21
226.48729226093749
  0
LINE
  8
_0-8_会社ロゴ項目
  6
CONTINUOUS
 62
    7
 10
427.82724026562494
 20
226.48729226093749
 11
428.67370026562497
 21
227.01645926093749
  0
LINE
  8
_0-8_会社ロゴ項目
  6
CONTINUOUS
 62
    7
 10
428.67370026562497
 20
227.01645926093749
 11
429.49914526562497
 21
227.56681326093749
  0
LINE
  8
_0-8_会社ロゴ項目
  6
CONTINUOUS
 62
    7
 10
429.49914526562497
 20
227.56681326093749
 11
430.303575265625
 21
228.13835426093749
  0
LINE
  8
_0-8_会社ロゴ項目
  6
CONTINUOUS
 62
    7
 10
430.303575265625
 20
228.13835426093749
 11
431.10800426562497
 21
228.73108326093748
  0
LINE
  8
_0-8_会社ロゴ項目
  6
CONTINUOUS
 62
    7
 10
431.10800426562497
 20
228.73108326093748
 11
431.87005926562495
 21
229.36601426093748
  0
LINE
  8
_0-8_会社ロゴ項目
  6
CONTINUOUS
 62
    7
 10
431.87005926562495
 20
229.36601426093748
 11
432.63211526562498
 21
230.0221322609375
  0
LINE
  8
_0-8_会社ロゴ項目
  6
CONTINUOUS
 62
    7
 10
432.63211526562498
 20
230.0221322609375
 11
433.35179526562496
 21
230.69961026093748
  0
LINE
  8
_0-8_会社ロゴ項目
  6
CONTINUOUS
 62
    7
 10
433.35179526562496
 20
230.69961026093748
 11
434.05011626562498
 21
231.3979312609375
  0
LINE
  8
_0-8_会社ロゴ項目
  6
CONTINUOUS
 62
    7
 10
434.05011626562498
 20
231.3979312609375
 11
434.74878126562498
 21
232.1387992609375
  0
LINE
  8
_0-8_会社ロゴ項目
  6
CONTINUOUS
 62
    7
 10
434.74878126562498
 20
232.1387992609375
 11
435.38371226562498
 21
232.87966726093748
  0
LINE
  8
_0-8_会社ロゴ項目
  6
CONTINUOUS
 62
    7
 10
435.38371226562498
 20
232.87966726093748
 11
436.01864326562497
 21
233.66290926093748
  0
LINE
  8
_0-8_会社ロゴ項目
  6
CONTINUOUS
 62
    7
 10
436.01864326562497
 20
233.66290926093748
 11
436.63255926562499
 21
234.44597926093749
  0
LINE
  8
_0-8_会社ロゴ項目
  6
CONTINUOUS
 62
    7
 10
436.63255926562499
 20
234.44597926093749
 11
437.20410126562496
 21
235.27159626093749
  0
LINE
  8
_0-8_会社ロゴ項目
  6
CONTINUOUS
 62
    7
 10
437.20410126562496
 20
235.27159626093749
 11
437.75428326562496
 21
236.09704126093749
  0
LINE
  8
_0-8_会社ロゴ項目
  6
CONTINUOUS
 62
    7
 10
437.75428326562496
 20
236.09704126093749
 11
438.26243426562496
 21
236.94367326093749
  0
LINE
  8
_0-8_会社ロゴ項目
  6
CONTINUOUS
 62
    7
 10
438.26243426562496
 20
236.94367326093749
 11
438.77024126562497
 21
237.81149326093748
  0
LINE
  8
_0-8_会社ロゴ項目
  6
CONTINUOUS
 62
    7
 10
438.77024126562497
 20
237.81149326093748
 11
439.23601826562498
 21
238.67931326093748
  0
LINE
  8
_0-8_会社ロゴ項目
  6
CONTINUOUS
 62
    7
 10
439.23601826562498
 20
238.67931326093748
 11
439.68043526562496
 21
239.58950726093749
  0
LINE
  8
_0-8_会社ロゴ項目
  6
CONTINUOUS
 62
    7
 10
439.68043526562496
 20
239.58950726093749
 11
440.06146326562498
 21
240.49970126093748
  0
LINE
  8
_0-8_会社ロゴ項目
  6
CONTINUOUS
 62
    7
 10
440.06146326562498
 20
240.49970126093748
 11
440.44249126562499
 21
241.4098952609375
  0
LINE
  8
_0-8_会社ロゴ項目
  6
CONTINUOUS
 62
    7
 10
440.44249126562499
 20
241.4098952609375
 11
440.80215926562499
 21
242.36229226093749
  0
LINE
  8
_0-8_会社ロゴ項目
  6
CONTINUOUS
 62
    7
 10
440.80215926562499
 20
242.36229226093749
 11
441.09878126562495
 21
243.29367326093748
  0
LINE
  8
_0-8_会社ロゴ項目
  6
CONTINUOUS
 62
    7
 10
441.09878126562495
 20
243.29367326093748
 11
441.37370026562496
 21
244.24624226093749
  0
LINE
  8
_0-8_会社ロゴ項目
  6
CONTINUOUS
 62
    7
 10
441.37370026562496
 20
244.24624226093749
 11
441.62794826562498
 21
245.21982626093748
  0
LINE
  8
_0-8_会社ロゴ項目
  6
CONTINUOUS
 62
    7
 10
441.62794826562498
 20
245.21982626093748
 11
441.83947726562496
 21
246.19358326093749
  0
LINE
  8
_0-8_会社ロゴ項目
  6
CONTINUOUS
 62
    7
 10
441.83947726562496
 20
246.19358326093749
 11
442.02999126562497
 21
247.1671672609375
  0
LINE
  8
_0-8_会社ロゴ項目
  6
CONTINUOUS
 62
    7
 10
442.02999126562497
 20
247.1671672609375
 11
442.17813026562499
 21
248.16211026093748
  0
LINE
  8
_0-8_会社ロゴ項目
  6
CONTINUOUS
 62
    7
 10
442.17813026562499
 20
248.16211026093748
 11
442.28389426562495
 21
249.1356942609375
  0
LINE
  8
_0-8_会社ロゴ項目
  6
CONTINUOUS
 62
    7
 10
442.28389426562495
 20
249.1356942609375
 11
442.368643265625
 21
250.15165326093748
  0
LINE
  8
_0-8_会社ロゴ項目
  6
CONTINUOUS
 62
    7
 10
442.368643265625
 20
250.15165326093748
 11
442.43203326562497
 21
251.12540926093749
  0
LINE
  8
_0-8_会社ロゴ項目
  6
CONTINUOUS
 62
    7
 10
442.43203326562497
 20
251.12540926093749
 11
442.43203326562497
 21
252.1413682609375
  0
LINE
  8
_0-8_会社ロゴ項目
  6
CONTINUOUS
 62
    7
 10
440.97165726562497
 20
252.1413682609375
 11
440.95029826562495
 21
253.13613926093748
  0
LINE
  8
_0-8_会社ロゴ項目
  6
CONTINUOUS
 62
    7
 10
440.95029826562495
 20
253.13613926093748
 11
440.88690826562498
 21
254.13108326093749
  0
LINE
  8
_0-8_会社ロゴ項目
  6
CONTINUOUS
 62
    7
 10
440.88690826562498
 20
254.13108326093749
 11
440.80215926562499
 21
255.1258542609375
  0
LINE
  8
_0-8_会社ロゴ項目
  6
CONTINUOUS
 62
    7
 10
440.80215926562499
 20
255.1258542609375
 11
440.675379265625
 21
256.12062526093746
  0
LINE
  8
_0-8_会社ロゴ項目
  6
CONTINUOUS
 62
    7
 10
440.675379265625
 20
256.12062526093746
 11
440.52724026562498
 21
257.11556926093749
  0
LINE
  8
_0-8_会社ロゴ項目
  6
CONTINUOUS
 62
    7
 10
440.52724026562498
 20
257.11556926093749
 11
440.31536726562496
 21
258.08915326093745
  0
LINE
  8
_0-8_会社ロゴ項目
  6
CONTINUOUS
 62
    7
 10
440.31536726562496
 20
258.08915326093745
 11
440.10383826562497
 21
259.06290926093749
  0
LINE
  8
_0-8_会社ロゴ項目
  6
CONTINUOUS
 62
    7
 10
440.10383826562497
 20
259.06290926093749
 11
439.82857526562498
 21
260.01530626093745
  0
LINE
  8
_0-8_会社ロゴ項目
  6
CONTINUOUS
 62
    7
 10
439.82857526562498
 20
260.01530626093745
 11
439.53229626562495
 21
260.96787526093749
  0
LINE
  8
_0-8_会社ロゴ項目
  6
CONTINUOUS
 62
    7
 10
439.53229626562495
 20
260.96787526093749
 11
439.21465926562496
 21
261.92044326093747
  0
LINE
  8
_0-8_会社ロゴ項目
  6
CONTINUOUS
 62
    7
 10
439.21465926562496
 20
261.92044326093747
 11
438.85499126562496
 21
262.8516532609375
  0
LINE
  8
_0-8_会社ロゴ項目
  6
CONTINUOUS
 62
    7
 10
438.85499126562496
 20
262.8516532609375
 11
438.45294826562497
 21
263.78303426093748
  0
LINE
  8
_0-8_会社ロゴ項目
  6
CONTINUOUS
 62
    7
 10
438.45294826562497
 20
263.78303426093748
 11
438.02954626562496
 21
264.67204126093748
  0
LINE
  8
_0-8_会社ロゴ項目
  6
CONTINUOUS
 62
    7
 10
438.02954626562496
 20
264.67204126093748
 11
437.56376926562496
 21
265.56104826093747
  0
LINE
  8
_0-8_会社ロゴ項目
  6
CONTINUOUS
 62
    7
 10
437.56376926562496
 20
265.56104826093747
 11
437.07697726562498
 21
266.42886826093746
  0
LINE
  8
_0-8_会社ロゴ項目
  6
CONTINUOUS
 62
    7
 10
437.07697726562498
 20
266.42886826093746
 11
436.56882526562498
 21
267.29668726093746
  0
LINE
  8
_0-8_会社ロゴ項目
  6
CONTINUOUS
 62
    7
 10
436.56882526562498
 20
267.29668726093746
 11
436.01864326562497
 21
268.12213226093746
  0
LINE
  8
_0-8_会社ロゴ項目
  6
CONTINUOUS
 62
    7
 10
436.01864326562497
 20
268.12213226093746
 11
435.42608726562497
 21
268.94774926093748
  0
LINE
  8
_0-8_会社ロゴ項目
  6
CONTINUOUS
 62
    7
 10
435.42608726562497
 20
268.94774926093748
 11
434.81217126562501
 21
269.73081926093749
  0
LINE
  8
_0-8_会社ロゴ項目
  6
CONTINUOUS
 62
    7
 10
434.81217126562501
 20
269.73081926093749
 11
434.19825526562499
 21
270.51406226093746
  0
LINE
  8
_0-8_会社ロゴ項目
  6
CONTINUOUS
 62
    7
 10
434.19825526562499
 20
270.51406226093746
 11
433.52094926562495
 21
271.2549302609375
  0
LINE
  8
_0-8_会社ロゴ項目
  6
CONTINUOUS
 62
    7
 10
433.52094926562495
 20
271.2549302609375
 11
432.84364326562496
 21
271.97461026093748
  0
LINE
  8
_0-8_会社ロゴ項目
  6
CONTINUOUS
 62
    7
 10
432.84364326562496
 20
271.97461026093748
 11
432.12396326562498
 21
272.6941182609375
  0
LINE
  8
_0-8_会社ロゴ項目
  6
CONTINUOUS
 62
    7
 10
432.12396326562498
 20
272.6941182609375
 11
431.38326726562497
 21
273.37159626093745
  0
LINE
  8
_0-8_会社ロゴ項目
  6
CONTINUOUS
 62
    7
 10
431.38326726562497
 20
273.37159626093745
 11
430.62121226562499
 21
274.0065272609375
  0
LINE
  8
_0-8_会社ロゴ項目
  6
CONTINUOUS
 62
    7
 10
430.62121226562499
 20
274.0065272609375
 11
429.837798265625
 21
274.64145926093749
  0
LINE
  8
_0-8_会社ロゴ項目
  6
CONTINUOUS
 62
    7
 10
429.837798265625
 20
274.64145926093749
 11
429.03371226562496
 21
275.23418726093746
  0
LINE
  8
_0-8_会社ロゴ項目
  6
CONTINUOUS
 62
    7
 10
429.03371226562496
 20
275.23418726093746
 11
428.20826726562495
 21
275.78454126093749
  0
LINE
  8
_0-8_会社ロゴ項目
  6
CONTINUOUS
 62
    7
 10
428.20826726562495
 20
275.78454126093749
 11
427.36146326562493
 21
276.33489526093751
  0
LINE
  8
_0-8_会社ロゴ項目
  6
CONTINUOUS
 62
    7
 10
427.36146326562493
 20
276.33489526093751
 11
426.493643265625
 21
276.82168726093749
  0
LINE
  8
_0-8_会社ロゴ項目
  6
CONTINUOUS
 62
    7
 10
426.493643265625
 20
276.82168726093749
 11
425.62582426562494
 21
277.30847926093747
  0
LINE
  8
_0-8_会社ロゴ項目
  6
CONTINUOUS
 62
    7
 10
425.62582426562494
 20
277.30847926093747
 11
424.73664526562499
 21
277.75306926093748
  0
LINE
  8
_0-8_会社ロゴ項目
  6
CONTINUOUS
 62
    7
 10
424.73664526562499
 20
277.75306926093748
 11
423.80543526562496
 21
278.15511126093747
  0
LINE
  8
_0-8_会社ロゴ項目
  6
CONTINUOUS
 62
    7
 10
423.80543526562496
 20
278.15511126093747
 11
422.89524126562497
 21
278.53613926093749
  0
LINE
  8
_0-8_会社ロゴ項目
  6
CONTINUOUS
 62
    7
 10
422.89524126562497
 20
278.53613926093749
 11
421.94267226562499
 21
278.87479226093751
  0
LINE
  8
_0-8_会社ロゴ項目
  6
CONTINUOUS
 62
    7
 10
421.94267226562499
 20
278.87479226093751
 11
420.99044826562499
 21
279.1924302609375
  0
LINE
  8
_0-8_会社ロゴ項目
  6
CONTINUOUS
 62
    7
 10
420.99044826562499
 20
279.1924302609375
 11
420.03787926562495
 21
279.46752126093747
  0
LINE
  8
_0-8_会社ロゴ項目
  6
CONTINUOUS
 62
    7
 10
420.03787926562495
 20
279.46752126093747
 11
419.06429526562499
 21
279.72159626093753
  0
LINE
  8
_0-8_会社ロゴ項目
  6
CONTINUOUS
 62
    7
 10
419.06429526562499
 20
279.72159626093753
 11
418.09071126562498
 21
279.93312526093746
  0
LINE
  8
_0-8_会社ロゴ項目
  6
CONTINUOUS
 62
    7
 10
418.09071126562498
 20
279.93312526093746
 11
417.11678326562497
 21
280.10245226093753
  0
LINE
  8
_0-8_会社ロゴ項目
  6
CONTINUOUS
 62
    7
 10
417.11678326562497
 20
280.10245226093753
 11
416.12218326562498
 21
280.22957626093751
  0
LINE
  8
_0-8_会社ロゴ項目
  6
CONTINUOUS
 62
    7
 10
416.12218326562498
 20
280.22957626093751
 11
415.12724026562501
 21
280.31415326093747
  0
LINE
  8
_0-8_会社ロゴ項目
  6
CONTINUOUS
 62
    7
 10
415.12724026562501
 20
280.31415326093747
 11
414.13229626562497
 21
280.39890226093746
  0
LINE
  8
_0-8_会社ロゴ項目
  6
CONTINUOUS
 62
    7
 10
414.13229626562497
 20
280.39890226093746
 11
413.13752526562496
 21
280.44127726093745
  0
LINE
  8
_0-8_会社ロゴ項目
  6
CONTINUOUS
 62
    7
 10
413.13752526562496
 20
280.44127726093745
 11
412.12139426562499
 21
280.44127726093745
  0
LINE
  8
_0-8_会社ロゴ項目
  6
CONTINUOUS
 62
    7
 10
412.12139426562499
 20
280.44127726093745
 11
411.12662326562497
 21
280.39890226093746
  0
LINE
  8
_0-8_会社ロゴ項目
  6
CONTINUOUS
 62
    7
 10
411.12662326562497
 20
280.39890226093746
 11
410.13185126562496
 21
280.31415326093747
  0
LINE
  8
_0-8_会社ロゴ項目
  6
CONTINUOUS
 62
    7
 10
410.13185126562496
 20
280.31415326093747
 11
409.13690826562498
 21
280.22957626093751
  0
LINE
  8
_0-8_会社ロゴ項目
  6
CONTINUOUS
 62
    7
 10
409.13690826562498
 20
280.22957626093751
 11
408.14213726562497
 21
280.10245226093753
  0
LINE
  8
_0-8_会社ロゴ項目
  6
CONTINUOUS
 62
    7
 10
408.14213726562497
 20
280.10245226093753
 11
407.16838026562499
 21
279.93312526093746
  0
LINE
  8
_0-8_会社ロゴ項目
  6
CONTINUOUS
 62
    7
 10
407.16838026562499
 20
279.93312526093746
 11
406.19479626562497
 21
279.72159626093753
  0
LINE
  8
_0-8_会社ロゴ項目
  6
CONTINUOUS
 62
    7
 10
406.19479626562497
 20
279.72159626093753
 11
405.22121226562496
 21
279.46752126093747
  0
LINE
  8
_0-8_会社ロゴ項目
  6
CONTINUOUS
 62
    7
 10
405.22121226562496
 20
279.46752126093747
 11
404.26864326562497
 21
279.1924302609375
  0
LINE
  8
_0-8_会社ロゴ項目
  6
CONTINUOUS
 62
    7
 10
404.26864326562497
 20
279.1924302609375
 11
403.31607526562499
 21
278.87479226093751
  0
LINE
  8
_0-8_会社ロゴ項目
  6
CONTINUOUS
 62
    7
 10
403.31607526562499
 20
278.87479226093751
 11
402.36367826562497
 21
278.53613926093749
  0
LINE
  8
_0-8_会社ロゴ項目
  6
CONTINUOUS
 62
    7
 10
402.36367826562497
 20
278.53613926093749
 11
401.43229626562498
 21
278.15511126093747
  0
LINE
  8
_0-8_会社ロゴ項目
  6
CONTINUOUS
 62
    7
 10
401.43229626562498
 20
278.15511126093747
 11
400.52210226562499
 21
277.75306926093748
  0
LINE
  8
_0-8_会社ロゴ項目
  6
CONTINUOUS
 62
    7
 10
400.52210226562499
 20
277.75306926093748
 11
399.633095265625
 21
277.30847926093747
  0
LINE
  8
_0-8_会社ロゴ項目
  6
CONTINUOUS
 62
    7
 10
399.633095265625
 20
277.30847926093747
 11
398.74408826562501
 21
276.82168726093749
  0
LINE
  8
_0-8_会社ロゴ項目
  6
CONTINUOUS
 62
    7
 10
398.74408826562501
 20
276.82168726093749
 11
397.89745626562501
 21
276.33489526093751
  0
LINE
  8
_0-8_会社ロゴ項目
  6
CONTINUOUS
 62
    7
 10
397.89745626562501
 20
276.33489526093751
 11
397.05082426562501
 21
275.78454126093749
  0
LINE
  8
_0-8_会社ロゴ項目
  6
CONTINUOUS
 62
    7
 10
397.05082426562501
 20
275.78454126093749
 11
396.22537926562495
 21
275.23418726093746
  0
LINE
  8
_0-8_会社ロゴ項目
  6
CONTINUOUS
 62
    7
 10
396.22537926562495
 20
275.23418726093746
 11
395.42094926562498
 21
274.64145926093749
  0
LINE
  8
_0-8_会社ロゴ項目
  6
CONTINUOUS
 62
    7
 10
395.42094926562498
 20
274.64145926093749
 11
394.63787926562497
 21
274.0065272609375
  0
LINE
  8
_0-8_会社ロゴ項目
  6
CONTINUOUS
 62
    7
 10
394.63787926562497
 20
274.0065272609375
 11
393.87582426562494
 21
273.37159626093745
  0
LINE
  8
_0-8_会社ロゴ項目
  6
CONTINUOUS
 62
    7
 10
393.87582426562494
 20
273.37159626093745
 11
393.13495626562496
 21
272.6941182609375
  0
LINE
  8
_0-8_会社ロゴ項目
  6
CONTINUOUS
 62
    7
 10
393.13495626562496
 20
272.6941182609375
 11
392.41527626562498
 21
271.97461026093748
  0
LINE
  8
_0-8_会社ロゴ項目
  6
CONTINUOUS
 62
    7
 10
392.41527626562498
 20
271.97461026093748
 11
391.73797026562499
 21
271.2549302609375
  0
LINE
  8
_0-8_会社ロゴ項目
  6
CONTINUOUS
 62
    7
 10
391.73797026562499
 20
271.2549302609375
 11
391.06066426562495
 21
270.51406226093746
  0
LINE
  8
_0-8_会社ロゴ項目
  6
CONTINUOUS
 62
    7
 10
391.06066426562495
 20
270.51406226093746
 11
390.44674826562499
 21
269.73081926093749
  0
LINE
  8
_0-8_会社ロゴ項目
  6
CONTINUOUS
 62
    7
 10
390.44674826562499
 20
269.73081926093749
 11
389.83300426562499
 21
268.94774926093748
  0
LINE
  8
_0-8_会社ロゴ項目
  6
CONTINUOUS
 62
    7
 10
389.83300426562499
 20
268.94774926093748
 11
389.24027626562497
 21
268.12213226093746
  0
LINE
  8
_0-8_会社ロゴ項目
  6
CONTINUOUS
 62
    7
 10
389.24027626562497
 20
268.12213226093746
 11
388.689922265625
 21
267.29668726093746
  0
LINE
  8
_0-8_会社ロゴ項目
  6
CONTINUOUS
 62
    7
 10
388.689922265625
 20
267.29668726093746
 11
388.18194226562497
 21
266.42886826093746
  0
LINE
  8
_0-8_会社ロゴ項目
  6
CONTINUOUS
 62
    7
 10
388.18194226562497
 20
266.42886826093746
 11
387.69515026562499
 21
265.56104826093747
  0
LINE
  8
_0-8_会社ロゴ項目
  6
CONTINUOUS
 62
    7
 10
387.69515026562499
 20
265.56104826093747
 11
387.229546265625
 21
264.67204126093748
  0
LINE
  8
_0-8_会社ロゴ項目
  6
CONTINUOUS
 62
    7
 10
387.229546265625
 20
264.67204126093748
 11
386.806143265625
 21
263.78303426093748
  0
LINE
  8
_0-8_会社ロゴ項目
  6
CONTINUOUS
 62
    7
 10
386.806143265625
 20
263.78303426093748
 11
386.40392926562498
 21
262.8516532609375
  0
LINE
  8
_0-8_会社ロゴ項目
  6
CONTINUOUS
 62
    7
 10
386.40392926562498
 20
262.8516532609375
 11
386.04408826562496
 21
261.92044326093747
  0
LINE
  8
_0-8_会社ロゴ項目
  6
CONTINUOUS
 62
    7
 10
386.04408826562496
 20
261.92044326093747
 11
385.72662326562499
 21
260.96787526093749
  0
LINE
  8
_0-8_会社ロゴ項目
  6
CONTINUOUS
 62
    7
 10
385.72662326562499
 20
260.96787526093749
 11
385.40915726562497
 21
260.01530626093745
  0
LINE
  8
_0-8_会社ロゴ項目
  6
CONTINUOUS
 62
    7
 10
385.40915726562497
 20
260.01530626093745
 11
385.15508126562497
 21
259.06290926093749
  0
LINE
  8
_0-8_会社ロゴ項目
  6
CONTINUOUS
 62
    7
 10
385.15508126562497
 20
259.06290926093749
 11
384.92236526562499
 21
258.08915326093745
  0
LINE
  8
_0-8_会社ロゴ項目
  6
CONTINUOUS
 62
    7
 10
384.92236526562499
 20
258.08915326093745
 11
384.73185126562498
 21
257.11556926093749
  0
LINE
  8
_0-8_会社ロゴ項目
  6
CONTINUOUS
 62
    7
 10
384.73185126562498
 20
257.11556926093749
 11
384.58371226562497
 21
256.12062526093746
  0
LINE
  8
_0-8_会社ロゴ項目
  6
CONTINUOUS
 62
    7
 10
384.58371226562497
 20
256.12062526093746
 11
384.45658826562499
 21
255.1258542609375
  0
LINE
  8
_0-8_会社ロゴ項目
  6
CONTINUOUS
 62
    7
 10
384.45658826562499
 20
255.1258542609375
 11
384.37201126562496
 21
254.13108326093749
  0
LINE
  8
_0-8_会社ロゴ項目
  6
CONTINUOUS
 62
    7
 10
384.37201126562496
 20
254.13108326093749
 11
384.32963726562497
 21
253.13613926093748
  0
LINE
  8
_0-8_会社ロゴ項目
  6
CONTINUOUS
 62
    7
 10
384.32963726562497
 20
253.13613926093748
 11
384.30844926562497
 21
252.1413682609375
  0
LINE
  8
_0-8_会社ロゴ項目
  6
CONTINUOUS
 62
    7
 10
384.30844926562497
 20
252.1413682609375
 11
384.32963726562497
 21
251.12540926093749
  0
LINE
  8
_0-8_会社ロゴ項目
  6
CONTINUOUS
 62
    7
 10
384.32963726562497
 20
251.12540926093749
 11
384.37201126562496
 21
250.13046526093748
  0
LINE
  8
_0-8_会社ロゴ項目
  6
CONTINUOUS
 62
    7
 10
384.37201126562496
 20
250.13046526093748
 11
384.45658826562499
 21
249.1356942609375
  0
LINE
  8
_0-8_会社ロゴ項目
  6
CONTINUOUS
 62
    7
 10
384.45658826562499
 20
249.1356942609375
 11
384.58371226562497
 21
248.14092326093748
  0
LINE
  8
_0-8_会社ロゴ項目
  6
CONTINUOUS
 62
    7
 10
384.58371226562497
 20
248.14092326093748
 11
384.73185126562498
 21
247.14597926093748
  0
LINE
  8
_0-8_会社ロゴ項目
  6
CONTINUOUS
 62
    7
 10
384.73185126562498
 20
247.14597926093748
 11
384.92236526562499
 21
246.17239526093749
  0
LINE
  8
_0-8_会社ロゴ項目
  6
CONTINUOUS
 62
    7
 10
384.92236526562499
 20
246.17239526093749
 11
385.15508126562497
 21
245.19863926093748
  0
LINE
  8
_0-8_会社ロゴ項目
  6
CONTINUOUS
 62
    7
 10
385.15508126562497
 20
245.19863926093748
 11
385.40915726562497
 21
244.24624226093749
  0
LINE
  8
_0-8_会社ロゴ項目
  6
CONTINUOUS
 62
    7
 10
385.40915726562497
 20
244.24624226093749
 11
385.72662326562499
 21
243.29367326093748
  0
LINE
  8
_0-8_会社ロゴ項目
  6
CONTINUOUS
 62
    7
 10
385.72662326562499
 20
243.29367326093748
 11
386.04408826562496
 21
242.34127726093749
  0
LINE
  8
_0-8_会社ロゴ項目
  6
CONTINUOUS
 62
    7
 10
386.04408826562496
 20
242.34127726093749
 11
386.40392926562498
 21
241.4098952609375
  0
LINE
  8
_0-8_会社ロゴ項目
  6
CONTINUOUS
 62
    7
 10
386.40392926562498
 20
241.4098952609375
 11
386.806143265625
 21
240.47851426093749
  0
LINE
  8
_0-8_会社ロゴ項目
  6
CONTINUOUS
 62
    7
 10
386.806143265625
 20
240.47851426093749
 11
387.229546265625
 21
239.58950726093749
  0
LINE
  8
_0-8_会社ロゴ項目
  6
CONTINUOUS
 62
    7
 10
387.229546265625
 20
239.58950726093749
 11
387.69515026562499
 21
238.7005002609375
  0
LINE
  8
_0-8_会社ロゴ項目
  6
CONTINUOUS
 62
    7
 10
387.69515026562499
 20
238.7005002609375
 11
388.18194226562497
 21
237.83268026093748
  0
LINE
  8
_0-8_会社ロゴ項目
  6
CONTINUOUS
 62
    7
 10
388.18194226562497
 20
237.83268026093748
 11
388.689922265625
 21
236.96486126093748
  0
LINE
  8
_0-8_会社ロゴ項目
  6
CONTINUOUS
 62
    7
 10
388.689922265625
 20
236.96486126093748
 11
389.24027626562497
 21
236.13941626093748
  0
LINE
  8
_0-8_会社ロゴ項目
  6
CONTINUOUS
 62
    7
 10
389.24027626562497
 20
236.13941626093748
 11
389.83300426562499
 21
235.31379926093749
  0
LINE
  8
_0-8_会社ロゴ項目
  6
CONTINUOUS
 62
    7
 10
389.83300426562499
 20
235.31379926093749
 11
390.44674826562499
 21
234.53072926093748
  0
LINE
  8
_0-8_会社ロゴ項目
  6
CONTINUOUS
 62
    7
 10
390.44674826562499
 20
234.53072926093748
 11
391.06066426562495
 21
233.74748626093748
  0
LINE
  8
_0-8_会社ロゴ項目
  6
CONTINUOUS
 62
    7
 10
391.06066426562495
 20
233.74748626093748
 11
391.73797026562499
 21
233.0066182609375
  0
LINE
  8
_0-8_会社ロゴ項目
  6
CONTINUOUS
 62
    7
 10
391.73797026562499
 20
233.0066182609375
 11
392.41527626562498
 21
232.28711026093748
  0
LINE
  8
_0-8_会社ロゴ項目
  6
CONTINUOUS
 62
    7
 10
392.41527626562498
 20
232.28711026093748
 11
393.13495626562496
 21
231.5674302609375
  0
LINE
  8
_0-8_会社ロゴ項目
  6
CONTINUOUS
 62
    7
 10
393.13495626562496
 20
231.5674302609375
 11
393.87582426562494
 21
230.91113926093749
  0
LINE
  8
_0-8_会社ロゴ項目
  6
CONTINUOUS
 62
    7
 10
393.87582426562494
 20
230.91113926093749
 11
394.63787926562497
 21
230.2550212609375
  0
LINE
  8
_0-8_会社ロゴ項目
  6
CONTINUOUS
 62
    7
 10
394.63787926562497
 20
230.2550212609375
 11
395.42094926562498
 21
229.6412772609375
  0
LINE
  8
_0-8_会社ロゴ項目
  6
CONTINUOUS
 62
    7
 10
395.42094926562498
 20
229.6412772609375
 11
396.22537926562495
 21
229.02736126093748
  0
LINE
  8
_0-8_会社ロゴ項目
  6
CONTINUOUS
 62
    7
 10
396.22537926562495
 20
229.02736126093748
 11
397.05082426562501
 21
228.47700726093748
  0
LINE
  8
_0-8_会社ロゴ項目
  6
CONTINUOUS
 62
    7
 10
397.05082426562501
 20
228.47700726093748
 11
397.89745626562501
 21
227.92665326093748
  0
LINE
  8
_0-8_会社ロゴ項目
  6
CONTINUOUS
 62
    7
 10
397.89745626562501
 20
227.92665326093748
 11
398.74408826562501
 21
227.43986126093748
  0
LINE
  8
_0-8_会社ロゴ項目
  6
CONTINUOUS
 62
    7
 10
398.74408826562501
 20
227.43986126093748
 11
399.633095265625
 21
226.9530692609375
  0
LINE
  8
_0-8_会社ロゴ項目
  6
CONTINUOUS
 62
    7
 10
399.633095265625
 20
226.9530692609375
 11
400.52210226562499
 21
226.50847926093749
  0
LINE
  8
_0-8_会社ロゴ項目
  6
CONTINUOUS
 62
    7
 10
400.52210226562499
 20
226.50847926093749
 11
401.43229626562498
 21
226.10626426093748
  0
LINE
  8
_0-8_会社ロゴ項目
  6
CONTINUOUS
 62
    7
 10
401.43229626562498
 20
226.10626426093748
 11
402.36367826562497
 21
225.72540926093748
  0
LINE
  8
_0-8_会社ロゴ項目
  6
CONTINUOUS
 62
    7
 10
402.36367826562497
 20
225.72540926093748
 11
403.31607526562499
 21
225.38675626093749
  0
LINE
  8
_0-8_会社ロゴ項目
  6
CONTINUOUS
 62
    7
 10
403.31607526562499
 20
225.38675626093749
 11
404.26864326562497
 21
225.0691182609375
  0
LINE
  8
_0-8_会社ロゴ項目
  6
CONTINUOUS
 62
    7
 10
404.26864326562497
 20
225.0691182609375
 11
405.22121226562496
 21
224.7940272609375
  0
LINE
  8
_0-8_会社ロゴ項目
  6
CONTINUOUS
 62
    7
 10
405.22121226562496
 20
224.7940272609375
 11
406.19479626562497
 21
224.5399522609375
  0
LINE
  8
_0-8_会社ロゴ項目
  6
CONTINUOUS
 62
    7
 10
406.19479626562497
 20
224.5399522609375
 11
407.16838026562499
 21
224.32842326093748
  0
LINE
  8
_0-8_会社ロゴ項目
  6
CONTINUOUS
 62
    7
 10
407.16838026562499
 20
224.32842326093748
 11
408.14213726562497
 21
224.1590962609375
  0
LINE
  8
_0-8_会社ロゴ項目
  6
CONTINUOUS
 62
    7
 10
408.14213726562497
 20
224.1590962609375
 11
409.13690826562498
 21
224.0107852609375
  0
LINE
  8
_0-8_会社ロゴ項目
  6
CONTINUOUS
 62
    7
 10
409.13690826562498
 20
224.0107852609375
 11
410.13185126562496
 21
223.9262082609375
  0
LINE
  8
_0-8_会社ロゴ項目
  6
CONTINUOUS
 62
    7
 10
410.13185126562496
 20
223.9262082609375
 11
411.12662326562497
 21
223.84145926093748
  0
LINE
  8
_0-8_会社ロゴ項目
  6
CONTINUOUS
 62
    7
 10
411.12662326562497
 20
223.84145926093748
 11
412.12139426562499
 21
223.79925626093748
  0
LINE
  8
_0-8_会社ロゴ項目
  6
CONTINUOUS
 62
    7
 10
412.12139426562499
 20
223.79925626093748
 11
413.13752526562496
 21
223.79925626093748
  0
LINE
  8
_0-8_会社ロゴ項目
  6
CONTINUOUS
 62
    7
 10
413.13752526562496
 20
223.79925626093748
 11
414.13229626562497
 21
223.84145926093748
  0
LINE
  8
_0-8_会社ロゴ項目
  6
CONTINUOUS
 62
    7
 10
414.13229626562497
 20
223.84145926093748
 11
415.12724026562501
 21
223.9262082609375
  0
LINE
  8
_0-8_会社ロゴ項目
  6
CONTINUOUS
 62
    7
 10
415.12724026562501
 20
223.9262082609375
 11
416.12218326562498
 21
224.0107852609375
  0
LINE
  8
_0-8_会社ロゴ項目
  6
CONTINUOUS
 62
    7
 10
416.12218326562498
 20
224.0107852609375
 11
417.11678326562497
 21
224.1590962609375
  0
LINE
  8
_0-8_会社ロゴ項目
  6
CONTINUOUS
 62
    7
 10
417.11678326562497
 20
224.1590962609375
 11
418.09071126562498
 21
224.32842326093748
  0
LINE
  8
_0-8_会社ロゴ項目
  6
CONTINUOUS
 62
    7
 10
418.09071126562498
 20
224.32842326093748
 11
419.06429526562499
 21
224.5399522609375
  0
LINE
  8
_0-8_会社ロゴ項目
  6
CONTINUOUS
 62
    7
 10
419.06429526562499
 20
224.5399522609375
 11
420.03787926562495
 21
224.7940272609375
  0
LINE
  8
_0-8_会社ロゴ項目
  6
CONTINUOUS
 62
    7
 10
420.03787926562495
 20
224.7940272609375
 11
420.99044826562499
 21
225.0691182609375
  0
LINE
  8
_0-8_会社ロゴ項目
  6
CONTINUOUS
 62
    7
 10
420.99044826562499
 20
225.0691182609375
 11
421.94267226562499
 21
225.38675626093749
  0
LINE
  8
_0-8_会社ロゴ項目
  6
CONTINUOUS
 62
    7
 10
421.94267226562499
 20
225.38675626093749
 11
422.89524126562497
 21
225.72540926093748
  0
LINE
  8
_0-8_会社ロゴ項目
  6
CONTINUOUS
 62
    7
 10
422.89524126562497
 20
225.72540926093748
 11
423.80543526562496
 21
226.10626426093748
  0
LINE
  8
_0-8_会社ロゴ項目
  6
CONTINUOUS
 62
    7
 10
423.80543526562496
 20
226.10626426093748
 11
424.73664526562499
 21
226.50847926093749
  0
LINE
  8
_0-8_会社ロゴ項目
  6
CONTINUOUS
 62
    7
 10
424.73664526562499
 20
226.50847926093749
 11
425.62582426562494
 21
226.9530692609375
  0
LINE
  8
_0-8_会社ロゴ項目
  6
CONTINUOUS
 62
    7
 10
425.62582426562494
 20
226.9530692609375
 11
426.493643265625
 21
227.43986126093748
  0
LINE
  8
_0-8_会社ロゴ項目
  6
CONTINUOUS
 62
    7
 10
426.493643265625
 20
227.43986126093748
 11
427.36146326562493
 21
227.92665326093748
  0
LINE
  8
_0-8_会社ロゴ項目
  6
CONTINUOUS
 62
    7
 10
427.36146326562493
 20
227.92665326093748
 11
428.20826726562495
 21
228.47700726093748
  0
LINE
  8
_0-8_会社ロゴ項目
  6
CONTINUOUS
 62
    7
 10
428.20826726562495
 20
228.47700726093748
 11
429.03371226562496
 21
229.02736126093748
  0
LINE
  8
_0-8_会社ロゴ項目
  6
CONTINUOUS
 62
    7
 10
429.03371226562496
 20
229.02736126093748
 11
429.837798265625
 21
229.6412772609375
  0
LINE
  8
_0-8_会社ロゴ項目
  6
CONTINUOUS
 62
    7
 10
429.837798265625
 20
229.6412772609375
 11
430.62121226562499
 21
230.2550212609375
  0
LINE
  8
_0-8_会社ロゴ項目
  6
CONTINUOUS
 62
    7
 10
430.62121226562499
 20
230.2550212609375
 11
431.38326726562497
 21
230.91113926093749
  0
LINE
  8
_0-8_会社ロゴ項目
  6
CONTINUOUS
 62
    7
 10
431.38326726562497
 20
230.91113926093749
 11
432.12396326562498
 21
231.5674302609375
  0
LINE
  8
_0-8_会社ロゴ項目
  6
CONTINUOUS
 62
    7
 10
432.12396326562498
 20
231.5674302609375
 11
432.84364326562496
 21
232.28711026093748
  0
LINE
  8
_0-8_会社ロゴ項目
  6
CONTINUOUS
 62
    7
 10
432.84364326562496
 20
232.28711026093748
 11
433.52094926562495
 21
233.0066182609375
  0
LINE
  8
_0-8_会社ロゴ項目
  6
CONTINUOUS
 62
    7
 10
433.52094926562495
 20
233.0066182609375
 11
434.19825526562499
 21
233.74748626093748
  0
LINE
  8
_0-8_会社ロゴ項目
  6
CONTINUOUS
 62
    7
 10
434.19825526562499
 20
233.74748626093748
 11
434.81217126562501
 21
234.53072926093748
  0
LINE
  8
_0-8_会社ロゴ項目
  6
CONTINUOUS
 62
    7
 10
434.81217126562501
 20
234.53072926093748
 11
435.42608726562497
 21
235.31379926093749
  0
LINE
  8
_0-8_会社ロゴ項目
  6
CONTINUOUS
 62
    7
 10
435.42608726562497
 20
235.31379926093749
 11
436.01864326562497
 21
236.13941626093748
  0
LINE
  8
_0-8_会社ロゴ項目
  6
CONTINUOUS
 62
    7
 10
436.01864326562497
 20
236.13941626093748
 11
436.56882526562498
 21
236.96486126093748
  0
LINE
  8
_0-8_会社ロゴ項目
  6
CONTINUOUS
 62
    7
 10
436.56882526562498
 20
236.96486126093748
 11
437.07697726562498
 21
237.83268026093748
  0
LINE
  8
_0-8_会社ロゴ項目
  6
CONTINUOUS
 62
    7
 10
437.07697726562498
 20
237.83268026093748
 11
437.56376926562496
 21
238.7005002609375
  0
LINE
  8
_0-8_会社ロゴ項目
  6
CONTINUOUS
 62
    7
 10
437.56376926562496
 20
238.7005002609375
 11
438.02954626562496
 21
239.58950726093749
  0
LINE
  8
_0-8_会社ロゴ項目
  6
CONTINUOUS
 62
    7
 10
438.02954626562496
 20
239.58950726093749
 11
438.45294826562497
 21
240.47851426093749
  0
LINE
  8
_0-8_会社ロゴ項目
  6
CONTINUOUS
 62
    7
 10
438.45294826562497
 20
240.47851426093749
 11
438.85499126562496
 21
241.4098952609375
  0
LINE
  8
_0-8_会社ロゴ項目
  6
CONTINUOUS
 62
    7
 10
438.85499126562496
 20
241.4098952609375
 11
439.21465926562496
 21
242.34127726093749
  0
LINE
  8
_0-8_会社ロゴ項目
  6
CONTINUOUS
 62
    7
 10
439.21465926562496
 20
242.34127726093749
 11
439.53229626562495
 21
243.29367326093748
  0
LINE
  8
_0-8_会社ロゴ項目
  6
CONTINUOUS
 62
    7
 10
439.53229626562495
 20
243.29367326093748
 11
439.82857526562498
 21
244.24624226093749
  0
LINE
  8
_0-8_会社ロゴ項目
  6
CONTINUOUS
 62
    7
 10
439.82857526562498
 20
244.24624226093749
 11
440.10383826562497
 21
245.19863926093748
  0
LINE
  8
_0-8_会社ロゴ項目
  6
CONTINUOUS
 62
    7
 10
440.10383826562497
 20
245.19863926093748
 11
440.31536726562496
 21
246.17239526093749
  0
LINE
  8
_0-8_会社ロゴ項目
  6
CONTINUOUS
 62
    7
 10
440.31536726562496
 20
246.17239526093749
 11
440.52724026562498
 21
247.14597926093748
  0
LINE
  8
_0-8_会社ロゴ項目
  6
CONTINUOUS
 62
    7
 10
440.52724026562498
 20
247.14597926093748
 11
440.675379265625
 21
248.14092326093748
  0
LINE
  8
_0-8_会社ロゴ項目
  6
CONTINUOUS
 62
    7
 10
440.675379265625
 20
248.14092326093748
 11
440.80215926562499
 21
249.1356942609375
  0
LINE
  8
_0-8_会社ロゴ項目
  6
CONTINUOUS
 62
    7
 10
440.80215926562499
 20
249.1356942609375
 11
440.88690826562498
 21
250.13046526093748
  0
LINE
  8
_0-8_会社ロゴ項目
  6
CONTINUOUS
 62
    7
 10
440.88690826562498
 20
250.13046526093748
 11
440.95029826562495
 21
251.12540926093749
  0
LINE
  8
_0-8_会社ロゴ項目
  6
CONTINUOUS
 62
    7
 10
440.95029826562495
 20
251.12540926093749
 11
440.97165726562497
 21
252.1413682609375
  0
LINE
  8
_0-8_会社ロゴ項目
  6
CONTINUOUS
 62
    7
 10
434.57928326562501
 20
252.1413682609375
 11
434.55826726562498
 21
253.13613926093748
  0
LINE
  8
_0-8_会社ロゴ項目
  6
CONTINUOUS
 62
    7
 10
434.55826726562498
 20
253.13613926093748
 11
434.49453326562497
 21
254.13108326093749
  0
LINE
  8
_0-8_会社ロゴ項目
  6
CONTINUOUS
 62
    7
 10
434.49453326562497
 20
254.13108326093749
 11
434.36775426562497
 21
255.1258542609375
  0
LINE
  8
_0-8_会社ロゴ項目
  6
CONTINUOUS
 62
    7
 10
434.36775426562497
 20
255.1258542609375
 11
434.21961526562495
 21
256.09961026093748
  0
LINE
  8
_0-8_会社ロゴ項目
  6
CONTINUOUS
 62
    7
 10
434.21961526562495
 20
256.09961026093748
 11
434.00774126562499
 21
257.0943812609375
  0
LINE
  8
_0-8_会社ロゴ項目
  6
CONTINUOUS
 62
    7
 10
434.00774126562499
 20
257.0943812609375
 11
433.75383826562495
 21
258.04677826093746
  0
LINE
  8
_0-8_会社ロゴ項目
  6
CONTINUOUS
 62
    7
 10
433.75383826562495
 20
258.04677826093746
 11
433.47857526562495
 21
258.9993472609375
  0
LINE
  8
_0-8_会社ロゴ項目
  6
CONTINUOUS
 62
    7
 10
433.47857526562495
 20
258.9993472609375
 11
433.13992226562499
 21
259.95191626093748
  0
LINE
  8
_0-8_会社ロゴ項目
  6
CONTINUOUS
 62
    7
 10
433.13992226562499
 20
259.95191626093748
 11
432.75889426562497
 21
260.88312526093745
  0
LINE
  8
_0-8_会社ロゴ項目
  6
CONTINUOUS
 62
    7
 10
432.75889426562497
 20
260.88312526093745
 11
432.33549226562496
 21
261.79331926093749
  0
LINE
  8
_0-8_会社ロゴ項目
  6
CONTINUOUS
 62
    7
 10
432.33549226562496
 20
261.79331926093749
 11
431.89107526562498
 21
262.68232626093749
  0
LINE
  8
_0-8_会社ロゴ項目
  6
CONTINUOUS
 62
    7
 10
431.89107526562498
 20
262.68232626093749
 11
431.38326726562497
 21
263.52895926093748
  0
LINE
  8
_0-8_会社ロゴ項目
  6
CONTINUOUS
 62
    7
 10
431.38326726562497
 20
263.52895926093748
 11
430.83274126562497
 21
264.3757632609375
  0
LINE
  8
_0-8_会社ロゴ項目
  6
CONTINUOUS
 62
    7
 10
430.83274126562497
 20
264.3757632609375
 11
430.26120026562501
 21
265.20120826093745
  0
LINE
  8
_0-8_会社ロゴ項目
  6
CONTINUOUS
 62
    7
 10
430.26120026562501
 20
265.20120826093745
 11
429.66864326562495
 21
265.98427826093746
  0
LINE
  8
_0-8_会社ロゴ項目
  6
CONTINUOUS
 62
    7
 10
429.66864326562495
 20
265.98427826093746
 11
429.01235326562494
 21
266.74633326093749
  0
LINE
  8
_0-8_会社ロゴ項目
  6
CONTINUOUS
 62
    7
 10
429.01235326562494
 20
266.74633326093749
 11
428.33504726562501
 21
267.46601426093747
  0
LINE
  8
_0-8_会社ロゴ項目
  6
CONTINUOUS
 62
    7
 10
428.33504726562501
 20
267.46601426093747
 11
427.61536726562497
 21
268.18569426093745
  0
LINE
  8
_0-8_会社ロゴ項目
  6
CONTINUOUS
 62
    7
 10
427.61536726562497
 20
268.18569426093745
 11
426.87467126562501
 21
268.8418132609375
  0
LINE
  8
_0-8_会社ロゴ項目
  6
CONTINUOUS
 62
    7
 10
426.87467126562501
 20
268.8418132609375
 11
426.09160126562494
 21
269.45572926093746
  0
LINE
  8
_0-8_会社ロゴ項目
  6
CONTINUOUS
 62
    7
 10
426.09160126562494
 20
269.45572926093746
 11
425.28717126562498
 21
270.06947226093746
  0
LINE
  8
_0-8_会社ロゴ項目
  6
CONTINUOUS
 62
    7
 10
425.28717126562498
 20
270.06947226093746
 11
424.46172626562497
 21
270.61982626093749
  0
LINE
  8
_0-8_会社ロゴ項目
  6
CONTINUOUS
 62
    7
 10
424.46172626562497
 20
270.61982626093749
 11
423.59390726562498
 21
271.14899326093746
  0
LINE
  8
_0-8_会社ロゴ項目
  6
CONTINUOUS
 62
    7
 10
423.59390726562498
 20
271.14899326093746
 11
422.72608726562498
 21
271.6145982609375
  0
LINE
  8
_0-8_会社ロゴ項目
  6
CONTINUOUS
 62
    7
 10
422.72608726562498
 20
271.6145982609375
 11
421.83690826562497
 21
272.05918726093745
  0
LINE
  8
_0-8_会社ロゴ項目
  6
CONTINUOUS
 62
    7
 10
421.83690826562497
 20
272.05918726093745
 11
420.905699265625
 21
272.46140226093746
  0
LINE
  8
_0-8_会社ロゴ項目
  6
CONTINUOUS
 62
    7
 10
420.905699265625
 20
272.46140226093746
 11
419.974145265625
 21
272.82124226093748
  0
LINE
  8
_0-8_会社ロゴ項目
  6
CONTINUOUS
 62
    7
 10
419.974145265625
 20
272.82124226093748
 11
419.021920265625
 21
273.11752126093745
  0
LINE
  8
_0-8_会社ロゴ項目
  6
CONTINUOUS
 62
    7
 10
419.021920265625
 20
273.11752126093745
 11
418.06935126562496
 21
273.39261126093749
  0
LINE
  8
_0-8_会社ロゴ項目
  6
CONTINUOUS
 62
    7
 10
418.06935126562496
 20
273.39261126093749
 11
417.095767265625
 21
273.62550026093749
  0
LINE
  8
_0-8_会社ロゴ項目
  6
CONTINUOUS
 62
    7
 10
417.095767265625
 20
273.62550026093749
 11
416.10082426562496
 21
273.7948262609375
  0
LINE
  8
_0-8_会社ロゴ項目
  6
CONTINUOUS
 62
    7
 10
416.10082426562496
 20
273.7948262609375
 11
415.12724026562501
 21
273.94296526093746
  0
LINE
  8
_0-8_会社ロゴ項目
  6
CONTINUOUS
 62
    7
 10
415.12724026562501
 20
273.94296526093746
 11
414.13229626562497
 21
274.0277152609375
  0
LINE
  8
_0-8_会社ロゴ項目
  6
CONTINUOUS
 62
    7
 10
414.13229626562497
 20
274.0277152609375
 11
413.13752526562496
 21
274.07008926093749
  0
LINE
  8
_0-8_会社ロゴ項目
  6
CONTINUOUS
 62
    7
 10
413.13752526562496
 20
274.07008926093749
 11
412.12139426562499
 21
274.07008926093749
  0
LINE
  8
_0-8_会社ロゴ項目
  6
CONTINUOUS
 62
    7
 10
412.12139426562499
 20
274.07008926093749
 11
411.12662326562497
 21
274.0277152609375
  0
LINE
  8
_0-8_会社ロゴ項目
  6
CONTINUOUS
 62
    7
 10
411.12662326562497
 20
274.0277152609375
 11
410.13185126562496
 21
273.94296526093746
  0
LINE
  8
_0-8_会社ロゴ項目
  6
CONTINUOUS
 62
    7
 10
410.13185126562496
 20
273.94296526093746
 11
409.15809526562498
 21
273.7948262609375
  0
LINE
  8
_0-8_会社ロゴ項目
  6
CONTINUOUS
 62
    7
 10
409.15809526562498
 20
273.7948262609375
 11
408.16332426562496
 21
273.62550026093749
  0
LINE
  8
_0-8_会社ロゴ項目
  6
CONTINUOUS
 62
    7
 10
408.16332426562496
 20
273.62550026093749
 11
407.18956826562498
 21
273.39261126093749
  0
LINE
  8
_0-8_会社ロゴ項目
  6
CONTINUOUS
 62
    7
 10
407.18956826562498
 20
273.39261126093749
 11
406.23717126562497
 21
273.11752126093745
  0
LINE
  8
_0-8_会社ロゴ項目
  6
CONTINUOUS
 62
    7
 10
406.23717126562497
 20
273.11752126093745
 11
405.28460226562498
 21
272.82124226093748
  0
LINE
  8
_0-8_会社ロゴ項目
  6
CONTINUOUS
 62
    7
 10
405.28460226562498
 20
272.82124226093748
 11
404.33220526562496
 21
272.46140226093746
  0
LINE
  8
_0-8_会社ロゴ項目
  6
CONTINUOUS
 62
    7
 10
404.33220526562496
 20
272.46140226093746
 11
403.42201126562497
 21
272.05918726093745
  0
LINE
  8
_0-8_会社ロゴ項目
  6
CONTINUOUS
 62
    7
 10
403.42201126562497
 20
272.05918726093745
 11
402.53300426562498
 21
271.6145982609375
  0
LINE
  8
_0-8_会社ロゴ項目
  6
CONTINUOUS
 62
    7
 10
402.53300426562498
 20
271.6145982609375
 11
401.64399726562499
 21
271.14899326093746
  0
LINE
  8
_0-8_会社ロゴ項目
  6
CONTINUOUS
 62
    7
 10
401.64399726562499
 20
271.14899326093746
 11
400.79736526562499
 21
270.61982626093749
  0
LINE
  8
_0-8_会社ロゴ項目
  6
CONTINUOUS
 62
    7
 10
400.79736526562499
 20
270.61982626093749
 11
399.97174826562497
 21
270.06947226093746
  0
LINE
  8
_0-8_会社ロゴ項目
  6
CONTINUOUS
 62
    7
 10
399.97174826562497
 20
270.06947226093746
 11
399.16749126562496
 21
269.45572926093746
  0
LINE
  8
_0-8_会社ロゴ項目
  6
CONTINUOUS
 62
    7
 10
399.16749126562496
 20
269.45572926093746
 11
398.38424826562499
 21
268.8418132609375
  0
LINE
  8
_0-8_会社ロゴ項目
  6
CONTINUOUS
 62
    7
 10
398.38424826562499
 20
268.8418132609375
 11
397.64338026562496
 21
268.18569426093745
  0
LINE
  8
_0-8_会社ロゴ項目
  6
CONTINUOUS
 62
    7
 10
397.64338026562496
 20
268.18569426093745
 11
396.92387226562499
 21
267.46601426093747
  0
LINE
  8
_0-8_会社ロゴ項目
  6
CONTINUOUS
 62
    7
 10
396.92387226562499
 20
267.46601426093747
 11
396.24639426562499
 21
266.74633326093749
  0
LINE
  8
_0-8_会社ロゴ項目
  6
CONTINUOUS
 62
    7
 10
396.24639426562499
 20
266.74633326093749
 11
395.59027626562499
 21
265.98427826093746
  0
LINE
  8
_0-8_会社ロゴ項目
  6
CONTINUOUS
 62
    7
 10
395.59027626562499
 20
265.98427826093746
 11
394.99754726562497
 21
265.20120826093745
  0
LINE
  8
_0-8_会社ロゴ項目
  6
CONTINUOUS
 62
    7
 10
394.99754726562497
 20
265.20120826093745
 11
394.40499126562497
 21
264.3757632609375
  0
LINE
  8
_0-8_会社ロゴ項目
  6
CONTINUOUS
 62
    7
 10
394.40499126562497
 20
264.3757632609375
 11
393.87582426562494
 21
263.52895926093748
  0
LINE
  8
_0-8_会社ロゴ項目
  6
CONTINUOUS
 62
    7
 10
393.87582426562494
 20
263.52895926093748
 11
393.36784526562496
 21
262.68232626093749
  0
LINE
  8
_0-8_会社ロゴ項目
  6
CONTINUOUS
 62
    7
 10
393.36784526562496
 20
262.68232626093749
 11
392.90206826562496
 21
261.79331926093749
  0
LINE
  8
_0-8_会社ロゴ項目
  6
CONTINUOUS
 62
    7
 10
392.90206826562496
 20
261.79331926093749
 11
392.50002526562497
 21
260.88312526093745
  0
LINE
  8
_0-8_会社ロゴ項目
  6
CONTINUOUS
 62
    7
 10
392.50002526562497
 20
260.88312526093745
 11
392.11899726562501
 21
259.95191626093748
  0
LINE
  8
_0-8_会社ロゴ項目
  6
CONTINUOUS
 62
    7
 10
392.11899726562501
 20
259.95191626093748
 11
391.78034526562499
 21
258.9993472609375
  0
LINE
  8
_0-8_会社ロゴ項目
  6
CONTINUOUS
 62
    7
 10
391.78034526562499
 20
258.9993472609375
 11
391.483894265625
 21
258.04677826093746
  0
LINE
  8
_0-8_会社ロゴ項目
  6
CONTINUOUS
 62
    7
 10
391.483894265625
 20
258.04677826093746
 11
391.22999126562496
 21
257.0943812609375
  0
LINE
  8
_0-8_会社ロゴ項目
  6
CONTINUOUS
 62
    7
 10
391.22999126562496
 20
257.0943812609375
 11
391.03947726562501
 21
256.09961026093748
  0
LINE
  8
_0-8_会社ロゴ項目
  6
CONTINUOUS
 62
    7
 10
391.03947726562501
 20
256.09961026093748
 11
390.87015026562494
 21
255.1258542609375
  0
LINE
  8
_0-8_会社ロゴ項目
  6
CONTINUOUS
 62
    7
 10
390.87015026562494
 20
255.1258542609375
 11
390.76421426562496
 21
254.13108326093749
  0
LINE
  8
_0-8_会社ロゴ項目
  6
CONTINUOUS
 62
    7
 10
390.76421426562496
 20
254.13108326093749
 11
390.70082426562499
 21
253.13613926093748
  0
LINE
  8
_0-8_会社ロゴ項目
  6
CONTINUOUS
 62
    7
 10
390.70082426562499
 20
253.13613926093748
 11
390.67963726562499
 21
252.1413682609375
  0
LINE
  8
_0-8_会社ロゴ項目
  6
CONTINUOUS
 62
    7
 10
390.67963726562499
 20
252.1413682609375
 11
390.70082426562499
 21
251.12540926093749
  0
LINE
  8
_0-8_会社ロゴ項目
  6
CONTINUOUS
 62
    7
 10
390.70082426562499
 20
251.12540926093749
 11
390.76421426562496
 21
250.13046526093748
  0
LINE
  8
_0-8_会社ロゴ項目
  6
CONTINUOUS
 62
    7
 10
390.76421426562496
 20
250.13046526093748
 11
390.87015026562494
 21
249.1356942609375
  0
LINE
  8
_0-8_会社ロゴ項目
  6
CONTINUOUS
 62
    7
 10
390.87015026562494
 20
249.1356942609375
 11
391.03947726562501
 21
248.16211026093748
  0
LINE
  8
_0-8_会社ロゴ項目
  6
CONTINUOUS
 62
    7
 10
391.03947726562501
 20
248.16211026093748
 11
391.22999126562496
 21
247.1671672609375
  0
LINE
  8
_0-8_会社ロゴ項目
  6
CONTINUOUS
 62
    7
 10
391.22999126562496
 20
247.1671672609375
 11
391.483894265625
 21
246.21459826093749
  0
LINE
  8
_0-8_会社ロゴ項目
  6
CONTINUOUS
 62
    7
 10
391.483894265625
 20
246.21459826093749
 11
391.78034526562499
 21
245.2622012609375
  0
LINE
  8
_0-8_会社ロゴ項目
  6
CONTINUOUS
 62
    7
 10
391.78034526562499
 20
245.2622012609375
 11
392.11899726562501
 21
244.30963226093749
  0
LINE
  8
_0-8_会社ロゴ項目
  6
CONTINUOUS
 62
    7
 10
392.11899726562501
 20
244.30963226093749
 11
392.50002526562497
 21
243.3784232609375
  0
LINE
  8
_0-8_会社ロゴ項目
  6
CONTINUOUS
 62
    7
 10
392.50002526562497
 20
243.3784232609375
 11
392.90206826562496
 21
242.46822926093748
  0
LINE
  8
_0-8_会社ロゴ項目
  6
CONTINUOUS
 62
    7
 10
392.90206826562496
 20
242.46822926093748
 11
393.36784526562496
 21
241.60040926093748
  0
LINE
  8
_0-8_会社ロゴ項目
  6
CONTINUOUS
 62
    7
 10
393.36784526562496
 20
241.60040926093748
 11
393.87582426562494
 21
240.73258926093749
  0
LINE
  8
_0-8_会社ロゴ項目
  6
CONTINUOUS
 62
    7
 10
393.87582426562494
 20
240.73258926093749
 11
394.40499126562497
 21
239.8857852609375
  0
LINE
  8
_0-8_会社ロゴ項目
  6
CONTINUOUS
 62
    7
 10
394.40499126562497
 20
239.8857852609375
 11
394.99754726562497
 21
239.06034026093749
  0
LINE
  8
_0-8_会社ロゴ項目
  6
CONTINUOUS
 62
    7
 10
394.99754726562497
 20
239.06034026093749
 11
395.59027626562499
 21
238.27709826093749
  0
LINE
  8
_0-8_会社ロゴ項目
  6
CONTINUOUS
 62
    7
 10
395.59027626562499
 20
238.27709826093749
 11
396.24639426562499
 21
237.51521526093748
  0
LINE
  8
_0-8_会社ロゴ項目
  6
CONTINUOUS
 62
    7
 10
396.24639426562499
 20
237.51521526093748
 11
396.92387226562499
 21
236.7955342609375
  0
LINE
  8
_0-8_会社ロゴ項目
  6
CONTINUOUS
 62
    7
 10
396.92387226562499
 20
236.7955342609375
 11
397.64338026562496
 21
236.07585426093749
  0
LINE
  8
_0-8_会社ロゴ項目
  6
CONTINUOUS
 62
    7
 10
397.64338026562496
 20
236.07585426093749
 11
398.38424826562499
 21
235.4197352609375
  0
LINE
  8
_0-8_会社ロゴ項目
  6
CONTINUOUS
 62
    7
 10
398.38424826562499
 20
235.4197352609375
 11
399.16749126562496
 21
234.80581926093748
  0
LINE
  8
_0-8_会社ロゴ項目
  6
CONTINUOUS
 62
    7
 10
399.16749126562496
 20
234.80581926093748
 11
399.97174826562497
 21
234.19207626093748
  0
LINE
  8
_0-8_会社ロゴ項目
  6
CONTINUOUS
 62
    7
 10
399.97174826562497
 20
234.19207626093748
 11
400.79736526562499
 21
233.64172226093748
  0
LINE
  8
_0-8_会社ロゴ項目
  6
CONTINUOUS
 62
    7
 10
400.79736526562499
 20
233.64172226093748
 11
401.64399726562499
 21
233.13374226093748
  0
LINE
  8
_0-8_会社ロゴ項目
  6
CONTINUOUS
 62
    7
 10
401.64399726562499
 20
233.13374226093748
 11
402.53300426562498
 21
232.64677826093748
  0
LINE
  8
_0-8_会社ロゴ項目
  6
CONTINUOUS
 62
    7
 10
402.53300426562498
 20
232.64677826093748
 11
403.42201126562497
 21
232.20236126093749
  0
LINE
  8
_0-8_会社ロゴ項目
  6
CONTINUOUS
 62
    7
 10
403.42201126562497
 20
232.20236126093749
 11
404.33220526562496
 21
231.80014626093748
  0
LINE
  8
_0-8_会社ロゴ項目
  6
CONTINUOUS
 62
    7
 10
404.33220526562496
 20
231.80014626093748
 11
405.28460226562498
 21
231.44030626093749
  0
LINE
  8
_0-8_会社ロゴ項目
  6
CONTINUOUS
 62
    7
 10
405.28460226562498
 20
231.44030626093749
 11
406.23717126562497
 21
231.14402726093749
  0
LINE
  8
_0-8_会社ロゴ項目
  6
CONTINUOUS
 62
    7
 10
406.23717126562497
 20
231.14402726093749
 11
407.18956826562498
 21
230.8687642609375
  0
LINE
  8
_0-8_会社ロゴ項目
  6
CONTINUOUS
 62
    7
 10
407.18956826562498
 20
230.8687642609375
 11
408.16332426562496
 21
230.63604826093749
  0
LINE
  8
_0-8_会社ロゴ項目
  6
CONTINUOUS
 62
    7
 10
408.16332426562496
 20
230.63604826093749
 11
409.15809526562498
 21
230.4667222609375
  0
LINE
  8
_0-8_会社ロゴ項目
  6
CONTINUOUS
 62
    7
 10
409.15809526562498
 20
230.4667222609375
 11
410.13185126562496
 21
230.31858326093749
  0
LINE
  8
_0-8_会社ロゴ項目
  6
CONTINUOUS
 62
    7
 10
410.13185126562496
 20
230.31858326093749
 11
411.12662326562497
 21
230.2338332609375
  0
LINE
  8
_0-8_会社ロゴ項目
  6
CONTINUOUS
 62
    7
 10
411.12662326562497
 20
230.2338332609375
 11
412.12139426562499
 21
230.19145926093748
  0
LINE
  8
_0-8_会社ロゴ項目
  6
CONTINUOUS
 62
    7
 10
412.12139426562499
 20
230.19145926093748
 11
413.13752526562496
 21
230.19145926093748
  0
LINE
  8
_0-8_会社ロゴ項目
  6
CONTINUOUS
 62
    7
 10
413.13752526562496
 20
230.19145926093748
 11
414.13229626562497
 21
230.2338332609375
  0
LINE
  8
_0-8_会社ロゴ項目
  6
CONTINUOUS
 62
    7
 10
414.13229626562497
 20
230.2338332609375
 11
415.12724026562501
 21
230.31858326093749
  0
LINE
  8
_0-8_会社ロゴ項目
  6
CONTINUOUS
 62
    7
 10
415.12724026562501
 20
230.31858326093749
 11
416.10082426562496
 21
230.4667222609375
  0
LINE
  8
_0-8_会社ロゴ項目
  6
CONTINUOUS
 62
    7
 10
416.10082426562496
 20
230.4667222609375
 11
417.095767265625
 21
230.63604826093749
  0
LINE
  8
_0-8_会社ロゴ項目
  6
CONTINUOUS
 62
    7
 10
417.095767265625
 20
230.63604826093749
 11
418.06935126562496
 21
230.8687642609375
  0
LINE
  8
_0-8_会社ロゴ項目
  6
CONTINUOUS
 62
    7
 10
418.06935126562496
 20
230.8687642609375
 11
419.021920265625
 21
231.14402726093749
  0
LINE
  8
_0-8_会社ロゴ項目
  6
CONTINUOUS
 62
    7
 10
419.021920265625
 20
231.14402726093749
 11
419.974145265625
 21
231.44030626093749
  0
LINE
  8
_0-8_会社ロゴ項目
  6
CONTINUOUS
 62
    7
 10
419.974145265625
 20
231.44030626093749
 11
420.905699265625
 21
231.80014626093748
  0
LINE
  8
_0-8_会社ロゴ項目
  6
CONTINUOUS
 62
    7
 10
420.905699265625
 20
231.80014626093748
 11
421.83690826562497
 21
232.20236126093749
  0
LINE
  8
_0-8_会社ロゴ項目
  6
CONTINUOUS
 62
    7
 10
421.83690826562497
 20
232.20236126093749
 11
422.72608726562498
 21
232.64677826093748
  0
LINE
  8
_0-8_会社ロゴ項目
  6
CONTINUOUS
 62
    7
 10
422.72608726562498
 20
232.64677826093748
 11
423.59390726562498
 21
233.13374226093748
  0
LINE
  8
_0-8_会社ロゴ項目
  6
CONTINUOUS
 62
    7
 10
423.59390726562498
 20
233.13374226093748
 11
424.46172626562497
 21
233.64172226093748
  0
LINE
  8
_0-8_会社ロゴ項目
  6
CONTINUOUS
 62
    7
 10
424.46172626562497
 20
233.64172226093748
 11
425.28717126562498
 21
234.19207626093748
  0
LINE
  8
_0-8_会社ロゴ項目
  6
CONTINUOUS
 62
    7
 10
425.28717126562498
 20
234.19207626093748
 11
426.09160126562494
 21
234.80581926093748
  0
LINE
  8
_0-8_会社ロゴ項目
  6
CONTINUOUS
 62
    7
 10
426.09160126562494
 20
234.80581926093748
 11
426.87467126562501
 21
235.4197352609375
  0
LINE
  8
_0-8_会社ロゴ項目
  6
CONTINUOUS
 62
    7
 10
426.87467126562501
 20
235.4197352609375
 11
427.61536726562497
 21
236.07585426093749
  0
LINE
  8
_0-8_会社ロゴ項目
  6
CONTINUOUS
 62
    7
 10
427.61536726562497
 20
236.07585426093749
 11
428.33504726562501
 21
236.7955342609375
  0
LINE
  8
_0-8_会社ロゴ項目
  6
CONTINUOUS
 62
    7
 10
428.33504726562501
 20
236.7955342609375
 11
429.01235326562494
 21
237.51521526093748
  0
LINE
  8
_0-8_会社ロゴ項目
  6
CONTINUOUS
 62
    7
 10
429.01235326562494
 20
237.51521526093748
 11
429.66864326562495
 21
238.27709826093749
  0
LINE
  8
_0-8_会社ロゴ項目
  6
CONTINUOUS
 62
    7
 10
429.66864326562495
 20
238.27709826093749
 11
430.26120026562501
 21
239.06034026093749
  0
LINE
  8
_0-8_会社ロゴ項目
  6
CONTINUOUS
 62
    7
 10
430.26120026562501
 20
239.06034026093749
 11
430.83274126562497
 21
239.8857852609375
  0
LINE
  8
_0-8_会社ロゴ項目
  6
CONTINUOUS
 62
    7
 10
430.83274126562497
 20
239.8857852609375
 11
431.38326726562497
 21
240.73258926093749
  0
LINE
  8
_0-8_会社ロゴ項目
  6
CONTINUOUS
 62
    7
 10
431.38326726562497
 20
240.73258926093749
 11
431.89107526562498
 21
241.60040926093748
  0
LINE
  8
_0-8_会社ロゴ項目
  6
CONTINUOUS
 62
    7
 10
431.89107526562498
 20
241.60040926093748
 11
432.33549226562496
 21
242.46822926093748
  0
LINE
  8
_0-8_会社ロゴ項目
  6
CONTINUOUS
 62
    7
 10
432.33549226562496
 20
242.46822926093748
 11
432.75889426562497
 21
243.3784232609375
  0
LINE
  8
_0-8_会社ロゴ項目
  6
CONTINUOUS
 62
    7
 10
432.75889426562497
 20
243.3784232609375
 11
433.13992226562499
 21
244.30963226093749
  0
LINE
  8
_0-8_会社ロゴ項目
  6
CONTINUOUS
 62
    7
 10
433.13992226562499
 20
244.30963226093749
 11
433.47857526562495
 21
245.2622012609375
  0
LINE
  8
_0-8_会社ロゴ項目
  6
CONTINUOUS
 62
    7
 10
433.47857526562495
 20
245.2622012609375
 11
433.75383826562495
 21
246.21459826093749
  0
LINE
  8
_0-8_会社ロゴ項目
  6
CONTINUOUS
 62
    7
 10
433.75383826562495
 20
246.21459826093749
 11
434.00774126562499
 21
247.1671672609375
  0
LINE
  8
_0-8_会社ロゴ項目
  6
CONTINUOUS
 62
    7
 10
434.00774126562499
 20
247.1671672609375
 11
434.21961526562495
 21
248.16211026093748
  0
LINE
  8
_0-8_会社ロゴ項目
  6
CONTINUOUS
 62
    7
 10
434.21961526562495
 20
248.16211026093748
 11
434.36775426562497
 21
249.1356942609375
  0
LINE
  8
_0-8_会社ロゴ項目
  6
CONTINUOUS
 62
    7
 10
434.36775426562497
 20
249.1356942609375
 11
434.49453326562497
 21
250.13046526093748
  0
LINE
  8
_0-8_会社ロゴ項目
  6
CONTINUOUS
 62
    7
 10
434.49453326562497
 20
250.13046526093748
 11
434.55826726562498
 21
251.12540926093749
  0
LINE
  8
_0-8_会社ロゴ項目
  6
CONTINUOUS
 62
    7
 10
434.55826726562498
 20
251.12540926093749
 11
434.57928326562501
 21
252.1413682609375
  0
LINE
  8
_0-8_会社ロゴ項目
  6
CONTINUOUS
 62
    7
 10
436.12440826562499
 20
252.1413682609375
 11
436.10339326562496
 21
253.13613926093748
  0
LINE
  8
_0-8_会社ロゴ項目
  6
CONTINUOUS
 62
    7
 10
436.10339326562496
 20
253.13613926093748
 11
436.039659265625
 21
254.13108326093749
  0
LINE
  8
_0-8_会社ロゴ項目
  6
CONTINUOUS
 62
    7
 10
436.039659265625
 20
254.13108326093749
 11
435.93389426562499
 21
255.1258542609375
  0
LINE
  8
_0-8_会社ロゴ項目
  6
CONTINUOUS
 62
    7
 10
435.93389426562499
 20
255.1258542609375
 11
435.78575526562497
 21
256.09961026093748
  0
LINE
  8
_0-8_会社ロゴ項目
  6
CONTINUOUS
 62
    7
 10
435.78575526562497
 20
256.09961026093748
 11
435.59524126562496
 21
257.0943812609375
  0
LINE
  8
_0-8_会社ロゴ項目
  6
CONTINUOUS
 62
    7
 10
435.59524126562496
 20
257.0943812609375
 11
435.36235326562496
 21
258.04677826093746
  0
LINE
  8
_0-8_会社ロゴ項目
  6
CONTINUOUS
 62
    7
 10
435.36235326562496
 20
258.04677826093746
 11
435.10844926562498
 21
259.0205342609375
  0
LINE
  8
_0-8_会社ロゴ項目
  6
CONTINUOUS
 62
    7
 10
435.10844926562498
 20
259.0205342609375
 11
434.790811265625
 21
259.95191626093748
  0
LINE
  8
_0-8_会社ロゴ項目
  6
CONTINUOUS
 62
    7
 10
434.790811265625
 20
259.95191626093748
 11
434.431143265625
 21
260.9043132609375
  0
LINE
  8
_0-8_会社ロゴ項目
  6
CONTINUOUS
 62
    7
 10
434.431143265625
 20
260.9043132609375
 11
434.05011626562498
 21
261.81450726093749
  0
LINE
  8
_0-8_会社ロゴ項目
  6
CONTINUOUS
 62
    7
 10
434.05011626562498
 20
261.81450726093749
 11
433.60569926562499
 21
262.72470126093748
  0
LINE
  8
_0-8_会社ロゴ項目
  6
CONTINUOUS
 62
    7
 10
433.60569926562499
 20
262.72470126093748
 11
433.13992226562499
 21
263.59252126093747
  0
LINE
  8
_0-8_会社ロゴ項目
  6
CONTINUOUS
 62
    7
 10
433.13992226562499
 20
263.59252126093747
 11
432.63211526562498
 21
264.46034026093747
  0
LINE
  8
_0-8_会社ロゴ項目
  6
CONTINUOUS
 62
    7
 10
432.63211526562498
 20
264.46034026093747
 11
432.10294826562495
 21
265.28578526093747
  0
LINE
  8
_0-8_会社ロゴ項目
  6
CONTINUOUS
 62
    7
 10
432.10294826562495
 20
265.28578526093747
 11
431.53140726562498
 21
266.1114022609375
  0
LINE
  8
_0-8_会社ロゴ項目
  6
CONTINUOUS
 62
    7
 10
431.53140726562498
 20
266.1114022609375
 11
430.91749126562496
 21
266.89447226093745
  0
LINE
  8
_0-8_会社ロゴ項目
  6
CONTINUOUS
 62
    7
 10
430.91749126562496
 20
266.89447226093745
 11
430.26120026562501
 21
267.65652726093748
  0
LINE
  8
_0-8_会社ロゴ項目
  6
CONTINUOUS
 62
    7
 10
430.26120026562501
 20
267.65652726093748
 11
429.58389426562496
 21
268.39739526093746
  0
LINE
  8
_0-8_会社ロゴ項目
  6
CONTINUOUS
 62
    7
 10
429.58389426562496
 20
268.39739526093746
 11
428.885573265625
 21
269.0958882609375
  0
LINE
  8
_0-8_会社ロゴ項目
  6
CONTINUOUS
 62
    7
 10
428.885573265625
 20
269.0958882609375
 11
428.144533265625
 21
269.77319426093749
  0
LINE
  8
_0-8_会社ロゴ項目
  6
CONTINUOUS
 62
    7
 10
428.144533265625
 20
269.77319426093749
 11
427.38247826562497
 21
270.40812526093748
  0
LINE
  8
_0-8_会社ロゴ項目
  6
CONTINUOUS
 62
    7
 10
427.38247826562497
 20
270.40812526093748
 11
426.59940826562496
 21
271.0220412609375
  0
LINE
  8
_0-8_会社ロゴ項目
  6
CONTINUOUS
 62
    7
 10
426.59940826562496
 20
271.0220412609375
 11
425.79497826562499
 21
271.6145982609375
  0
LINE
  8
_0-8_会社ロゴ項目
  6
CONTINUOUS
 62
    7
 10
425.79497826562499
 20
271.6145982609375
 11
424.94851826562501
 21
272.14376426093747
  0
LINE
  8
_0-8_会社ロゴ項目
  6
CONTINUOUS
 62
    7
 10
424.94851826562501
 20
272.14376426093747
 11
424.08069926562496
 21
272.65191626093747
  0
LINE
  8
_0-8_会社ロゴ項目
  6
CONTINUOUS
 62
    7
 10
424.08069926562496
 20
272.65191626093747
 11
423.21287926562496
 21
273.11752126093745
  0
LINE
  8
_0-8_会社ロゴ項目
  6
CONTINUOUS
 62
    7
 10
423.21287926562496
 20
273.11752126093745
 11
422.30268526562497
 21
273.54092326093746
  0
LINE
  8
_0-8_会社ロゴ項目
  6
CONTINUOUS
 62
    7
 10
422.30268526562497
 20
273.54092326093746
 11
421.39249126562498
 21
273.94296526093746
  0
LINE
  8
_0-8_会社ロゴ項目
  6
CONTINUOUS
 62
    7
 10
421.39249126562498
 20
273.94296526093746
 11
420.46128126562496
 21
274.28161826093748
  0
LINE
  8
_0-8_会社ロゴ項目
  6
CONTINUOUS
 62
    7
 10
420.46128126562496
 20
274.28161826093748
 11
419.50871226562498
 21
274.59925626093752
  0
LINE
  8
_0-8_会社ロゴ項目
  6
CONTINUOUS
 62
    7
 10
419.50871226562498
 20
274.59925626093752
 11
418.556143265625
 21
274.8743472609375
  0
LINE
  8
_0-8_会社ロゴ項目
  6
CONTINUOUS
 62
    7
 10
418.556143265625
 20
274.8743472609375
 11
417.582215265625
 21
275.1072352609375
  0
LINE
  8
_0-8_会社ロゴ項目
  6
CONTINUOUS
 62
    7
 10
417.582215265625
 20
275.1072352609375
 11
416.60863126562498
 21
275.29774926093751
  0
LINE
  8
_0-8_会社ロゴ項目
  6
CONTINUOUS
 62
    7
 10
416.60863126562498
 20
275.29774926093751
 11
415.61403226562499
 21
275.44588826093752
  0
LINE
  8
_0-8_会社ロゴ項目
  6
CONTINUOUS
 62
    7
 10
415.61403226562499
 20
275.44588826093752
 11
414.61908826562501
 21
275.55165326093748
  0
LINE
  8
_0-8_会社ロゴ項目
  6
CONTINUOUS
 62
    7
 10
414.61908826562501
 20
275.55165326093748
 11
413.624317265625
 21
275.61521526093748
  0
LINE
  8
_0-8_会社ロゴ項目
  6
CONTINUOUS
 62
    7
 10
413.624317265625
 20
275.61521526093748
 11
412.62954626562498
 21
275.63640226093753
  0
LINE
  8
_0-8_会社ロゴ項目
  6
CONTINUOUS
 62
    7
 10
412.62954626562498
 20
275.63640226093753
 11
411.63460226562495
 21
275.61521526093748
  0
LINE
  8
_0-8_会社ロゴ項目
  6
CONTINUOUS
 62
    7
 10
411.63460226562495
 20
275.61521526093748
 11
410.63983126562499
 21
275.55165326093748
  0
LINE
  8
_0-8_会社ロゴ項目
  6
CONTINUOUS
 62
    7
 10
410.63983126562499
 20
275.55165326093748
 11
409.64488726562496
 21
275.44588826093752
  0
LINE
  8
_0-8_会社ロゴ項目
  6
CONTINUOUS
 62
    7
 10
409.64488726562496
 20
275.44588826093752
 11
408.650116265625
 21
275.29774926093751
  0
LINE
  8
_0-8_会社ロゴ項目
  6
CONTINUOUS
 62
    7
 10
408.650116265625
 20
275.29774926093751
 11
407.67653226562499
 21
275.1072352609375
  0
LINE
  8
_0-8_会社ロゴ項目
  6
CONTINUOUS
 62
    7
 10
407.67653226562499
 20
275.1072352609375
 11
406.70277626562495
 21
274.8743472609375
  0
LINE
  8
_0-8_会社ロゴ項目
  6
CONTINUOUS
 62
    7
 10
406.70277626562495
 20
274.8743472609375
 11
405.75037926562499
 21
274.59925626093752
  0
LINE
  8
_0-8_会社ロゴ項目
  6
CONTINUOUS
 62
    7
 10
405.75037926562499
 20
274.59925626093752
 11
404.797810265625
 21
274.28161826093748
  0
LINE
  8
_0-8_会社ロゴ項目
  6
CONTINUOUS
 62
    7
 10
404.797810265625
 20
274.28161826093748
 11
403.86642926562496
 21
273.94296526093746
  0
LINE
  8
_0-8_会社ロゴ項目
  6
CONTINUOUS
 62
    7
 10
403.86642926562496
 20
273.94296526093746
 11
402.95623426562497
 21
273.54092326093746
  0
LINE
  8
_0-8_会社ロゴ項目
  6
CONTINUOUS
 62
    7
 10
402.95623426562497
 20
273.54092326093746
 11
402.04621226562494
 21
273.11752126093745
  0
LINE
  8
_0-8_会社ロゴ項目
  6
CONTINUOUS
 62
    7
 10
402.04621226562494
 20
273.11752126093745
 11
401.17822126562498
 21
272.65191626093747
  0
LINE
  8
_0-8_会社ロゴ項目
  6
CONTINUOUS
 62
    7
 10
401.17822126562498
 20
272.65191626093747
 11
400.31040126562499
 21
272.14376426093747
  0
LINE
  8
_0-8_会社ロゴ項目
  6
CONTINUOUS
 62
    7
 10
400.31040126562499
 20
272.14376426093747
 11
399.46376926562499
 21
271.6145982609375
  0
LINE
  8
_0-8_会社ロゴ項目
  6
CONTINUOUS
 62
    7
 10
399.46376926562499
 20
271.6145982609375
 11
398.65951126562499
 21
271.0220412609375
  0
LINE
  8
_0-8_会社ロゴ項目
  6
CONTINUOUS
 62
    7
 10
398.65951126562499
 20
271.0220412609375
 11
397.87626926562496
 21
270.40812526093748
  0
LINE
  8
_0-8_会社ロゴ項目
  6
CONTINUOUS
 62
    7
 10
397.87626926562496
 20
270.40812526093748
 11
397.093199265625
 21
269.77319426093749
  0
LINE
  8
_0-8_会社ロゴ項目
  6
CONTINUOUS
 62
    7
 10
397.093199265625
 20
269.77319426093749
 11
396.37351826562497
 21
269.0958882609375
  0
LINE
  8
_0-8_会社ロゴ項目
  6
CONTINUOUS
 62
    7
 10
396.37351826562497
 20
269.0958882609375
 11
395.65383826562498
 21
268.39739526093746
  0
LINE
  8
_0-8_会社ロゴ項目
  6
CONTINUOUS
 62
    7
 10
395.65383826562498
 20
268.39739526093746
 11
394.99754726562497
 21
267.65652726093748
  0
LINE
  8
_0-8_会社ロゴ項目
  6
CONTINUOUS
 62
    7
 10
394.99754726562497
 20
267.65652726093748
 11
394.34142926562498
 21
266.89447226093745
  0
LINE
  8
_0-8_会社ロゴ項目
  6
CONTINUOUS
 62
    7
 10
394.34142926562498
 20
266.89447226093745
 11
393.72768526562498
 21
266.1114022609375
  0
LINE
  8
_0-8_会社ロゴ項目
  6
CONTINUOUS
 62
    7
 10
393.72768526562498
 20
266.1114022609375
 11
393.15614326562496
 21
265.28578526093747
  0
LINE
  8
_0-8_会社ロゴ項目
  6
CONTINUOUS
 62
    7
 10
393.15614326562496
 20
265.28578526093747
 11
392.62697726562499
 21
264.46034026093747
  0
LINE
  8
_0-8_会社ロゴ項目
  6
CONTINUOUS
 62
    7
 10
392.62697726562499
 20
264.46034026093747
 11
392.11899726562501
 21
263.59252126093747
  0
LINE
  8
_0-8_会社ロゴ項目
  6
CONTINUOUS
 62
    7
 10
392.11899726562501
 20
263.59252126093747
 11
391.63220526562498
 21
262.72470126093748
  0
LINE
  8
_0-8_会社ロゴ項目
  6
CONTINUOUS
 62
    7
 10
391.63220526562498
 20
262.72470126093748
 11
391.20880326562497
 21
261.81450726093749
  0
LINE
  8
_0-8_会社ロゴ項目
  6
CONTINUOUS
 62
    7
 10
391.20880326562497
 20
261.81450726093749
 11
390.82777626562495
 21
260.9043132609375
  0
LINE
  8
_0-8_会社ロゴ項目
  6
CONTINUOUS
 62
    7
 10
390.82777626562495
 20
260.9043132609375
 11
390.46793526562499
 21
259.95191626093748
  0
LINE
  8
_0-8_会社ロゴ項目
  6
CONTINUOUS
 62
    7
 10
390.46793526562499
 20
259.95191626093748
 11
390.15047026562496
 21
259.0205342609375
  0
LINE
  8
_0-8_会社ロゴ項目
  6
CONTINUOUS
 62
    7
 10
390.15047026562496
 20
259.0205342609375
 11
389.89639426562496
 21
258.04677826093746
  0
LINE
  8
_0-8_会社ロゴ項目
  6
CONTINUOUS
 62
    7
 10
389.89639426562496
 20
258.04677826093746
 11
389.66367826562498
 21
257.0943812609375
  0
LINE
  8
_0-8_会社ロゴ項目
  6
CONTINUOUS
 62
    7
 10
389.66367826562498
 20
257.0943812609375
 11
389.47316426562497
 21
256.09961026093748
  0
LINE
  8
_0-8_会社ロゴ項目
  6
CONTINUOUS
 62
    7
 10
389.47316426562497
 20
256.09961026093748
 11
389.32502526562496
 21
255.1258542609375
  0
LINE
  8
_0-8_会社ロゴ項目
  6
CONTINUOUS
 62
    7
 10
389.32502526562496
 20
255.1258542609375
 11
389.21908826562498
 21
254.13108326093749
  0
LINE
  8
_0-8_会社ロゴ項目
  6
CONTINUOUS
 62
    7
 10
389.21908826562498
 20
254.13108326093749
 11
389.155699265625
 21
253.13613926093748
  0
LINE
  8
_0-8_会社ロゴ項目
  6
CONTINUOUS
 62
    7
 10
389.155699265625
 20
253.13613926093748
 11
389.13451126562495
 21
252.1413682609375
  0
LINE
  8
_0-8_会社ロゴ項目
  6
CONTINUOUS
 62
    7
 10
389.13451126562495
 20
252.1413682609375
 11
389.155699265625
 21
251.12540926093749
  0
LINE
  8
_0-8_会社ロゴ項目
  6
CONTINUOUS
 62
    7
 10
389.155699265625
 20
251.12540926093749
 11
389.21908826562498
 21
250.13046526093748
  0
LINE
  8
_0-8_会社ロゴ項目
  6
CONTINUOUS
 62
    7
 10
389.21908826562498
 20
250.13046526093748
 11
389.32502526562496
 21
249.1356942609375
  0
LINE
  8
_0-8_会社ロゴ項目
  6
CONTINUOUS
 62
    7
 10
389.32502526562496
 20
249.1356942609375
 11
389.47316426562497
 21
248.16211026093748
  0
LINE
  8
_0-8_会社ロゴ項目
  6
CONTINUOUS
 62
    7
 10
389.47316426562497
 20
248.16211026093748
 11
389.66367826562498
 21
247.1671672609375
  0
LINE
  8
_0-8_会社ロゴ項目
  6
CONTINUOUS
 62
    7
 10
389.66367826562498
 20
247.1671672609375
 11
389.89639426562496
 21
246.21459826093749
  0
LINE
  8
_0-8_会社ロゴ項目
  6
CONTINUOUS
 62
    7
 10
389.89639426562496
 20
246.21459826093749
 11
390.15047026562496
 21
245.24101426093748
  0
LINE
  8
_0-8_会社ロゴ項目
  6
CONTINUOUS
 62
    7
 10
390.15047026562496
 20
245.24101426093748
 11
390.46793526562499
 21
244.30963226093749
  0
LINE
  8
_0-8_会社ロゴ項目
  6
CONTINUOUS
 62
    7
 10
390.46793526562499
 20
244.30963226093749
 11
390.82777626562495
 21
243.3572352609375
  0
LINE
  8
_0-8_会社ロゴ項目
  6
CONTINUOUS
 62
    7
 10
390.82777626562495
 20
243.3572352609375
 11
391.20880326562497
 21
242.44704126093748
  0
LINE
  8
_0-8_会社ロゴ項目
  6
CONTINUOUS
 62
    7
 10
391.20880326562497
 20
242.44704126093748
 11
391.63220526562498
 21
241.55803426093749
  0
LINE
  8
_0-8_会社ロゴ項目
  6
CONTINUOUS
 62
    7
 10
391.63220526562498
 20
241.55803426093749
 11
392.11899726562501
 21
240.6690272609375
  0
LINE
  8
_0-8_会社ロゴ項目
  6
CONTINUOUS
 62
    7
 10
392.11899726562501
 20
240.6690272609375
 11
392.62697726562499
 21
239.8012082609375
  0
LINE
  8
_0-8_会社ロゴ項目
  6
CONTINUOUS
 62
    7
 10
392.62697726562499
 20
239.8012082609375
 11
393.15614326562496
 21
238.9757632609375
  0
LINE
  8
_0-8_会社ロゴ項目
  6
CONTINUOUS
 62
    7
 10
393.15614326562496
 20
238.9757632609375
 11
393.72768526562498
 21
238.1501462609375
  0
LINE
  8
_0-8_会社ロゴ項目
  6
CONTINUOUS
 62
    7
 10
393.72768526562498
 20
238.1501462609375
 11
394.34142926562498
 21
237.36707626093749
  0
LINE
  8
_0-8_会社ロゴ項目
  6
CONTINUOUS
 62
    7
 10
394.34142926562498
 20
237.36707626093749
 11
394.99754726562497
 21
236.60502126093749
  0
LINE
  8
_0-8_会社ロゴ項目
  6
CONTINUOUS
 62
    7
 10
394.99754726562497
 20
236.60502126093749
 11
395.65383826562498
 21
235.88534026093748
  0
LINE
  8
_0-8_会社ロゴ項目
  6
CONTINUOUS
 62
    7
 10
395.65383826562498
 20
235.88534026093748
 11
396.37351826562497
 21
235.1656602609375
  0
LINE
  8
_0-8_会社ロゴ項目
  6
CONTINUOUS
 62
    7
 10
396.37351826562497
 20
235.1656602609375
 11
397.093199265625
 21
234.48835426093748
  0
LINE
  8
_0-8_会社ロゴ項目
  6
CONTINUOUS
 62
    7
 10
397.093199265625
 20
234.48835426093748
 11
397.87626926562496
 21
233.85342326093749
  0
LINE
  8
_0-8_会社ロゴ項目
  6
CONTINUOUS
 62
    7
 10
397.87626926562496
 20
233.85342326093749
 11
398.65951126562499
 21
233.2395072609375
  0
LINE
  8
_0-8_会社ロゴ項目
  6
CONTINUOUS
 62
    7
 10
398.65951126562499
 20
233.2395072609375
 11
399.46376926562499
 21
232.66796526093748
  0
LINE
  8
_0-8_会社ロゴ項目
  6
CONTINUOUS
 62
    7
 10
399.46376926562499
 20
232.66796526093748
 11
400.31040126562499
 21
232.11761126093748
  0
LINE
  8
_0-8_会社ロゴ項目
  6
CONTINUOUS
 62
    7
 10
400.31040126562499
 20
232.11761126093748
 11
401.17822126562498
 21
231.6096322609375
  0
LINE
  8
_0-8_会社ロゴ項目
  6
CONTINUOUS
 62
    7
 10
401.17822126562498
 20
231.6096322609375
 11
402.04621226562494
 21
231.14402726093749
  0
LINE
  8
_0-8_会社ロゴ項目
  6
CONTINUOUS
 62
    7
 10
402.04621226562494
 20
231.14402726093749
 11
402.95623426562497
 21
230.72062526093748
  0
LINE
  8
_0-8_会社ロゴ項目
  6
CONTINUOUS
 62
    7
 10
402.95623426562497
 20
230.72062526093748
 11
403.86642926562496
 21
230.31858326093749
  0
LINE
  8
_0-8_会社ロゴ項目
  6
CONTINUOUS
 62
    7
 10
403.86642926562496
 20
230.31858326093749
 11
404.797810265625
 21
229.97993026093749
  0
LINE
  8
_0-8_会社ロゴ項目
  6
CONTINUOUS
 62
    7
 10
404.797810265625
 20
229.97993026093749
 11
405.75037926562499
 21
229.66229226093748
  0
LINE
  8
_0-8_会社ロゴ項目
  6
CONTINUOUS
 62
    7
 10
405.75037926562499
 20
229.66229226093748
 11
406.70277626562495
 21
229.3872012609375
  0
LINE
  8
_0-8_会社ロゴ項目
  6
CONTINUOUS
 62
    7
 10
406.70277626562495
 20
229.3872012609375
 11
407.67653226562499
 21
229.1543132609375
  0
LINE
  8
_0-8_会社ロゴ項目
  6
CONTINUOUS
 62
    7
 10
407.67653226562499
 20
229.1543132609375
 11
408.650116265625
 21
228.96379926093749
  0
LINE
  8
_0-8_会社ロゴ項目
  6
CONTINUOUS
 62
    7
 10
408.650116265625
 20
228.96379926093749
 11
409.64488726562496
 21
228.8368472609375
  0
LINE
  8
_0-8_会社ロゴ項目
  6
CONTINUOUS
 62
    7
 10
409.64488726562496
 20
228.8368472609375
 11
410.63983126562499
 21
228.70989526093749
  0
LINE
  8
_0-8_会社ロゴ項目
  6
CONTINUOUS
 62
    7
 10
410.63983126562499
 20
228.70989526093749
 11
411.63460226562495
 21
228.6463332609375
  0
LINE
  8
_0-8_会社ロゴ項目
  6
CONTINUOUS
 62
    7
 10
411.63460226562495
 20
228.6463332609375
 11
412.62954626562498
 21
228.6463332609375
  0
LINE
  8
_0-8_会社ロゴ項目
  6
CONTINUOUS
 62
    7
 10
412.62954626562498
 20
228.6463332609375
 11
413.624317265625
 21
228.6463332609375
  0
LINE
  8
_0-8_会社ロゴ項目
  6
CONTINUOUS
 62
    7
 10
413.624317265625
 20
228.6463332609375
 11
414.61908826562501
 21
228.70989526093749
  0
LINE
  8
_0-8_会社ロゴ項目
  6
CONTINUOUS
 62
    7
 10
414.61908826562501
 20
228.70989526093749
 11
415.61403226562499
 21
228.8368472609375
  0
LINE
  8
_0-8_会社ロゴ項目
  6
CONTINUOUS
 62
    7
 10
415.61403226562499
 20
228.8368472609375
 11
416.60863126562498
 21
228.96379926093749
  0
LINE
  8
_0-8_会社ロゴ項目
  6
CONTINUOUS
 62
    7
 10
416.60863126562498
 20
228.96379926093749
 11
417.582215265625
 21
229.1543132609375
  0
LINE
  8
_0-8_会社ロゴ項目
  6
CONTINUOUS
 62
    7
 10
417.582215265625
 20
229.1543132609375
 11
418.556143265625
 21
229.3872012609375
  0
LINE
  8
_0-8_会社ロゴ項目
  6
CONTINUOUS
 62
    7
 10
418.556143265625
 20
229.3872012609375
 11
419.50871226562498
 21
229.66229226093748
  0
LINE
  8
_0-8_会社ロゴ項目
  6
CONTINUOUS
 62
    7
 10
419.50871226562498
 20
229.66229226093748
 11
420.46128126562496
 21
229.97993026093749
  0
LINE
  8
_0-8_会社ロゴ項目
  6
CONTINUOUS
 62
    7
 10
420.46128126562496
 20
229.97993026093749
 11
421.39249126562498
 21
230.31858326093749
  0
LINE
  8
_0-8_会社ロゴ項目
  6
CONTINUOUS
 62
    7
 10
421.39249126562498
 20
230.31858326093749
 11
422.30268526562497
 21
230.72062526093748
  0
LINE
  8
_0-8_会社ロゴ項目
  6
CONTINUOUS
 62
    7
 10
422.30268526562497
 20
230.72062526093748
 11
423.21287926562496
 21
231.14402726093749
  0
LINE
  8
_0-8_会社ロゴ項目
  6
CONTINUOUS
 62
    7
 10
423.21287926562496
 20
231.14402726093749
 11
424.08069926562496
 21
231.6096322609375
  0
LINE
  8
_0-8_会社ロゴ項目
  6
CONTINUOUS
 62
    7
 10
424.08069926562496
 20
231.6096322609375
 11
424.94851826562501
 21
232.11761126093748
  0
LINE
  8
_0-8_会社ロゴ項目
  6
CONTINUOUS
 62
    7
 10
424.94851826562501
 20
232.11761126093748
 11
425.79497826562499
 21
232.66796526093748
  0
LINE
  8
_0-8_会社ロゴ項目
  6
CONTINUOUS
 62
    7
 10
425.79497826562499
 20
232.66796526093748
 11
426.59940826562496
 21
233.2395072609375
  0
LINE
  8
_0-8_会社ロゴ項目
  6
CONTINUOUS
 62
    7
 10
426.59940826562496
 20
233.2395072609375
 11
427.38247826562497
 21
233.85342326093749
  0
LINE
  8
_0-8_会社ロゴ項目
  6
CONTINUOUS
 62
    7
 10
427.38247826562497
 20
233.85342326093749
 11
428.144533265625
 21
234.48835426093748
  0
LINE
  8
_0-8_会社ロゴ項目
  6
CONTINUOUS
 62
    7
 10
428.144533265625
 20
234.48835426093748
 11
428.885573265625
 21
235.1656602609375
  0
LINE
  8
_0-8_会社ロゴ項目
  6
CONTINUOUS
 62
    7
 10
428.885573265625
 20
235.1656602609375
 11
429.58389426562496
 21
235.88534026093748
  0
LINE
  8
_0-8_会社ロゴ項目
  6
CONTINUOUS
 62
    7
 10
429.58389426562496
 20
235.88534026093748
 11
430.26120026562501
 21
236.60502126093749
  0
LINE
  8
_0-8_会社ロゴ項目
  6
CONTINUOUS
 62
    7
 10
430.26120026562501
 20
236.60502126093749
 11
430.91749126562496
 21
237.36707626093749
  0
LINE
  8
_0-8_会社ロゴ項目
  6
CONTINUOUS
 62
    7
 10
430.91749126562496
 20
237.36707626093749
 11
431.53140726562498
 21
238.1501462609375
  0
LINE
  8
_0-8_会社ロゴ項目
  6
CONTINUOUS
 62
    7
 10
431.53140726562498
 20
238.1501462609375
 11
432.10294826562495
 21
238.9757632609375
  0
LINE
  8
_0-8_会社ロゴ項目
  6
CONTINUOUS
 62
    7
 10
432.10294826562495
 20
238.9757632609375
 11
432.63211526562498
 21
239.8012082609375
  0
LINE
  8
_0-8_会社ロゴ項目
  6
CONTINUOUS
 62
    7
 10
432.63211526562498
 20
239.8012082609375
 11
433.13992226562499
 21
240.6690272609375
  0
LINE
  8
_0-8_会社ロゴ項目
  6
CONTINUOUS
 62
    7
 10
433.13992226562499
 20
240.6690272609375
 11
433.60569926562499
 21
241.55803426093749
  0
LINE
  8
_0-8_会社ロゴ項目
  6
CONTINUOUS
 62
    7
 10
433.60569926562499
 20
241.55803426093749
 11
434.05011626562498
 21
242.44704126093748
  0
LINE
  8
_0-8_会社ロゴ項目
  6
CONTINUOUS
 62
    7
 10
434.05011626562498
 20
242.44704126093748
 11
434.431143265625
 21
243.3572352609375
  0
LINE
  8
_0-8_会社ロゴ項目
  6
CONTINUOUS
 62
    7
 10
434.431143265625
 20
243.3572352609375
 11
434.790811265625
 21
244.30963226093749
  0
LINE
  8
_0-8_会社ロゴ項目
  6
CONTINUOUS
 62
    7
 10
434.790811265625
 20
244.30963226093749
 11
435.10844926562498
 21
245.24101426093748
  0
LINE
  8
_0-8_会社ロゴ項目
  6
CONTINUOUS
 62
    7
 10
435.10844926562498
 20
245.24101426093748
 11
435.36235326562496
 21
246.21459826093749
  0
LINE
  8
_0-8_会社ロゴ項目
  6
CONTINUOUS
 62
    7
 10
435.36235326562496
 20
246.21459826093749
 11
435.59524126562496
 21
247.1671672609375
  0
LINE
  8
_0-8_会社ロゴ項目
  6
CONTINUOUS
 62
    7
 10
435.59524126562496
 20
247.1671672609375
 11
435.78575526562497
 21
248.16211026093748
  0
LINE
  8
_0-8_会社ロゴ項目
  6
CONTINUOUS
 62
    7
 10
435.78575526562497
 20
248.16211026093748
 11
435.93389426562499
 21
249.1356942609375
  0
LINE
  8
_0-8_会社ロゴ項目
  6
CONTINUOUS
 62
    7
 10
435.93389426562499
 20
249.1356942609375
 11
436.039659265625
 21
250.13046526093748
  0
LINE
  8
_0-8_会社ロゴ項目
  6
CONTINUOUS
 62
    7
 10
436.039659265625
 20
250.13046526093748
 11
436.10339326562496
 21
251.12540926093749
  0
LINE
  8
_0-8_会社ロゴ項目
  6
CONTINUOUS
 62
    7
 10
436.10339326562496
 20
251.12540926093749
 11
436.12440826562499
 21
252.1413682609375
  0
LINE
  8
_0-8_会社ロゴ項目
  6
CONTINUOUS
 62
    7
 10
432.63211526562498
 20
252.1413682609375
 11
432.61075526562496
 21
253.13613926093748
  0
LINE
  8
_0-8_会社ロゴ項目
  6
CONTINUOUS
 62
    7
 10
432.61075526562496
 20
253.13613926093748
 11
432.52600626562497
 21
254.13108326093749
  0
LINE
  8
_0-8_会社ロゴ項目
  6
CONTINUOUS
 62
    7
 10
432.52600626562497
 20
254.13108326093749
 11
432.42024126562501
 21
255.1258542609375
  0
LINE
  8
_0-8_会社ロゴ項目
  6
CONTINUOUS
 62
    7
 10
432.42024126562501
 20
255.1258542609375
 11
432.229727265625
 21
256.09961026093748
  0
LINE
  8
_0-8_会社ロゴ項目
  6
CONTINUOUS
 62
    7
 10
432.229727265625
 20
256.09961026093748
 11
432.01819926562496
 21
257.0731942609375
  0
LINE
  8
_0-8_会社ロゴ項目
  6
CONTINUOUS
 62
    7
 10
432.01819926562496
 20
257.0731942609375
 11
431.74293526562496
 21
258.02576326093748
  0
LINE
  8
_0-8_会社ロゴ項目
  6
CONTINUOUS
 62
    7
 10
431.74293526562496
 20
258.02576326093748
 11
431.42529826562497
 21
258.9781602609375
  0
LINE
  8
_0-8_会社ロゴ項目
  6
CONTINUOUS
 62
    7
 10
431.42529826562497
 20
258.9781602609375
 11
431.06563026562497
 21
259.88835426093749
  0
LINE
  8
_0-8_会社ロゴ項目
  6
CONTINUOUS
 62
    7
 10
431.06563026562497
 20
259.88835426093749
 11
430.64222726562497
 21
260.79854826093748
  0
LINE
  8
_0-8_会社ロゴ項目
  6
CONTINUOUS
 62
    7
 10
430.64222726562497
 20
260.79854826093748
 11
430.19781026562498
 21
261.68755526093747
  0
LINE
  8
_0-8_会社ロゴ項目
  6
CONTINUOUS
 62
    7
 10
430.19781026562498
 20
261.68755526093747
 11
429.68965926562498
 21
262.55537526093747
  0
LINE
  8
_0-8_会社ロゴ項目
  6
CONTINUOUS
 62
    7
 10
429.68965926562498
 20
262.55537526093747
 11
429.16049226562495
 21
263.40200726093747
  0
LINE
  8
_0-8_会社ロゴ項目
  6
CONTINUOUS
 62
    7
 10
429.16049226562495
 20
263.40200726093747
 11
428.56793526562501
 21
264.20626426093747
  0
LINE
  8
_0-8_会社ロゴ項目
  6
CONTINUOUS
 62
    7
 10
428.56793526562501
 20
264.20626426093747
 11
427.95401926562499
 21
264.9895072609375
  0
LINE
  8
_0-8_会社ロゴ項目
  6
CONTINUOUS
 62
    7
 10
427.95401926562499
 20
264.9895072609375
 11
427.29807326562496
 21
265.73037526093748
  0
LINE
  8
_0-8_会社ロゴ項目
  6
CONTINUOUS
 62
    7
 10
427.29807326562496
 20
265.73037526093748
 11
426.59940826562496
 21
266.45005526093746
  0
LINE
  8
_0-8_会社ロゴ項目
  6
CONTINUOUS
 62
    7
 10
426.59940826562496
 20
266.45005526093746
 11
425.85871226562494
 21
267.12736126093745
  0
LINE
  8
_0-8_会社ロゴ項目
  6
CONTINUOUS
 62
    7
 10
425.85871226562494
 20
267.12736126093745
 11
425.09665726562497
 21
267.7622922609375
  0
LINE
  8
_0-8_会社ロゴ項目
  6
CONTINUOUS
 62
    7
 10
425.09665726562497
 20
267.7622922609375
 11
424.292227265625
 21
268.35502126093746
  0
LINE
  8
_0-8_会社ロゴ項目
  6
CONTINUOUS
 62
    7
 10
424.292227265625
 20
268.35502126093746
 11
423.48779826562497
 21
268.92656226093749
  0
LINE
  8
_0-8_会社ロゴ項目
  6
CONTINUOUS
 62
    7
 10
423.48779826562497
 20
268.92656226093749
 11
422.641338265625
 21
269.45572926093746
  0
LINE
  8
_0-8_会社ロゴ項目
  6
CONTINUOUS
 62
    7
 10
422.641338265625
 20
269.45572926093746
 11
421.75215926562498
 21
269.9213332609375
  0
LINE
  8
_0-8_会社ロゴ項目
  6
CONTINUOUS
 62
    7
 10
421.75215926562498
 20
269.9213332609375
 11
420.84196426562499
 21
270.36592326093745
  0
LINE
  8
_0-8_会社ロゴ項目
  6
CONTINUOUS
 62
    7
 10
420.84196426562499
 20
270.36592326093745
 11
419.93211526562499
 21
270.7467782609375
  0
LINE
  8
_0-8_会社ロゴ項目
  6
CONTINUOUS
 62
    7
 10
419.93211526562499
 20
270.7467782609375
 11
419.00056126562498
 21
271.08543126093747
  0
LINE
  8
_0-8_会社ロゴ項目
  6
CONTINUOUS
 62
    7
 10
419.00056126562498
 20
271.08543126093747
 11
418.047992265625
 21
271.38188126093746
  0
LINE
  8
_0-8_会社ロゴ項目
  6
CONTINUOUS
 62
    7
 10
418.047992265625
 20
271.38188126093746
 11
417.07440826562498
 21
271.6145982609375
  0
LINE
  8
_0-8_会社ロゴ項目
  6
CONTINUOUS
 62
    7
 10
417.07440826562498
 20
271.6145982609375
 11
416.10082426562496
 21
271.8262992609375
  0
LINE
  8
_0-8_会社ロゴ項目
  6
CONTINUOUS
 62
    7
 10
416.10082426562496
 20
271.8262992609375
 11
415.12724026562501
 21
271.97461026093748
  0
LINE
  8
_0-8_会社ロゴ項目
  6
CONTINUOUS
 62
    7
 10
415.12724026562501
 20
271.97461026093748
 11
414.11093726562501
 21
272.0803752609375
  0
LINE
  8
_0-8_会社ロゴ項目
  6
CONTINUOUS
 62
    7
 10
414.11093726562501
 20
272.0803752609375
 11
413.13752526562496
 21
272.1227492609375
  0
LINE
  8
_0-8_会社ロゴ項目
  6
CONTINUOUS
 62
    7
 10
413.13752526562496
 20
272.1227492609375
 11
412.12139426562499
 21
272.1227492609375
  0
LINE
  8
_0-8_会社ロゴ項目
  6
CONTINUOUS
 62
    7
 10
412.12139426562499
 20
272.1227492609375
 11
411.12662326562497
 21
272.0803752609375
  0
LINE
  8
_0-8_会社ロゴ項目
  6
CONTINUOUS
 62
    7
 10
411.12662326562497
 20
272.0803752609375
 11
410.13185126562496
 21
271.97461026093748
  0
LINE
  8
_0-8_会社ロゴ項目
  6
CONTINUOUS
 62
    7
 10
410.13185126562496
 20
271.97461026093748
 11
409.15809526562498
 21
271.8262992609375
  0
LINE
  8
_0-8_会社ロゴ項目
  6
CONTINUOUS
 62
    7
 10
409.15809526562498
 20
271.8262992609375
 11
408.18451126562496
 21
271.6145982609375
  0
LINE
  8
_0-8_会社ロゴ項目
  6
CONTINUOUS
 62
    7
 10
408.18451126562496
 20
271.6145982609375
 11
407.21075526562498
 21
271.38188126093746
  0
LINE
  8
_0-8_会社ロゴ項目
  6
CONTINUOUS
 62
    7
 10
407.21075526562498
 20
271.38188126093746
 11
406.25835826562496
 21
271.08543126093747
  0
LINE
  8
_0-8_会社ロゴ項目
  6
CONTINUOUS
 62
    7
 10
406.25835826562496
 20
271.08543126093747
 11
405.32697726562498
 21
270.7467782609375
  0
LINE
  8
_0-8_会社ロゴ項目
  6
CONTINUOUS
 62
    7
 10
405.32697726562498
 20
270.7467782609375
 11
404.39559526562499
 21
270.36592326093745
  0
LINE
  8
_0-8_会社ロゴ項目
  6
CONTINUOUS
 62
    7
 10
404.39559526562499
 20
270.36592326093745
 11
403.50658826562494
 21
269.9213332609375
  0
LINE
  8
_0-8_会社ロゴ項目
  6
CONTINUOUS
 62
    7
 10
403.50658826562494
 20
269.9213332609375
 11
402.638769265625
 21
269.45572926093746
  0
LINE
  8
_0-8_会社ロゴ項目
  6
CONTINUOUS
 62
    7
 10
402.638769265625
 20
269.45572926093746
 11
401.77094926562495
 21
268.92656226093749
  0
LINE
  8
_0-8_会社ロゴ項目
  6
CONTINUOUS
 62
    7
 10
401.77094926562495
 20
268.92656226093749
 11
400.945504265625
 21
268.35502126093746
  0
LINE
  8
_0-8_会社ロゴ項目
  6
CONTINUOUS
 62
    7
 10
400.945504265625
 20
268.35502126093746
 11
400.16226226562497
 21
267.7622922609375
  0
LINE
  8
_0-8_会社ロゴ項目
  6
CONTINUOUS
 62
    7
 10
400.16226226562497
 20
267.7622922609375
 11
399.40037926562496
 21
267.12736126093745
  0
LINE
  8
_0-8_会社ロゴ項目
  6
CONTINUOUS
 62
    7
 10
399.40037926562496
 20
267.12736126093745
 11
398.65951126562499
 21
266.45005526093746
  0
LINE
  8
_0-8_会社ロゴ項目
  6
CONTINUOUS
 62
    7
 10
398.65951126562499
 20
266.45005526093746
 11
397.96101826562494
 21
265.73037526093748
  0
LINE
  8
_0-8_会社ロゴ項目
  6
CONTINUOUS
 62
    7
 10
397.96101826562494
 20
265.73037526093748
 11
397.30472726562499
 21
264.9895072609375
  0
LINE
  8
_0-8_会社ロゴ項目
  6
CONTINUOUS
 62
    7
 10
397.30472726562499
 20
264.9895072609375
 11
396.69098426562499
 21
264.20626426093747
  0
LINE
  8
_0-8_会社ロゴ項目
  6
CONTINUOUS
 62
    7
 10
396.69098426562499
 20
264.20626426093747
 11
396.09825526562497
 21
263.40200726093747
  0
LINE
  8
_0-8_会社ロゴ項目
  6
CONTINUOUS
 62
    7
 10
396.09825526562497
 20
263.40200726093747
 11
395.56908826562494
 21
262.55537526093747
  0
LINE
  8
_0-8_会社ロゴ項目
  6
CONTINUOUS
 62
    7
 10
395.56908826562494
 20
262.55537526093747
 11
395.06110926562496
 21
261.68755526093747
  0
LINE
  8
_0-8_会社ロゴ項目
  6
CONTINUOUS
 62
    7
 10
395.06110926562496
 20
261.68755526093747
 11
394.61669226562498
 21
260.79854826093748
  0
LINE
  8
_0-8_会社ロゴ項目
  6
CONTINUOUS
 62
    7
 10
394.61669226562498
 20
260.79854826093748
 11
394.19328926562497
 21
259.88835426093749
  0
LINE
  8
_0-8_会社ロゴ項目
  6
CONTINUOUS
 62
    7
 10
394.19328926562497
 20
259.88835426093749
 11
393.83344926562495
 21
258.9781602609375
  0
LINE
  8
_0-8_会社ロゴ項目
  6
CONTINUOUS
 62
    7
 10
393.83344926562495
 20
258.9781602609375
 11
393.51598426562498
 21
258.02576326093748
  0
LINE
  8
_0-8_会社ロゴ項目
  6
CONTINUOUS
 62
    7
 10
393.51598426562498
 20
258.02576326093748
 11
393.24072126562498
 21
257.0731942609375
  0
LINE
  8
_0-8_会社ロゴ項目
  6
CONTINUOUS
 62
    7
 10
393.24072126562498
 20
257.0731942609375
 11
393.02919226562494
 21
256.09961026093748
  0
LINE
  8
_0-8_会社ロゴ項目
  6
CONTINUOUS
 62
    7
 10
393.02919226562494
 20
256.09961026093748
 11
392.85986526562499
 21
255.1258542609375
  0
LINE
  8
_0-8_会社ロゴ項目
  6
CONTINUOUS
 62
    7
 10
392.85986526562499
 20
255.1258542609375
 11
392.73274126562501
 21
254.13108326093749
  0
LINE
  8
_0-8_会社ロゴ項目
  6
CONTINUOUS
 62
    7
 10
392.73274126562501
 20
254.13108326093749
 11
392.64816426562498
 21
253.13613926093748
  0
LINE
  8
_0-8_会社ロゴ項目
  6
CONTINUOUS
 62
    7
 10
392.64816426562498
 20
253.13613926093748
 11
392.62697726562499
 21
252.1413682609375
  0
LINE
  8
_0-8_会社ロゴ項目
  6
CONTINUOUS
 62
    7
 10
392.62697726562499
 20
252.1413682609375
 11
392.64816426562498
 21
251.12540926093749
  0
LINE
  8
_0-8_会社ロゴ項目
  6
CONTINUOUS
 62
    7
 10
392.64816426562498
 20
251.12540926093749
 11
392.73274126562501
 21
250.13046526093748
  0
LINE
  8
_0-8_会社ロゴ項目
  6
CONTINUOUS
 62
    7
 10
392.73274126562501
 20
250.13046526093748
 11
392.85986526562499
 21
249.1568812609375
  0
LINE
  8
_0-8_会社ロゴ項目
  6
CONTINUOUS
 62
    7
 10
392.85986526562499
 20
249.1568812609375
 11
393.02919226562494
 21
248.16211026093748
  0
LINE
  8
_0-8_会社ロゴ項目
  6
CONTINUOUS
 62
    7
 10
393.02919226562494
 20
248.16211026093748
 11
393.24072126562498
 21
247.1883542609375
  0
LINE
  8
_0-8_会社ロゴ項目
  6
CONTINUOUS
 62
    7
 10
393.24072126562498
 20
247.1883542609375
 11
393.51598426562498
 21
246.23578526093749
  0
LINE
  8
_0-8_会社ロゴ項目
  6
CONTINUOUS
 62
    7
 10
393.51598426562498
 20
246.23578526093749
 11
393.83344926562495
 21
245.30457626093749
  0
LINE
  8
_0-8_会社ロゴ項目
  6
CONTINUOUS
 62
    7
 10
393.83344926562495
 20
245.30457626093749
 11
394.19328926562497
 21
244.37319426093748
  0
LINE
  8
_0-8_会社ロゴ項目
  6
CONTINUOUS
 62
    7
 10
394.19328926562497
 20
244.37319426093748
 11
394.61669226562498
 21
243.46300026093749
  0
LINE
  8
_0-8_会社ロゴ項目
  6
CONTINUOUS
 62
    7
 10
394.61669226562498
 20
243.46300026093749
 11
395.06110926562496
 21
242.5739932609375
  0
LINE
  8
_0-8_会社ロゴ項目
  6
CONTINUOUS
 62
    7
 10
395.06110926562496
 20
242.5739932609375
 11
395.56908826562494
 21
241.70617326093748
  0
LINE
  8
_0-8_会社ロゴ項目
  6
CONTINUOUS
 62
    7
 10
395.56908826562494
 20
241.70617326093748
 11
396.09825526562497
 21
240.85954126093748
  0
LINE
  8
_0-8_会社ロゴ項目
  6
CONTINUOUS
 62
    7
 10
396.09825526562497
 20
240.85954126093748
 11
396.69098426562499
 21
240.05511126093748
  0
LINE
  8
_0-8_会社ロゴ項目
  6
CONTINUOUS
 62
    7
 10
396.69098426562499
 20
240.05511126093748
 11
397.30472726562499
 21
239.2720412609375
  0
LINE
  8
_0-8_会社ロゴ項目
  6
CONTINUOUS
 62
    7
 10
397.30472726562499
 20
239.2720412609375
 11
397.96101826562494
 21
238.53117326093749
  0
LINE
  8
_0-8_会社ロゴ項目
  6
CONTINUOUS
 62
    7
 10
397.96101826562494
 20
238.53117326093749
 11
398.65951126562499
 21
237.81149326093748
  0
LINE
  8
_0-8_会社ロゴ項目
  6
CONTINUOUS
 62
    7
 10
398.65951126562499
 20
237.81149326093748
 11
399.40037926562496
 21
237.13418726093749
  0
LINE
  8
_0-8_会社ロゴ項目
  6
CONTINUOUS
 62
    7
 10
399.40037926562496
 20
237.13418726093749
 11
400.16226226562497
 21
236.4992562609375
  0
LINE
  8
_0-8_会社ロゴ項目
  6
CONTINUOUS
 62
    7
 10
400.16226226562497
 20
236.4992562609375
 11
400.945504265625
 21
235.90652726093748
  0
LINE
  8
_0-8_会社ロゴ項目
  6
CONTINUOUS
 62
    7
 10
400.945504265625
 20
235.90652726093748
 11
401.77094926562495
 21
235.33498626093748
  0
LINE
  8
_0-8_会社ロゴ項目
  6
CONTINUOUS
 62
    7
 10
401.77094926562495
 20
235.33498626093748
 11
402.638769265625
 21
234.80581926093748
  0
LINE
  8
_0-8_会社ロゴ項目
  6
CONTINUOUS
 62
    7
 10
402.638769265625
 20
234.80581926093748
 11
403.50658826562494
 21
234.3402152609375
  0
LINE
  8
_0-8_会社ロゴ項目
  6
CONTINUOUS
 62
    7
 10
403.50658826562494
 20
234.3402152609375
 11
404.39559526562499
 21
233.91681326093749
  0
LINE
  8
_0-8_会社ロゴ項目
  6
CONTINUOUS
 62
    7
 10
404.39559526562499
 20
233.91681326093749
 11
405.32697726562498
 21
233.5145982609375
  0
LINE
  8
_0-8_会社ロゴ項目
  6
CONTINUOUS
 62
    7
 10
405.32697726562498
 20
233.5145982609375
 11
406.25835826562496
 21
233.17594526093748
  0
LINE
  8
_0-8_会社ロゴ項目
  6
CONTINUOUS
 62
    7
 10
406.25835826562496
 20
233.17594526093748
 11
407.21075526562498
 21
232.87966726093748
  0
LINE
  8
_0-8_会社ロゴ項目
  6
CONTINUOUS
 62
    7
 10
407.21075526562498
 20
232.87966726093748
 11
408.18451126562496
 21
232.64677826093748
  0
LINE
  8
_0-8_会社ロゴ項目
  6
CONTINUOUS
 62
    7
 10
408.18451126562496
 20
232.64677826093748
 11
409.15809526562498
 21
232.4352492609375
  0
LINE
  8
_0-8_会社ロゴ項目
  6
CONTINUOUS
 62
    7
 10
409.15809526562498
 20
232.4352492609375
 11
410.13185126562496
 21
232.28711026093748
  0
LINE
  8
_0-8_会社ロゴ項目
  6
CONTINUOUS
 62
    7
 10
410.13185126562496
 20
232.28711026093748
 11
411.12662326562497
 21
232.1811732609375
  0
LINE
  8
_0-8_会社ロゴ項目
  6
CONTINUOUS
 62
    7
 10
411.12662326562497
 20
232.1811732609375
 11
412.12139426562499
 21
232.1387992609375
  0
LINE
  8
_0-8_会社ロゴ項目
  6
CONTINUOUS
 62
    7
 10
412.12139426562499
 20
232.1387992609375
 11
413.13752526562496
 21
232.1387992609375
  0
LINE
  8
_0-8_会社ロゴ項目
  6
CONTINUOUS
 62
    7
 10
413.13752526562496
 20
232.1387992609375
 11
414.11093726562501
 21
232.1811732609375
  0
LINE
  8
_0-8_会社ロゴ項目
  6
CONTINUOUS
 62
    7
 10
414.11093726562501
 20
232.1811732609375
 11
415.12724026562501
 21
232.28711026093748
  0
LINE
  8
_0-8_会社ロゴ項目
  6
CONTINUOUS
 62
    7
 10
415.12724026562501
 20
232.28711026093748
 11
416.10082426562496
 21
232.4352492609375
  0
LINE
  8
_0-8_会社ロゴ項目
  6
CONTINUOUS
 62
    7
 10
416.10082426562496
 20
232.4352492609375
 11
417.07440826562498
 21
232.64677826093748
  0
LINE
  8
_0-8_会社ロゴ項目
  6
CONTINUOUS
 62
    7
 10
417.07440826562498
 20
232.64677826093748
 11
418.047992265625
 21
232.87966726093748
  0
LINE
  8
_0-8_会社ロゴ項目
  6
CONTINUOUS
 62
    7
 10
418.047992265625
 20
232.87966726093748
 11
419.00056126562498
 21
233.17594526093748
  0
LINE
  8
_0-8_会社ロゴ項目
  6
CONTINUOUS
 62
    7
 10
419.00056126562498
 20
233.17594526093748
 11
419.93211526562499
 21
233.5145982609375
  0
LINE
  8
_0-8_会社ロゴ項目
  6
CONTINUOUS
 62
    7
 10
419.93211526562499
 20
233.5145982609375
 11
420.84196426562499
 21
233.91681326093749
  0
LINE
  8
_0-8_会社ロゴ項目
  6
CONTINUOUS
 62
    7
 10
420.84196426562499
 20
233.91681326093749
 11
421.75215926562498
 21
234.3402152609375
  0
LINE
  8
_0-8_会社ロゴ項目
  6
CONTINUOUS
 62
    7
 10
421.75215926562498
 20
234.3402152609375
 11
422.641338265625
 21
234.80581926093748
  0
LINE
  8
_0-8_会社ロゴ項目
  6
CONTINUOUS
 62
    7
 10
422.641338265625
 20
234.80581926093748
 11
423.48779826562497
 21
235.33498626093748
  0
LINE
  8
_0-8_会社ロゴ項目
  6
CONTINUOUS
 62
    7
 10
423.48779826562497
 20
235.33498626093748
 11
424.292227265625
 21
235.90652726093748
  0
LINE
  8
_0-8_会社ロゴ項目
  6
CONTINUOUS
 62
    7
 10
424.292227265625
 20
235.90652726093748
 11
425.09665726562497
 21
236.4992562609375
  0
LINE
  8
_0-8_会社ロゴ項目
  6
CONTINUOUS
 62
    7
 10
425.09665726562497
 20
236.4992562609375
 11
425.85871226562494
 21
237.13418726093749
  0
LINE
  8
_0-8_会社ロゴ項目
  6
CONTINUOUS
 62
    7
 10
425.85871226562494
 20
237.13418726093749
 11
426.59940826562496
 21
237.81149326093748
  0
LINE
  8
_0-8_会社ロゴ項目
  6
CONTINUOUS
 62
    7
 10
426.59940826562496
 20
237.81149326093748
 11
427.29807326562496
 21
238.53117326093749
  0
LINE
  8
_0-8_会社ロゴ項目
  6
CONTINUOUS
 62
    7
 10
427.29807326562496
 20
238.53117326093749
 11
427.95401926562499
 21
239.2720412609375
  0
LINE
  8
_0-8_会社ロゴ項目
  6
CONTINUOUS
 62
    7
 10
427.95401926562499
 20
239.2720412609375
 11
428.56793526562501
 21
240.05511126093748
  0
LINE
  8
_0-8_会社ロゴ項目
  6
CONTINUOUS
 62
    7
 10
428.56793526562501
 20
240.05511126093748
 11
429.16049226562495
 21
240.85954126093748
  0
LINE
  8
_0-8_会社ロゴ項目
  6
CONTINUOUS
 62
    7
 10
429.16049226562495
 20
240.85954126093748
 11
429.68965926562498
 21
241.70617326093748
  0
LINE
  8
_0-8_会社ロゴ項目
  6
CONTINUOUS
 62
    7
 10
429.68965926562498
 20
241.70617326093748
 11
430.19781026562498
 21
242.5739932609375
  0
LINE
  8
_0-8_会社ロゴ項目
  6
CONTINUOUS
 62
    7
 10
430.19781026562498
 20
242.5739932609375
 11
430.64222726562497
 21
243.46300026093749
  0
LINE
  8
_0-8_会社ロゴ項目
  6
CONTINUOUS
 62
    7
 10
430.64222726562497
 20
243.46300026093749
 11
431.06563026562497
 21
244.37319426093748
  0
LINE
  8
_0-8_会社ロゴ項目
  6
CONTINUOUS
 62
    7
 10
431.06563026562497
 20
244.37319426093748
 11
431.42529826562497
 21
245.30457626093749
  0
LINE
  8
_0-8_会社ロゴ項目
  6
CONTINUOUS
 62
    7
 10
431.42529826562497
 20
245.30457626093749
 11
431.74293526562496
 21
246.23578526093749
  0
LINE
  8
_0-8_会社ロゴ項目
  6
CONTINUOUS
 62
    7
 10
431.74293526562496
 20
246.23578526093749
 11
432.01819926562496
 21
247.1883542609375
  0
LINE
  8
_0-8_会社ロゴ項目
  6
CONTINUOUS
 62
    7
 10
432.01819926562496
 20
247.1883542609375
 11
432.229727265625
 21
248.16211026093748
  0
LINE
  8
_0-8_会社ロゴ項目
  6
CONTINUOUS
 62
    7
 10
432.229727265625
 20
248.16211026093748
 11
432.42024126562501
 21
249.1568812609375
  0
LINE
  8
_0-8_会社ロゴ項目
  6
CONTINUOUS
 62
    7
 10
432.42024126562501
 20
249.1568812609375
 11
432.52600626562497
 21
250.13046526093748
  0
LINE
  8
_0-8_会社ロゴ項目
  6
CONTINUOUS
 62
    7
 10
432.52600626562497
 20
250.13046526093748
 11
432.61075526562496
 21
251.12540926093749
  0
LINE
  8
_0-8_会社ロゴ項目
  6
CONTINUOUS
 62
    7
 10
432.61075526562496
 20
251.12540926093749
 11
432.63211526562498
 21
252.1413682609375
  0
LINE
  8
_0-8_会社ロゴ項目
  6
CONTINUOUS
 62
    7
 10
451.70313026562496
 20
122.22009926093747
 11
472.02299226562496
 21
122.22009926093747
  0
LINE
  8
_0-8_会社ロゴ項目
  6
CONTINUOUS
 62
    7
 10
451.70313026562496
 20
122.22009926093747
 11
436.52679526562497
 21
133.86211026093747
  0
LINE
  8
_0-8_会社ロゴ項目
  6
CONTINUOUS
 62
    7
 10
436.52679526562497
 20
133.86211026093747
 11
438.36819926562498
 21
131.49119526093747
  0
LINE
  8
_0-8_会社ロゴ項目
  6
CONTINUOUS
 62
    7
 10
436.52679526562497
 20
133.86211026093747
 11
439.299408265625
 21
132.71902726093748
  0
LINE
  8
_0-8_会社ロゴ項目
  6
CONTINUOUS
 62
    7
 10
432.63211526562498
 20
126.7073362609375
 11
432.63211526562498
 21
110.04926626093749
  0
LINE
  8
_0-8_会社ロゴ項目
  6
CONTINUOUS
 62
    7
 10
392.62697726562499
 20
126.7073362609375
 11
392.62697726562499
 21
110.04926626093749
  0
LINE
  8
_0-8_会社ロゴ項目
  6
CONTINUOUS
 62
    7
 10
439.53229626562495
 20
149.60998626093749
 11
438.93974026562501
 21
149.54659626093749
  0
LINE
  8
_0-8_会社ロゴ項目
  6
CONTINUOUS
 62
    7
 10
438.93974026562501
 20
149.54659626093749
 11
438.38921426562496
 21
149.37709826093749
  0
LINE
  8
_0-8_会社ロゴ項目
  6
CONTINUOUS
 62
    7
 10
438.38921426562496
 20
149.37709826093749
 11
437.86004726562498
 21
149.10183526093749
  0
LINE
  8
_0-8_会社ロゴ項目
  6
CONTINUOUS
 62
    7
 10
437.86004726562498
 20
149.10183526093749
 11
437.415630265625
 21
148.72115126093749
  0
LINE
  8
_0-8_会社ロゴ項目
  6
CONTINUOUS
 62
    7
 10
437.415630265625
 20
148.72115126093749
 11
437.03460226562498
 21
148.27639026093749
  0
LINE
  8
_0-8_会社ロゴ項目
  6
CONTINUOUS
 62
    7
 10
437.03460226562498
 20
148.27639026093749
 11
436.75933926562499
 21
147.76858326093748
  0
LINE
  8
_0-8_会社ロゴ項目
  6
CONTINUOUS
 62
    7
 10
436.75933926562499
 20
147.76858326093748
 11
436.590185265625
 21
147.19704126093748
  0
LINE
  8
_0-8_会社ロゴ項目
  6
CONTINUOUS
 62
    7
 10
436.590185265625
 20
147.19704126093748
 11
436.52679526562497
 21
146.60448526093748
  0
LINE
  8
_0-8_会社ロゴ項目
  6
CONTINUOUS
 62
    7
 10
388.732296265625
 20
146.60448526093748
 11
388.66873426562495
 21
147.19704126093748
  0
LINE
  8
_0-8_会社ロゴ項目
  6
CONTINUOUS
 62
    7
 10
388.66873426562495
 20
147.19704126093748
 11
388.49940826562499
 21
147.76858326093748
  0
LINE
  8
_0-8_会社ロゴ項目
  6
CONTINUOUS
 62
    7
 10
388.49940826562499
 20
147.76858326093748
 11
388.22431726562496
 21
148.27639026093749
  0
LINE
  8
_0-8_会社ロゴ項目
  6
CONTINUOUS
 62
    7
 10
388.22431726562496
 20
148.27639026093749
 11
387.843289265625
 21
148.72115126093749
  0
LINE
  8
_0-8_会社ロゴ項目
  6
CONTINUOUS
 62
    7
 10
387.843289265625
 20
148.72115126093749
 11
387.39887226562496
 21
149.10183526093749
  0
LINE
  8
_0-8_会社ロゴ項目
  6
CONTINUOUS
 62
    7
 10
387.39887226562496
 20
149.10183526093749
 11
386.86970526562499
 21
149.37709826093749
  0
LINE
  8
_0-8_会社ロゴ項目
  6
CONTINUOUS
 62
    7
 10
386.86970526562499
 20
149.37709826093749
 11
386.31935126562496
 21
149.54659626093749
  0
LINE
  8
_0-8_会社ロゴ項目
  6
CONTINUOUS
 62
    7
 10
386.31935126562496
 20
149.54659626093749
 11
385.72662326562499
 21
149.60998626093749
  0
LINE
  8
_0-8_会社ロゴ項目
  6
CONTINUOUS
 62
    7
 10
390.21403226562495
 20
129.71283726093748
 11
390.21403226562495
 21
128.21008626093749
  0
LINE
  8
_0-8_会社ロゴ項目
  6
CONTINUOUS
 62
    7
 10
435.04505926562496
 20
129.71283726093748
 11
435.04505926562496
 21
128.21008626093749
  0
LINE
  8
_0-8_会社ロゴ項目
  6
CONTINUOUS
 62
    7
 10
428.67370026562497
 20
149.60998626093749
 11
429.18185126562497
 21
149.65236126093748
  0
LINE
  8
_0-8_会社ロゴ項目
  6
CONTINUOUS
 62
    7
 10
429.18185126562497
 20
149.65236126093748
 11
429.68965926562498
 21
149.75812526093748
  0
LINE
  8
_0-8_会社ロゴ項目
  6
CONTINUOUS
 62
    7
 10
429.68965926562498
 20
149.75812526093748
 11
430.15543526562499
 21
149.94863926093748
  0
LINE
  8
_0-8_会社ロゴ項目
  6
CONTINUOUS
 62
    7
 10
430.15543526562499
 20
149.94863926093748
 11
430.55747826562498
 21
150.18152726093749
  0
LINE
  8
_0-8_会社ロゴ項目
  6
CONTINUOUS
 62
    7
 10
430.55747826562498
 20
150.18152726093749
 11
430.89613126562494
 21
150.49916526093747
  0
LINE
  8
_0-8_会社ロゴ項目
  6
CONTINUOUS
 62
    7
 10
430.89613126562494
 20
150.49916526093747
 11
431.12901926562495
 21
150.8378182609375
  0
LINE
  8
_0-8_会社ロゴ項目
  6
CONTINUOUS
 62
    7
 10
431.12901926562495
 20
150.8378182609375
 11
431.29851826562498
 21
151.21850126093747
  0
LINE
  8
_0-8_会社ロゴ項目
  6
CONTINUOUS
 62
    7
 10
431.29851826562498
 20
151.21850126093747
 11
431.34089326562497
 21
151.62088826093748
  0
LINE
  8
_0-8_会社ロゴ項目
  6
CONTINUOUS
 62
    7
 10
426.53601826562499
 20
151.62088826093748
 11
426.57839326562498
 21
151.21850126093747
  0
LINE
  8
_0-8_会社ロゴ項目
  6
CONTINUOUS
 62
    7
 10
426.57839326562498
 20
151.21850126093747
 11
426.684157265625
 21
150.8378182609375
  0
LINE
  8
_0-8_会社ロゴ項目
  6
CONTINUOUS
 62
    7
 10
426.684157265625
 20
150.8378182609375
 11
426.89568626562493
 21
150.49916526093747
  0
LINE
  8
_0-8_会社ロゴ項目
  6
CONTINUOUS
 62
    7
 10
426.89568626562493
 20
150.49916526093747
 11
427.17094926562498
 21
150.18152726093749
  0
LINE
  8
_0-8_会社ロゴ項目
  6
CONTINUOUS
 62
    7
 10
427.17094926562498
 20
150.18152726093749
 11
427.48858726562497
 21
149.94863926093748
  0
LINE
  8
_0-8_会社ロゴ項目
  6
CONTINUOUS
 62
    7
 10
427.48858726562497
 20
149.94863926093748
 11
427.84825526562497
 21
149.75812526093748
  0
LINE
  8
_0-8_会社ロゴ項目
  6
CONTINUOUS
 62
    7
 10
427.84825526562497
 20
149.75812526093748
 11
428.25029826562496
 21
149.65236126093748
  0
LINE
  8
_0-8_会社ロゴ項目
  6
CONTINUOUS
 62
    7
 10
428.25029826562496
 20
149.65236126093748
 11
428.67370026562497
 21
149.60998626093749
  0
LINE
  8
_0-8_会社ロゴ項目
  6
CONTINUOUS
 62
    7
 10
393.91819926562499
 20
151.62088826093748
 11
393.96040126562497
 21
151.21850126093747
  0
LINE
  8
_0-8_会社ロゴ項目
  6
CONTINUOUS
 62
    7
 10
393.96040126562497
 20
151.21850126093747
 11
394.12972726562498
 21
150.8378182609375
  0
LINE
  8
_0-8_会社ロゴ項目
  6
CONTINUOUS
 62
    7
 10
394.12972726562498
 20
150.8378182609375
 11
394.36261626562498
 21
150.49916526093747
  0
LINE
  8
_0-8_会社ロゴ項目
  6
CONTINUOUS
 62
    7
 10
394.36261626562498
 20
150.49916526093747
 11
394.701269265625
 21
150.18152726093749
  0
LINE
  8
_0-8_会社ロゴ項目
  6
CONTINUOUS
 62
    7
 10
394.701269265625
 20
150.18152726093749
 11
395.10348426562496
 21
149.94863926093748
  0
LINE
  8
_0-8_会社ロゴ項目
  6
CONTINUOUS
 62
    7
 10
395.10348426562496
 20
149.94863926093748
 11
395.56908826562494
 21
149.75812526093748
  0
LINE
  8
_0-8_会社ロゴ項目
  6
CONTINUOUS
 62
    7
 10
395.56908826562494
 20
149.75812526093748
 11
396.07706826562497
 21
149.65236126093748
  0
LINE
  8
_0-8_会社ロゴ項目
  6
CONTINUOUS
 62
    7
 10
396.07706826562497
 20
149.65236126093748
 11
396.58504726562501
 21
149.60998626093749
  0
LINE
  8
_0-8_会社ロゴ項目
  6
CONTINUOUS
 62
    7
 10
396.58504726562501
 20
149.60998626093749
 11
397.00844926562496
 21
149.65236126093748
  0
LINE
  8
_0-8_会社ロゴ項目
  6
CONTINUOUS
 62
    7
 10
397.00844926562496
 20
149.65236126093748
 11
397.41066426562497
 21
149.75812526093748
  0
LINE
  8
_0-8_会社ロゴ項目
  6
CONTINUOUS
 62
    7
 10
397.41066426562497
 20
149.75812526093748
 11
397.77050426562499
 21
149.94863926093748
  0
LINE
  8
_0-8_会社ロゴ項目
  6
CONTINUOUS
 62
    7
 10
397.77050426562499
 20
149.94863926093748
 11
398.10915726562496
 21
150.18152726093749
  0
LINE
  8
_0-8_会社ロゴ項目
  6
CONTINUOUS
 62
    7
 10
398.10915726562496
 20
150.18152726093749
 11
398.36306126562499
 21
150.49916526093747
  0
LINE
  8
_0-8_会社ロゴ項目
  6
CONTINUOUS
 62
    7
 10
398.36306126562499
 20
150.49916526093747
 11
398.553575265625
 21
150.8378182609375
  0
LINE
  8
_0-8_会社ロゴ項目
  6
CONTINUOUS
 62
    7
 10
398.553575265625
 20
150.8378182609375
 11
398.68069926562498
 21
151.21850126093747
  0
LINE
  8
_0-8_会社ロゴ項目
  6
CONTINUOUS
 62
    7
 10
398.68069926562498
 20
151.21850126093747
 11
398.72290126562496
 21
151.62088826093748
  0
LINE
  8
_0-8_会社ロゴ項目
  6
CONTINUOUS
 62
    7
 10
393.91819926562499
 20
151.62088826093748
 11
393.91819926562499
 21
171.17869526093747
  0
LINE
  8
_0-8_会社ロゴ項目
  6
CONTINUOUS
 62
    7
 10
431.34089326562497
 20
151.62088826093748
 11
431.34089326562497
 21
171.17869526093747
  0
LINE
  8
_0-8_会社ロゴ項目
  6
CONTINUOUS
 62
    7
 10
426.53601826562499
 20
151.62088826093748
 11
426.53601826562499
 21
171.17869526093747
  0
LINE
  8
_0-8_会社ロゴ項目
  6
CONTINUOUS
 62
    7
 10
398.72290126562496
 20
151.62088826093748
 11
398.72290126562496
 21
171.17869526093747
  0
LINE
  8
_0-8_会社ロゴ項目
  6
CONTINUOUS
 62
    7
 10
377.87387226562498
 20
151.62088826093748
 11
377.91607526562495
 21
151.21850126093747
  0
LINE
  8
_0-8_会社ロゴ項目
  6
CONTINUOUS
 62
    7
 10
377.91607526562495
 20
151.21850126093747
 11
378.06421426562497
 21
150.8378182609375
  0
LINE
  8
_0-8_会社ロゴ項目
  6
CONTINUOUS
 62
    7
 10
378.06421426562497
 20
150.8378182609375
 11
378.27591526562497
 21
150.49916526093747
  0
LINE
  8
_0-8_会社ロゴ項目
  6
CONTINUOUS
 62
    7
 10
378.27591526562497
 20
150.49916526093747
 11
378.57236526562497
 21
150.18152726093749
  0
LINE
  8
_0-8_会社ロゴ項目
  6
CONTINUOUS
 62
    7
 10
378.57236526562497
 20
150.18152726093749
 11
378.93220526562499
 21
149.94863926093748
  0
LINE
  8
_0-8_会社ロゴ項目
  6
CONTINUOUS
 62
    7
 10
378.93220526562499
 20
149.94863926093748
 11
379.33424826562498
 21
149.75812526093748
  0
LINE
  8
_0-8_会社ロゴ項目
  6
CONTINUOUS
 62
    7
 10
379.33424826562498
 20
149.75812526093748
 11
379.77883826562498
 21
149.65236126093748
  0
LINE
  8
_0-8_会社ロゴ項目
  6
CONTINUOUS
 62
    7
 10
379.77883826562498
 20
149.65236126093748
 11
380.24444226562497
 21
149.60998626093749
  0
LINE
  8
_0-8_会社ロゴ項目
  6
CONTINUOUS
 62
    7
 10
445.01447726562498
 20
149.60998626093749
 11
445.48025426562498
 21
149.65236126093748
  0
LINE
  8
_0-8_会社ロゴ項目
  6
CONTINUOUS
 62
    7
 10
445.48025426562498
 20
149.65236126093748
 11
445.92467126562497
 21
149.75812526093748
  0
LINE
  8
_0-8_会社ロゴ項目
  6
CONTINUOUS
 62
    7
 10
445.92467126562497
 20
149.75812526093748
 11
446.32671426562496
 21
149.94863926093748
  0
LINE
  8
_0-8_会社ロゴ項目
  6
CONTINUOUS
 62
    7
 10
446.32671426562496
 20
149.94863926093748
 11
446.686726265625
 21
150.18152726093749
  0
LINE
  8
_0-8_会社ロゴ項目
  6
CONTINUOUS
 62
    7
 10
446.686726265625
 20
150.18152726093749
 11
446.98300426562497
 21
150.49916526093747
  0
LINE
  8
_0-8_会社ロゴ項目
  6
CONTINUOUS
 62
    7
 10
446.98300426562497
 20
150.49916526093747
 11
447.19453326562495
 21
150.8378182609375
  0
LINE
  8
_0-8_会社ロゴ項目
  6
CONTINUOUS
 62
    7
 10
447.19453326562495
 20
150.8378182609375
 11
447.32165726562499
 21
151.21850126093747
  0
LINE
  8
_0-8_会社ロゴ項目
  6
CONTINUOUS
 62
    7
 10
447.32165726562499
 20
151.21850126093747
 11
447.38504726562496
 21
151.62088826093748
  0
LINE
  8
_0-8_会社ロゴ項目
  6
CONTINUOUS
 62
    7
 10
380.24444226562497
 20
149.60998626093749
 11
380.24444226562497
 21
171.17869526093747
  0
LINE
  8
_0-8_会社ロゴ項目
  6
CONTINUOUS
 62
    7
 10
445.01447726562498
 20
149.60998626093749
 11
445.01447726562498
 21
171.17869526093747
  0
LINE
  8
_0-8_会社ロゴ項目
  6
CONTINUOUS
 62
    7
 10
380.24444226562497
 20
149.60998626093749
 11
445.01447726562498
 21
149.60998626093749
  0
LINE
  8
_0-8_会社ロゴ項目
  6
CONTINUOUS
 62
    7
 10
436.52679526562497
 20
131.19457326093749
 11
388.732296265625
 21
131.19457326093749
  0
LINE
  8
_0-8_会社ロゴ項目
  6
CONTINUOUS
 62
    7
 10
388.732296265625
 20
144.91087626093747
 11
436.52679526562497
 21
144.91087626093747
  0
LINE
  8
_0-8_会社ロゴ項目
  6
CONTINUOUS
 62
    7
 10
388.732296265625
 20
131.19457326093749
 11
390.21403226562495
 21
129.71283726093748
  0
LINE
  8
_0-8_会社ロゴ項目
  6
CONTINUOUS
 62
    7
 10
435.04505926562496
 20
129.71283726093748
 11
436.52679526562497
 21
131.19457326093749
  0
LINE
  8
_0-8_会社ロゴ項目
  6
CONTINUOUS
 62
    7
 10
390.21403226562495
 20
129.71283726093748
 11
435.04505926562496
 21
129.71283726093748
  0
LINE
  8
_0-8_会社ロゴ項目
  6
CONTINUOUS
 62
    7
 10
435.04505926562496
 20
129.71283726093748
 11
435.04505926562496
 21
144.91087626093747
  0
LINE
  8
_0-8_会社ロゴ項目
  6
CONTINUOUS
 62
    7
 10
390.21403226562495
 20
129.71283726093748
 11
390.21403226562495
 21
144.91087626093747
  0
LINE
  8
_0-8_会社ロゴ項目
  6
CONTINUOUS
 62
    7
 10
390.21403226562495
 20
128.21008626093749
 11
435.04505926562496
 21
128.21008626093749
  0
LINE
  8
_0-8_会社ロゴ項目
  6
CONTINUOUS
 62
    7
 10
447.38504726562496
 20
171.17869526093747
 11
447.38504726562496
 21
151.62088826093748
  0
LINE
  8
_0-8_会社ロゴ項目
  6
CONTINUOUS
 62
    7
 10
377.87387226562498
 20
171.17869526093747
 11
377.87387226562498
 21
151.62088826093748
  0
LINE
  8
_0-8_会社ロゴ項目
  6
CONTINUOUS
 62
    7
 10
436.52679526562497
 20
131.19457326093749
 11
436.52679526562497
 21
146.60448526093748
  0
LINE
  8
_0-8_会社ロゴ項目
  6
CONTINUOUS
 62
    7
 10
388.732296265625
 20
131.19457326093749
 11
388.732296265625
 21
146.60448526093748
  0
LINE
  8
_0-8_会社ロゴ項目
  6
CONTINUOUS
 62
    7
 10
377.87387226562498
 20
171.17869526093747
 11
447.38504726562496
 21
171.17869526093747
  0
LINE
  8
_0-6_図面
  6
CONTINUOUS
 62
    7
 10
117.60736578731277
 20
198.62601254311403
 11
231.97268453791085
 21
198.62601254311403
  0
ARC
  8
_0-8_会社ロゴ項目
  6
CONTINUOUS
 62
    7
 10
138.30282709352693
 20
130.30837447092108
 40
7.4290113253502019
 50
180
 51
270.08399912501113
  0
LINE
  8
_0-3_デ__タ_003
  6
CONTINUOUS
 62
    7
 10
130.87381576817674
 20
130.30837447092108
 11
130.73786927028976
 21
180.55521877868904
  0
ARC
  8
_0-8_会社ロゴ項目
  6
CONTINUOUS
 62
    7
 10
213.80795805502387
 20
130.30837447092108
 40
7.4290113253502019
 50
269.91600087498887
 51
0
  0
LINE
  8
_0-8_会社ロゴ項目
  6
CONTINUOUS
 62
    7
 10
221.23696312099702
 20
130.30606566408883
 11
221.37319395324567
 21
180.55521877868904
  0
LINE
  8
_0-8_会社ロゴ項目
  6
CONTINUOUS
 62
    7
 10
146.78596435670622
 20
117.04217793002597
 11
205.24765489000592
 21
117.04217793002597
  0
LINE
  8
_0-8_会社ロゴ項目
  6
CONTINUOUS
 62
    7
 10
203.78638974760437
 20
116.52023444795562
 11
148.24765365750707
 21
115.05726335433236
  0
LINE
  8
_0-8_会社ロゴ項目
  6
CONTINUOUS
 62
    7
 10
203.78638974760437
 20
113.80425996567313
 11
148.24765365750707
 21
112.34128887204987
  0
LINE
  8
_0-8_会社ロゴ項目
  6
CONTINUOUS
 62
    7
 10
203.78638974760437
 20
111.50651833242763
 11
148.24765365750707
 21
110.04354723880438
  0
LINE
  8
_0-8_会社ロゴ項目
  6
CONTINUOUS
 62
    7
 10
203.78638974760437
 20
109.207930353696
 11
148.24765365750707
 21
107.74495926007275
  0
LINE
  8
_0-8_会社ロゴ項目
  6
CONTINUOUS
 62
    7
 10
203.78638974760437
 20
107.32757275652189
 11
148.24765365750707
 21
105.86460166289864
  0
LINE
  8
_0-8_会社ロゴ項目
  6
CONTINUOUS
 62
    7
 10
203.78638974760437
 20
105.02983359075598
 11
148.24765365750707
 21
103.56686249713273
  0
LINE
  8
_0-8_会社ロゴ項目
  6
CONTINUOUS
 62
    7
 10
203.78638974760437
 20
98.344881237531709
 11
148.24765365750707
 21
96.881910143908456
  0
LINE
  8
_0-8_会社ロゴ項目
  6
CONTINUOUS
 62
    7
 10
203.890947358228
 20
102.73484862454033
 11
148.24765365750707
 21
101.26912333136683
  0
LINE
  8
_0-8_会社ロゴ項目
  6
CONTINUOUS
 62
    7
 10
203.89141407898921
 20
100.33171102643381
 11
148.24765365750707
 21
98.865973439156576
  0
LINE
  8
_0-8_会社ロゴ項目
  6
CONTINUOUS
 62
    7
 10
130.73786927028976
 20
180.55521877868904
 11
221.37319395324567
 21
180.55521877868904
  0
TEXT
  8
_f-0____-240
 62
    7
 10
217.60468319888736
 20
47.116416426957869
 40
6.9233972105152191
 41
1.0000000000000056
 50
0
  1
ゴミカゴ付ストレイナー
  0
LINE
  8
_0-6_図面
  6
CONTINUOUS
 62
    7
 10
226.85740329063239
 20
180.55521877868904
 11
226.85740329063239
 21
198.62601254311403
  0
LINE
  8
_0-6_図面
  6
CONTINUOUS
 62
    7
 10
221.37319395324567
 20
180.55521877868904
 11
226.85740329063239
 21
180.55521877868904
  0
LINE
  8
_0-6_図面
  6
CONTINUOUS
 62
    7
 10
125.17621595607969
 20
180.55521877868904
 11
130.73786927028976
 21
180.55521877868904
  0
LINE
  8
_0-6_図面
  6
CONTINUOUS
 62
    7
 10
125.17621595607969
 20
198.62601254311403
 11
125.17621595607969
 21
180.55521877868904
  0
LINE
  8
_0-8_会社ロゴ項目
  6
CONTINUOUS
 62
    7
 10
174.01680962335604
 20
198.62601254311403
 11
174.01680962335604
 21
181.62601254311403
  0
LINE
  8
_0-8_会社ロゴ項目
  6
CONTINUOUS
 62
    7
 10
174.01680962335604
 20
181.62601254311403
 11
178.01680962335604
 21
181.62601254311403
  0
LINE
  8
_0-8_会社ロゴ項目
  6
CONTINUOUS
 62
    7
 10
178.01680962335604
 20
198.62601254311403
 11
178.01680962335604
 21
181.62601254311403
  0
TEXT
  8
_0-1_DEFPOINTS
 62
    7
 10
354.63523144952057
 20
146.19439076093749
 40
7
 41
1
 50
90
  1
43
  0
LINE
  8
_0-1_DEFPOINTS
  6
CONTINUOUS
 62
    7
 10
354.63523144952057
 20
171.17869526093747
 11
354.63523144952057
 21
128.21008626093749
  0
LINE
  8
_0-1_DEFPOINTS
  6
CONTINUOUS
 62
    7
 10
354.63523144952057
 20
171.17869526093747
 11
354.28793509418671
 21
169.20907975491306
  0
LINE
  8
_0-1_DEFPOINTS
  6
CONTINUOUS
 62
    7
 10
354.63523144952057
 20
171.17869526093747
 11
354.98252780485439
 21
169.20907975491306
  0
LINE
  8
_0-1_DEFPOINTS
  6
CONTINUOUS
 62
    7
 10
354.63523144952057
 20
128.21008626093749
 11
354.98252780485439
 21
130.1797017669619
  0
LINE
  8
_0-1_DEFPOINTS
  6
CONTINUOUS
 62
    7
 10
354.63523144952057
 20
128.21008626093749
 11
354.28793509418671
 21
130.1797017669619
  0
LINE
  8
_0-1_DEFPOINTS
  6
CONTINUOUS
 62
    7
 10
392.62697726562499
 20
110.04926626093749
 11
394.5965927716494
 21
109.70196990560363
  0
LINE
  8
_0-1_DEFPOINTS
  6
CONTINUOUS
 62
    7
 10
392.62697726562499
 20
110.04926626093749
 11
394.5965927716494
 21
110.39656261627135
  0
LINE
  8
_0-1_DEFPOINTS
  6
CONTINUOUS
 62
    7
 10
432.63211526562498
 20
110.04926626093749
 11
430.66249975960056
 21
110.39656261627135
  0
LINE
  8
_0-1_DEFPOINTS
  6
CONTINUOUS
 62
    7
 10
432.63211526562498
 20
110.04926626093749
 11
430.66249975960056
 21
109.70196990560363
  0
LINE
  8
_0-1_DEFPOINTS
  6
CONTINUOUS
 62
    7
 10
432.63211526562498
 20
110.04926626093749
 11
392.62697726562499
 21
110.04926626093749
  0
TEXT
  8
_0-1_DEFPOINTS
 62
    7
 10
453.53852363059053
 20
122.38595588110756
 40
7
 41
1
 50
0
  1
G1 1/2
  0
LINE
  8
_0-8_会社ロゴ項目
  6
CONTINUOUS
 62
    7
 10
377.87387226562498
 20
192.96614316912991
 11
380.773609265625
 21
192.1830721691299
  0
LINE
  8
_0-8_会社ロゴ項目
  6
CONTINUOUS
 62
    7
 10
377.87387226562498
 20
192.96614316912991
 11
380.773609265625
 21
193.72819816912991
  0
LINE
  8
_0-8_会社ロゴ項目
  6
CONTINUOUS
 62
    7
 10
447.38504726562496
 20
192.96614316912991
 11
444.485310265625
 21
193.72819816912991
  0
LINE
  8
_0-8_会社ロゴ項目
  6
CONTINUOUS
 62
    7
 10
447.38504726562496
 20
192.96614316912991
 11
444.485310265625
 21
192.1830721691299
  0
TEXT
  8
_0-1_DEFPOINTS
 62
    7
 10
405.62945976562497
 20
192.96614316912991
 40
7
 41
1
 50
0
  1
69.5
  0
LINE
  8
_0-8_会社ロゴ項目
  6
CENTER2
 62
    7
 10
371.164032265625
 20
252.1413682609375
 11
454.09505926562497
 21
252.1413682609375
  0
LINE
  8
_0-8_会社ロゴ項目
  6
CENTER2
 62
    7
 10
412.62954626562498
 20
210.67585426093748
 11
412.62954626562498
 21
293.56450726093749
  0
LINE
  8
_0-8_会社ロゴ項目
  6
CENTER2
 62
    7
 10
412.62954626562498
 20
177.93108326093747
 11
412.62954626562498
 21
123.46894626093749
  0
LINE
  8
_f-0____-240
  6
CONTINUOUS
 62
    7
 10
332.94133166738555
 20
95.731090231143895
 11
492.31776086386441
 21
95.731090231143895
  0
TEXT
  8
_0-1_DEFPOINTS
 62
    7
 10
405.07032585765444
 20
110.41297718345562
 40
7
 41
1
 50
0
  1
φ40
  0
LINE
  8
_0-8_会社ロゴ項目
  6
CONTINUOUS
 62
    7
 10
377.87387226562498
 20
192.96614316912991
 11
447.38504726562496
 21
192.96614316912991
  0
LINE
  8
_f-0____-240
  6
CONTINUOUS
 62
    7
 10
332.94133166738555
 20
322.37022118628784
 11
332.94133166738555
 21
95.731090231143895
  0
LINE
  8
_f-0____-240
  6
CONTINUOUS
 62
    7
 10
492.31776086386441
 20
322.37022118628789
 11
492.31776086386441
 21
95.731090231143895
  0
LINE
  8
_f-0____-240
  6
CONTINUOUS
 62
    7
 10
332.94133166738555
 20
322.3702211980526
 11
377.56596855917951
 21
322.3702211980526
  0
LINE
  8
_f-0____-240
  6
CONTINUOUS
 62
    7
 10
448.35028228466967
 20
322.3702211980526
 11
492.31776086386441
 21
322.3702211980526
  0
TEXT
  8
_f-0____-240
 62
    7
 10
381.12954626562498
 20
318.8702211980526
 40
7
 41
1
 50
0
  1
同梱変換アダプター
  0
LINE
  8
_0-8_会社ロゴ項目
  6
CONTINUOUS
 62
    7
 10
377.87387226562498
 20
299.68990032942514
 11
380.773609265625
 21
298.90682932942514
  0
LINE
  8
_0-8_会社ロゴ項目
  6
CONTINUOUS
 62
    7
 10
377.87387226562498
 20
299.68990032942514
 11
380.773609265625
 21
300.45195532942512
  0
LINE
  8
_0-8_会社ロゴ項目
  6
CONTINUOUS
 62
    7
 10
447.38504726562496
 20
299.68990032942514
 11
444.485310265625
 21
300.45195532942512
  0
LINE
  8
_0-8_会社ロゴ項目
  6
CONTINUOUS
 62
    7
 10
447.38504726562496
 20
299.68990032942514
 11
444.485310265625
 21
298.90682932942514
  0
LINE
  8
_0-8_会社ロゴ項目
  6
CONTINUOUS
 62
    7
 10
377.87387226562498
 20
299.68990032942514
 11
447.38504726562496
 21
299.68990032942514
  0
TEXT
  8
_0-1_DEFPOINTS
 62
    7
 10
405.62945976562497
 20
299.68990032942514
 40
7
 41
1
 50
0
  1
69.5
  0
LINE
  8
_0-8_会社ロゴ項目
  6
CONTINUOUS
 62
    7
 10
377.87387226562498
 20
264.49031923138591
 11
377.87387226562498
 21
299.68990032942514
  0
LINE
  8
_0-8_会社ロゴ項目
  6
CONTINUOUS
 62
    7
 10
447.38504726562496
 20
264.88247609413099
 11
447.38504726562496
 21
299.68990032942514
  0
LINE
  8
_0-1_DEFPOINTS
  6
CONTINUOUS
 62
    7
 10
354.63523144952057
 20
171.17869526093747
 11
376.37112226562499
 21
171.17869526093747
  0
LINE
  8
_0-1_DEFPOINTS
  6
CONTINUOUS
 62
    7
 10
354.63523144952057
 20
128.21008626093749
 11
376.37112226562499
 21
128.21008626093749
  0
LINE
  8
_0-8_会社ロゴ項目
  6
CONTINUOUS
 62
    7
 10
377.87387226562498
 20
172.68144526093749
 11
377.87387226562498
 21
192.96614316912991
  0
LINE
  8
_0-8_会社ロゴ項目
  6
CONTINUOUS
 62
    7
 10
447.38504726562496
 20
172.68144526093749
 11
447.38504726562496
 21
192.96614316912991
  0
TEXT
  8
_f-0____-240
 62
    7
 10
366.58083694629431
 20
37.715316159599638
 40
6.9233972105152475
 41
1.0000000000000038
 50
0
  1
19/12/19
  0
ENDSEC
  0
EOF
