  0
SECTION
  2
HEADER
  9
$ACADVER
  1
AC1009
  9
$INSBASE
 10
0
 20
0
 30
0
  9
$EXTMIN
 10
0
 20
0
  9
$EXTMAX
 10
2970
 20
2100
  9
$LIMMIN
 10
0
 20
0
  9
$LIMMAX
 10
2970
 20
2100
  9
$LTSCALE
 40
10
  0
ENDSEC
  0
SECTION
  2
TABLES
  0
TABLE
  2
LTYPE
 70
     9
  0
LTYPE
  2
CONTINUOUS
 70
    64
  3
実線
 72
    65
 73
     0
 40
0.0
  0
LTYPE
  2
DASHED1
 70
    64
  3
--  --  --  --  --  --  --  --  
 72
    65
 73
     2
 40
2.5
 49
1.25
 49
-1.25
  0
LTYPE
  2
DASHED2
 70
    64
  3
----    ----    ----    ----    
 72
    65
 73
     2
 40
5.0
 49
2.5
 49
-2.5
  0
LTYPE
  2
DASHED3
 70
    64
  3
------  ------  ------  ------  
 72
    65
 73
     2
 40
5.0
 49
3.75
 49
-1.25
  0
LTYPE
  2
CENTER1
 70
    64
  3
----- - ----- - ----- - ----- - 
 72
    65
 73
     4
 40
10.0
 49
6.25
 49
-1.25
 49
1.25
 49
-1.25
  0
LTYPE
  2
CENTER2
 70
    64
  3
----------  --  ----------  --  
 72
    65
 73
     4
 40
20.0
 49
12.5
 49
-2.5
 49
2.5
 49
-2.5
  0
LTYPE
  2
PHANTOM1
 70
    64
  3
--- - - --- - - --- - - --- - - 
 72
    65
 73
     6
 40
10.0
 49
3.25
 49
-1.25
 49
1.25
 49
-1.25
 49
1.25
 49
-1.25
  0
LTYPE
  2
PHANTOM2
 70
    64
  3
--------  -  -  --------  -  -  
 72
    65
 73
     6
 40
20.0
 49
10.0
 49
-2.5
 49
1.25
 49
-2.5
 49
1.25
 49
-2.5
  0
LTYPE
  2
DOT
 70
    64
  3
-   -   -   -   -   -   -   -   
 72
    65
 73
     2
 40
2.5
 49
0.625
 49
-1.875
  0
LTYPE
  2
DUMMY
 70
    64
  3
ダミー
 72
    65
 73
     0
 40
0.0
  0
LTYPE
  2
RAND1
 70
    64
  3
ランダム線1
 72
    65
 73
     4
 40
10.0
 49
1.0
 49
-2.0
 49
3.0
 49
-4.0
  0
LTYPE
  2
RAND2
 70
    64
  3
ランダム線2
 72
    65
 73
     4
 40
14.0
 49
2.0
 49
-3.0
 49
4.0
 49
-5.0
  0
LTYPE
  2
RAND3
 70
    64
  3
ランダム線3
 72
    65
 73
     4
 40
18.0
 49
3.0
 49
-4.0
 49
5.0
 49
-6.0
  0
LTYPE
  2
RAND4
 70
    64
  3
ランダム線4
 72
    65
 73
     4
 40
22.0
 49
4.0
 49
-5.0
 49
6.0
 49
-7.0
  0
LTYPE
  2
RAND5
 70
    64
  3
ランダム線5
 72
    65
 73
     4
 40
26.0
 49
5.0
 49
-6.0
 49
7.0
 49
-8.0
  0
LTYPE
  2
LONG1
 70
    64
  3
----------  --  ----------  --  
 72
    65
 73
     4
 40
40.0
 49
32.5
 49
-2.5
 49
2.5
 49
-2.5
  0
LTYPE
  2
LONG2
 70
    64
  3
--------  -  -  --------  -  -  
 72
    65
 73
     6
 40
40.0
 49
30.0
 49
-2.5
 49
1.25
 49
-2.5
 49
1.25
 49
-2.5
  0
LTYPE
  2
LONG3
 70
    64
  3
+++++++++++++++..+++++++++++++++
 72
    65
 73
     2
 40
40.0
 49
37.5
 49
-2.5
  0
LTYPE
  2
LONG4
 70
    64
  3
+++++++++++++++..+++++++++++++++
 72
    65
 73
     2
 40
80.0
 49
75.0
 49
-5.0
  0
LTYPE
  2
LONG5
 70
    64
  3
----------  --  ----------  --  
 72
    65
 73
     4
 40
60.0
 49
37.5
 49
-7.5
 49
7.5
 49
-7.5
  0
LTYPE
  2
dashed
 70
   64
  3
-------   -------------   ------
 72
   65
 73
    2
 40
7.5
 49
6
 49
-1.5
  0
LTYPE
  2
dashed_spaced
 70
   64
  3
----        --------        ----
 72
   65
 73
    2
 40
12
 49
6
 49
-6
  0
LTYPE
  2
long_dashed_dotted
 70
   64
  3
------------- --- --------------
 72
   65
 73
    4
 40
15.25
 49
12
 49
-1.5
 49
0.25
 49
-1.5
  0
LTYPE
  2
long_dashed_double-dotted
 70
   64
  3
----------- --- --- ------------
 72
   65
 73
    6
 40
17
 49
12
 49
-1.5
 49
0.25
 49
-1.5
 49
0.25
 49
-1.5
  0
LTYPE
  2
long_dashed_triplicate-dotted
 70
   64
  3
--------- --- --- --- ----------
 72
   65
 73
    8
 40
18.75
 49
12
 49
-1.5
 49
0.25
 49
-1.5
 49
0.25
 49
-1.5
 49
0.25
 49
-1.5
  0
LTYPE
  2
dotted
 70
   64
  3
   -       -       -       -    
 72
   65
 73
    2
 40
1.75
 49
0.25
 49
-1.5
  0
LTYPE
  2
chain
 70
   64
  3
-------------- -- --------------
 72
   65
 73
    4
 40
18.5
 49
12
 49
-1.5
 49
3.5
 49
-1.5
  0
LTYPE
  2
chain_double_dash
 70
   64
  3
------------ -- -- -------------
 72
   65
 73
    6
 40
23.5
 49
12
 49
-1.5
 49
3.5
 49
-1.5
 49
3.5
 49
-1.5
  0
LTYPE
  2
dashed_dotted
 70
   64
  3
-----------     -     ----------
 72
   65
 73
    4
 40
9.25
 49
6
 49
-1.5
 49
0.25
 49
-1.5
  0
LTYPE
  2
double-dashed_dotted
 70
   64
  3
------   -----------   -   -----
 72
   65
 73
    6
 40
16.75
 49
6
 49
-1.5
 49
6
 49
-1.5
 49
0.25
 49
-1.5
  0
LTYPE
  2
dashed_double-dotted
 70
   64
  3
---------    -    -    ---------
 72
   65
 73
    6
 40
11
 49
6
 49
-1.5
 49
0.25
 49
-1.5
 49
0.25
 49
-1.5
  0
LTYPE
  2
double-dashed_double-dotted
 70
   64
  3
-----   ---------   -   -   ----
 72
   65
 73
    8
 40
18.5
 49
6
 49
-1.5
 49
6
 49
-1.5
 49
0.25
 49
-1.5
 49
0.25
 49
-1.5
  0
LTYPE
  2
dashed_triplicate-dotted
 70
   64
  3
-------    -    -    -    ------
 72
   65
 73
    8
 40
12.75
 49
6
 49
-1.5
 49
0.25
 49
-1.5
 49
0.25
 49
-1.5
 49
0.25
 49
-1.5
  0
LTYPE
  2
double-dashed_triplicate-dotted
 70
   64
  3
-----  ---------  -  -  -  -----
 72
   65
 73
   10
 40
20.25
 49
6
 49
-1.5
 49
6
 49
-1.5
 49
0.25
 49
-1.5
 49
0.25
 49
-1.5
 49
0.25
 49
-1.5
  0
LTYPE
  2
undefined
 70
   64
  3
--------------------------------
 72
   65
 73
    0
 40
0
  0
LTYPE
  2
_
 70
   64
  3
                                
 72
   65
 73
    0
 40
0
  0
LTYPE
  2
__18
 70
   64
  3
                                
 72
   65
 73
    0
 40
0
  0
LTYPE
  2
__19
 70
   64
  3
                                
 72
   65
 73
    0
 40
0
  0
LTYPE
  2
__20
 70
   64
  3
                                
 72
   65
 73
    0
 40
0
  0
LTYPE
  2
__21
 70
   64
  3
                                
 72
   65
 73
    0
 40
0
  0
LTYPE
  2
__22
 70
   64
  3
                                
 72
   65
 73
    0
 40
0
  0
LTYPE
  2
__23
 70
   64
  3
                                
 72
   65
 73
    0
 40
0
  0
LTYPE
  2
__24
 70
   64
  3
                                
 72
   65
 73
    0
 40
0
  0
LTYPE
  2
__25
 70
   64
  3
                                
 72
   65
 73
    0
 40
0
  0
LTYPE
  2
__26
 70
   64
  3
                                
 72
   65
 73
    0
 40
0
  0
LTYPE
  2
__27
 70
   64
  3
                                
 72
   65
 73
    0
 40
0
  0
LTYPE
  2
__28
 70
   64
  3
                                
 72
   65
 73
    0
 40
0
  0
LTYPE
  2
__29
 70
   64
  3
                                
 72
   65
 73
    0
 40
0
  0
LTYPE
  2
__30
 70
   64
  3
                                
 72
   65
 73
    0
 40
0
  0
LTYPE
  2
__31
 70
   64
  3
                                
 72
   65
 73
    0
 40
0
  0
LTYPE
  2
__32
 70
   64
  3
                                
 72
   65
 73
    0
 40
0
  0
ENDTAB
  0
TABLE
  2
STYLE
  5
3
100
AcDbSymbolTable
 70
     1
  0
STYLE
  5
10
100
AcDbSymbolTableRecord
100
AcDbTextStyleTableRecord
  2
STANDARD
 70
     0
 40
0.0
 41
1.0
 50
0.0
 71
     0
 42
0.2
  3
txt
  4
bigfont.shx
  0
STYLE
  5
26
100
AcDbSymbolTableRecord
100
AcDbTextStyleTableRecord
  2
TATEGAKI
 70
    68
 40
0.0
 41
1.0
 50
0.0
 71
     0
 42
1.0
  3
txt
  4
bigfont.shx
  0
ENDTAB
  0
TABLE
  2
LAYER
 70
    4
  0
LAYER
  2
_0-1_レイヤ___1
 70
   64
 62
    7
  6
CONTINUOUS
  0
LAYER
  2
_0-7_
 70
   64
 62
    7
  6
CONTINUOUS
  0
LAYER
  2
_f-0_
 70
   64
 62
    7
  6
CONTINUOUS
  0
LAYER
  2
ADD_LINE
 70
   64
 62
    7
  6
CONTINUOUS
  0
ENDTAB
  0
ENDSEC
  0
SECTION
  2
BLOCKS
  0
ENDSEC
  0
SECTION
  2
ENTITIES
  0
LINE
  8
_0-1_レイヤ___1
  6
CONTINUOUS
 62
    7
 10
602.98492500000009
 20
1543.4720400000001
 11
602.98492500000009
 21
1784.77341
  0
LINE
  8
_0-1_レイヤ___1
  6
CONTINUOUS
 62
    7
 10
602.98492500000009
 20
1784.77341
 11
603.83242500000028
 21
1792.3922400000001
  0
LINE
  8
_0-1_レイヤ___1
  6
CONTINUOUS
 62
    7
 10
603.83242500000028
 20
1792.3922400000001
 11
605.94943500000011
 21
1799.5890499999998
  0
LINE
  8
_0-1_レイヤ___1
  6
CONTINUOUS
 62
    7
 10
605.94943500000011
 20
1799.5890499999998
 11
609.33596500000021
 21
1805.9400800000001
  0
LINE
  8
_0-1_レイヤ___1
  6
CONTINUOUS
 62
    7
 10
609.33596500000021
 20
1805.9400800000001
 11
613.99200500000006
 21
1811.86565
  0
LINE
  8
_0-1_レイヤ___1
  6
CONTINUOUS
 62
    7
 10
613.99200500000006
 20
1811.86565
 11
619.91929500000015
 21
1816.52341
  0
LINE
  8
_0-1_レイヤ___1
  6
CONTINUOUS
 62
    7
 10
619.91929500000015
 20
1816.52341
 11
626.26860500000021
 21
1819.90994
  0
LINE
  8
_0-1_レイヤ___1
  6
CONTINUOUS
 62
    7
 10
626.26860500000021
 20
1819.90994
 11
633.46541500000012
 21
1822.4489800000001
  0
LINE
  8
_0-1_レイヤ___1
  6
CONTINUOUS
 62
    7
 10
633.46541500000012
 20
1822.4489800000001
 11
641.08596500000021
 21
1822.87273
  0
LINE
  8
_0-1_レイヤ___1
  6
CONTINUOUS
 62
    7
 10
641.08596500000021
 20
1822.87273
 11
1022.0859650000001
 21
1822.87273
  0
LINE
  8
_0-1_レイヤ___1
  6
CONTINUOUS
 62
    7
 10
1022.0859650000001
 20
1822.87273
 11
1403.0859650000002
 21
1822.87273
  0
LINE
  8
_0-1_レイヤ___1
  6
CONTINUOUS
 62
    7
 10
1403.0859650000002
 20
1822.87273
 11
1410.2827649999999
 21
1822.4489800000001
  0
LINE
  8
_0-1_レイヤ___1
  6
CONTINUOUS
 62
    7
 10
1410.2827649999999
 20
1822.4489800000001
 11
1417.4795750000001
 21
1819.90994
  0
LINE
  8
_0-1_レイヤ___1
  6
CONTINUOUS
 62
    7
 10
1417.4795750000001
 20
1819.90994
 11
1423.8288850000001
 21
1816.52341
  0
LINE
  8
_0-1_レイヤ___1
  6
CONTINUOUS
 62
    7
 10
1423.8288850000001
 20
1816.52341
 11
1429.7561650000002
 21
1811.86565
  0
LINE
  8
_0-1_レイヤ___1
  6
CONTINUOUS
 62
    7
 10
1429.7561650000002
 20
1811.86565
 11
1434.4122150000001
 21
1805.9400800000001
  0
LINE
  8
_0-1_レイヤ___1
  6
CONTINUOUS
 62
    7
 10
1434.4122150000001
 20
1805.9400800000001
 11
1437.7987450000001
 21
1799.5890499999998
  0
LINE
  8
_0-1_レイヤ___1
  6
CONTINUOUS
 62
    7
 10
1437.7987450000001
 20
1799.5890499999998
 11
1440.3395049999999
 21
1792.3922400000001
  0
LINE
  8
_0-1_レイヤ___1
  6
CONTINUOUS
 62
    7
 10
1440.3395049999999
 20
1792.3922400000001
 11
1440.7615250000001
 21
1784.77341
  0
LINE
  8
_0-1_レイヤ___1
  6
CONTINUOUS
 62
    7
 10
1440.7615250000001
 20
1784.77341
 11
1440.7615250000001
 21
1543.4720400000001
  0
LINE
  8
_0-1_レイヤ___1
  6
CONTINUOUS
 62
    7
 10
1440.7615250000001
 20
1543.4720400000001
 11
1440.7615250000001
 21
1302.17238
  0
LINE
  8
_0-1_レイヤ___1
  6
CONTINUOUS
 62
    7
 10
1440.7615250000001
 20
1302.17238
 11
1440.3395049999999
 21
1294.5535500000001
  0
LINE
  8
_0-1_レイヤ___1
  6
CONTINUOUS
 62
    7
 10
1440.3395049999999
 20
1294.5535500000001
 11
1437.7987450000001
 21
1287.3567500000001
  0
LINE
  8
_0-1_レイヤ___1
  6
CONTINUOUS
 62
    7
 10
1437.7987450000001
 20
1287.3567500000001
 11
1434.4122150000001
 21
1281.0057099999999
  0
LINE
  8
_0-1_レイヤ___1
  6
CONTINUOUS
 62
    7
 10
1434.4122150000001
 20
1281.0057099999999
 11
1429.7561650000002
 21
1275.08015
  0
LINE
  8
_0-1_レイヤ___1
  6
CONTINUOUS
 62
    7
 10
1429.7561650000002
 20
1275.08015
 11
1423.8288850000001
 21
1270.42238
  0
LINE
  8
_0-1_レイヤ___1
  6
CONTINUOUS
 62
    7
 10
1423.8288850000001
 20
1270.42238
 11
1417.4795750000001
 21
1267.03585
  0
LINE
  8
_0-1_レイヤ___1
  6
CONTINUOUS
 62
    7
 10
1417.4795750000001
 20
1267.03585
 11
1410.2827649999999
 21
1264.4968199999998
  0
LINE
  8
_0-1_レイヤ___1
  6
CONTINUOUS
 62
    7
 10
1410.2827649999999
 20
1264.4968199999998
 11
1403.0859650000002
 21
1264.0730699999999
  0
LINE
  8
_0-1_レイヤ___1
  6
CONTINUOUS
 62
    7
 10
1403.0859650000002
 20
1264.0730699999999
 11
1022.0859650000001
 21
1264.0730699999999
  0
LINE
  8
_0-1_レイヤ___1
  6
CONTINUOUS
 62
    7
 10
1022.0859650000001
 20
1264.0730699999999
 11
641.08596500000021
 21
1264.0730699999999
  0
LINE
  8
_0-1_レイヤ___1
  6
CONTINUOUS
 62
    7
 10
641.08596500000021
 20
1264.0730699999999
 11
633.46541500000012
 21
1264.4968199999998
  0
LINE
  8
_0-1_レイヤ___1
  6
CONTINUOUS
 62
    7
 10
633.46541500000012
 20
1264.4968199999998
 11
626.26860500000021
 21
1267.03585
  0
LINE
  8
_0-1_レイヤ___1
  6
CONTINUOUS
 62
    7
 10
626.26860500000021
 20
1267.03585
 11
619.91929500000015
 21
1270.42238
  0
LINE
  8
_0-1_レイヤ___1
  6
CONTINUOUS
 62
    7
 10
619.91929500000015
 20
1270.42238
 11
613.99200500000006
 21
1275.08015
  0
LINE
  8
_0-1_レイヤ___1
  6
CONTINUOUS
 62
    7
 10
613.99200500000006
 20
1275.08015
 11
609.33596500000021
 21
1281.0057099999999
  0
LINE
  8
_0-1_レイヤ___1
  6
CONTINUOUS
 62
    7
 10
609.33596500000021
 20
1281.0057099999999
 11
605.94943500000011
 21
1287.3567500000001
  0
LINE
  8
_0-1_レイヤ___1
  6
CONTINUOUS
 62
    7
 10
605.94943500000011
 20
1287.3567500000001
 11
603.83242500000028
 21
1294.5535500000001
  0
LINE
  8
_0-1_レイヤ___1
  6
CONTINUOUS
 62
    7
 10
603.83242500000028
 20
1294.5535500000001
 11
602.98492500000009
 21
1302.17238
  0
LINE
  8
_0-1_レイヤ___1
  6
CONTINUOUS
 62
    7
 10
602.98492500000009
 20
1302.17238
 11
602.98492500000009
 21
1543.4720400000001
  0
LINE
  8
_0-1_レイヤ___1
  6
CONTINUOUS
 62
    7
 10
638.54520500000012
 20
1511.3000099999999
 11
638.54520500000012
 21
1687.83015
  0
LINE
  8
_0-1_レイヤ___1
  6
CONTINUOUS
 62
    7
 10
638.54520500000012
 20
1687.83015
 11
638.96895500000016
 21
1693.3336899999999
  0
LINE
  8
_0-1_レイヤ___1
  6
CONTINUOUS
 62
    7
 10
638.96895500000016
 20
1693.3336899999999
 11
640.66221500000006
 21
1698.8355100000001
  0
LINE
  8
_0-1_レイヤ___1
  6
CONTINUOUS
 62
    7
 10
640.66221500000006
 20
1698.8355100000001
 11
643.20297500000015
 21
1703.4932800000001
  0
LINE
  8
_0-1_レイヤ___1
  6
CONTINUOUS
 62
    7
 10
643.20297500000015
 20
1703.4932800000001
 11
646.58950500000014
 21
1707.72558
  0
LINE
  8
_0-1_レイヤ___1
  6
CONTINUOUS
 62
    7
 10
646.58950500000014
 20
1707.72558
 11
650.82180500000027
 21
1711.1121000000001
  0
LINE
  8
_0-1_レイヤ___1
  6
CONTINUOUS
 62
    7
 10
650.82180500000027
 20
1711.1121000000001
 11
655.4795750000003
 21
1713.6528599999999
  0
LINE
  8
_0-1_レイヤ___1
  6
CONTINUOUS
 62
    7
 10
655.4795750000003
 20
1713.6528599999999
 11
660.98311500000023
 21
1715.3461300000001
  0
LINE
  8
_0-1_レイヤ___1
  6
CONTINUOUS
 62
    7
 10
660.98311500000023
 20
1715.3461300000001
 11
666.4849250000002
 21
1715.7698700000001
  0
LINE
  8
_0-1_レイヤ___1
  6
CONTINUOUS
 62
    7
 10
666.4849250000002
 20
1715.7698700000001
 11
1022.0859650000001
 21
1715.7698700000001
  0
LINE
  8
_0-1_レイヤ___1
  6
CONTINUOUS
 62
    7
 10
1022.0859650000001
 20
1715.7698700000001
 11
1377.2615250000001
 21
1715.7698700000001
  0
LINE
  8
_0-1_レイヤ___1
  6
CONTINUOUS
 62
    7
 10
1377.2615250000001
 20
1715.7698700000001
 11
1382.765065
 21
1715.3461300000001
  0
LINE
  8
_0-1_レイヤ___1
  6
CONTINUOUS
 62
    7
 10
1382.765065
 20
1715.3461300000001
 11
1388.2686050000002
 21
1713.6528599999999
  0
LINE
  8
_0-1_レイヤ___1
  6
CONTINUOUS
 62
    7
 10
1388.2686050000002
 20
1713.6528599999999
 11
1392.926375
 21
1711.1121000000001
  0
LINE
  8
_0-1_レイヤ___1
  6
CONTINUOUS
 62
    7
 10
1392.926375
 20
1711.1121000000001
 11
1397.1586750000001
 21
1707.72558
  0
LINE
  8
_0-1_レイヤ___1
  6
CONTINUOUS
 62
    7
 10
1397.1586750000001
 20
1707.72558
 11
1400.5452050000004
 21
1703.4932800000001
  0
LINE
  8
_0-1_レイヤ___1
  6
CONTINUOUS
 62
    7
 10
1400.5452050000004
 20
1703.4932800000001
 11
1403.0859650000002
 21
1698.8355100000001
  0
LINE
  8
_0-1_レイヤ___1
  6
CONTINUOUS
 62
    7
 10
1403.0859650000002
 20
1698.8355100000001
 11
1404.779225
 21
1693.3336899999999
  0
LINE
  8
_0-1_レイヤ___1
  6
CONTINUOUS
 62
    7
 10
1404.779225
 20
1693.3336899999999
 11
1405.2029750000002
 21
1687.83015
  0
LINE
  8
_0-1_レイヤ___1
  6
CONTINUOUS
 62
    7
 10
1405.2029750000002
 20
1687.83015
 11
1405.2029750000002
 21
1511.3000099999999
  0
LINE
  8
_0-1_レイヤ___1
  6
CONTINUOUS
 62
    7
 10
1405.2029750000002
 20
1511.3000099999999
 11
1405.2029750000002
 21
1334.3461300000001
  0
LINE
  8
_0-1_レイヤ___1
  6
CONTINUOUS
 62
    7
 10
1405.2029750000002
 20
1334.3461300000001
 11
1404.779225
 21
1328.8425900000002
  0
LINE
  8
_0-1_レイヤ___1
  6
CONTINUOUS
 62
    7
 10
1404.779225
 20
1328.8425900000002
 11
1403.0859650000002
 21
1323.7627900000002
  0
LINE
  8
_0-1_レイヤ___1
  6
CONTINUOUS
 62
    7
 10
1403.0859650000002
 20
1323.7627900000002
 11
1400.5452050000004
 21
1319.1067499999999
  0
LINE
  8
_0-1_レイヤ___1
  6
CONTINUOUS
 62
    7
 10
1400.5452050000004
 20
1319.1067499999999
 11
1397.1586750000001
 21
1314.87273
  0
LINE
  8
_0-1_レイヤ___1
  6
CONTINUOUS
 62
    7
 10
1397.1586750000001
 20
1314.87273
 11
1392.926375
 21
1311.0624499999999
  0
LINE
  8
_0-1_レイヤ___1
  6
CONTINUOUS
 62
    7
 10
1392.926375
 20
1311.0624499999999
 11
1388.2686050000002
 21
1308.52341
  0
LINE
  8
_0-1_レイヤ___1
  6
CONTINUOUS
 62
    7
 10
1388.2686050000002
 20
1308.52341
 11
1382.765065
 21
1306.8301500000002
  0
LINE
  8
_0-1_レイヤ___1
  6
CONTINUOUS
 62
    7
 10
1382.765065
 20
1306.8301500000002
 11
1377.2615250000001
 21
1306.4064000000003
  0
LINE
  8
_0-1_レイヤ___1
  6
CONTINUOUS
 62
    7
 10
1377.2615250000001
 20
1306.4064000000003
 11
1022.0859650000001
 21
1306.4064000000003
  0
LINE
  8
_0-1_レイヤ___1
  6
CONTINUOUS
 62
    7
 10
1022.0859650000001
 20
1306.4064000000003
 11
666.4849250000002
 21
1306.4064000000003
  0
LINE
  8
_0-1_レイヤ___1
  6
CONTINUOUS
 62
    7
 10
666.4849250000002
 20
1306.4064000000003
 11
660.98311500000023
 21
1306.8301500000002
  0
LINE
  8
_0-1_レイヤ___1
  6
CONTINUOUS
 62
    7
 10
660.98311500000023
 20
1306.8301500000002
 11
655.4795750000003
 21
1308.52341
  0
LINE
  8
_0-1_レイヤ___1
  6
CONTINUOUS
 62
    7
 10
655.4795750000003
 20
1308.52341
 11
650.82180500000027
 21
1311.0624499999999
  0
LINE
  8
_0-1_レイヤ___1
  6
CONTINUOUS
 62
    7
 10
650.82180500000027
 20
1311.0624499999999
 11
646.58950500000014
 21
1314.87273
  0
LINE
  8
_0-1_レイヤ___1
  6
CONTINUOUS
 62
    7
 10
646.58950500000014
 20
1314.87273
 11
643.20297500000015
 21
1319.1067499999999
  0
LINE
  8
_0-1_レイヤ___1
  6
CONTINUOUS
 62
    7
 10
643.20297500000015
 20
1319.1067499999999
 11
640.66221500000006
 21
1323.7627900000002
  0
LINE
  8
_0-1_レイヤ___1
  6
CONTINUOUS
 62
    7
 10
640.66221500000006
 20
1323.7627900000002
 11
638.96895500000016
 21
1328.8425900000002
  0
LINE
  8
_0-1_レイヤ___1
  6
CONTINUOUS
 62
    7
 10
638.96895500000016
 20
1328.8425900000002
 11
638.54520500000012
 21
1334.3461300000001
  0
LINE
  8
_0-1_レイヤ___1
  6
CONTINUOUS
 62
    7
 10
638.54520500000012
 20
1334.3461300000001
 11
638.54520500000012
 21
1511.3000099999999
  0
LINE
  8
_0-1_レイヤ___1
  6
CONTINUOUS
 62
    7
 10
1171.5221450000001
 20
1568.87273
 11
1203.2721450000001
 21
1568.87273
  0
LINE
  8
_0-1_レイヤ___1
  6
CONTINUOUS
 62
    7
 10
1213.855485
 20
1568.87273
 11
1217.2420050000001
 21
1568.87273
  0
LINE
  8
_0-1_レイヤ___1
  6
CONTINUOUS
 62
    7
 10
1266.7721450000001
 20
1568.87273
 11
1270.1586750000001
 21
1568.87273
  0
LINE
  8
_0-1_レイヤ___1
  6
CONTINUOUS
 62
    7
 10
1277.3554850000003
 20
1568.87273
 11
1309.105485
 21
1568.87273
  0
LINE
  8
_0-1_レイヤ___1
  6
CONTINUOUS
 62
    7
 10
1319.688815
 20
1568.87273
 11
1323.0753450000002
 21
1568.87273
  0
LINE
  8
_0-1_レイヤ___1
  6
CONTINUOUS
 62
    7
 10
1330.2721450000001
 20
1568.87273
 11
1346.3590250000002
 21
1568.87273
  0
LINE
  8
_0-1_レイヤ___1
  6
CONTINUOUS
 62
    7
 10
1258.7295750000001
 20
1656.50217
 11
1258.7295750000001
 21
1624.7521699999998
  0
LINE
  8
_0-1_レイヤ___1
  6
CONTINUOUS
 62
    7
 10
1258.7295750000001
 20
1614.16884
 11
1258.7295750000001
 21
1610.7823099999998
  0
LINE
  8
_0-1_レイヤ___1
  6
CONTINUOUS
 62
    7
 10
1258.7295750000001
 20
1561.25217
 11
1258.7295750000001
 21
1557.86565
  0
LINE
  8
_0-1_レイヤ___1
  6
CONTINUOUS
 62
    7
 10
1258.7295750000001
 20
1550.6688399999998
 11
1258.7295750000001
 21
1518.91884
  0
LINE
  8
_0-1_レイヤ___1
  6
CONTINUOUS
 62
    7
 10
1258.7295750000001
 20
1508.3355099999999
 11
1258.7295750000001
 21
1504.9489800000001
  0
LINE
  8
_0-1_レイヤ___1
  6
CONTINUOUS
 62
    7
 10
1258.7295750000001
 20
1497.75217
 11
1258.7295750000001
 21
1481.6670199999999
  0
LINE
  8
_0-1_レイヤ___1
  6
CONTINUOUS
 62
    7
 10
1287.0930450000003
 20
1770.8035500000001
 11
1299.7916650000002
 21
1770.8035500000001
  0
LINE
  8
_0-1_レイヤ___1
  6
CONTINUOUS
 62
    7
 10
1304.0256850000003
 20
1770.8035500000001
 11
1305.2952050000001
 21
1770.8035500000001
  0
LINE
  8
_0-1_レイヤ___1
  6
CONTINUOUS
 62
    7
 10
1308.2597050000002
 20
1770.8035500000001
 11
1309.529225
 21
1770.8035500000001
  0
LINE
  8
_0-1_レイヤ___1
  6
CONTINUOUS
 62
    7
 10
1312.4920050000003
 20
1770.8035500000001
 11
1325.1923550000004
 21
1770.8035500000001
  0
LINE
  8
_0-1_レイヤ___1
  6
CONTINUOUS
 62
    7
 10
1329.4263750000002
 20
1770.8035500000001
 11
1330.6958950000001
 21
1770.8035500000001
  0
LINE
  8
_0-1_レイヤ___1
  6
CONTINUOUS
 62
    7
 10
1333.6586750000001
 20
1770.8035500000001
 11
1334.9281950000002
 21
1770.8035500000001
  0
LINE
  8
_0-1_レイヤ___1
  6
CONTINUOUS
 62
    7
 10
1337.8926950000002
 20
1770.8035500000001
 11
1350.5930450000003
 21
1770.8035500000001
  0
LINE
  8
_0-1_レイヤ___1
  6
CONTINUOUS
 62
    7
 10
1354.8253450000002
 20
1770.8035500000001
 11
1356.094865
 21
1770.8035500000001
  0
LINE
  8
_0-1_レイヤ___1
  6
CONTINUOUS
 62
    7
 10
1359.0593650000003
 20
1770.8035500000001
 11
1360.3288850000001
 21
1770.8035500000001
  0
LINE
  8
_0-1_レイヤ___1
  6
CONTINUOUS
 62
    7
 10
1363.2916650000002
 20
1770.8035500000001
 11
1367.1019450000003
 21
1770.8035500000001
  0
LINE
  8
_0-1_レイヤ___1
  6
CONTINUOUS
 62
    7
 10
1326.8856150000001
 20
1731.0092499999998
 11
1326.8856150000001
 21
1743.7095999999999
  0
LINE
  8
_0-1_レイヤ___1
  6
CONTINUOUS
 62
    7
 10
1326.8856150000001
 20
1747.94362
 11
1326.8856150000001
 21
1749.2131399999998
  0
LINE
  8
_0-1_レイヤ___1
  6
CONTINUOUS
 62
    7
 10
1326.8856150000001
 20
1752.1759199999999
 11
1326.8856150000001
 21
1753.4454400000002
  0
LINE
  8
_0-1_レイヤ___1
  6
CONTINUOUS
 62
    7
 10
1326.8856150000001
 20
1756.40994
 11
1326.8856150000001
 21
1769.1102900000001
  0
LINE
  8
_0-1_レイヤ___1
  6
CONTINUOUS
 62
    7
 10
1326.8856150000001
 20
1773.34259
 11
1326.8856150000001
 21
1774.6120999999998
  0
LINE
  8
_0-1_レイヤ___1
  6
CONTINUOUS
 62
    7
 10
1326.8856150000001
 20
1777.5766100000001
 11
1326.8856150000001
 21
1778.8461299999999
  0
LINE
  8
_0-1_レイヤ___1
  6
CONTINUOUS
 62
    7
 10
1326.8856150000001
 20
1781.80891
 11
1326.8856150000001
 21
1794.5092500000001
  0
LINE
  8
_0-1_レイヤ___1
  6
CONTINUOUS
 62
    7
 10
1326.8856150000001
 20
1798.7432799999999
 11
1326.8856150000001
 21
1800.0127900000002
  0
LINE
  8
_0-1_レイヤ___1
  6
CONTINUOUS
 62
    7
 10
1326.8856150000001
 20
1802.97558
 11
1326.8856150000001
 21
1804.2468199999998
  0
LINE
  8
_0-1_レイヤ___1
  6
CONTINUOUS
 62
    7
 10
1326.8856150000001
 20
1807.2095999999999
 11
1326.8856150000001
 21
1811.0198700000001
  0
LINE
  8
_0-1_レイヤ___1
  6
CONTINUOUS
 62
    7
 10
959.85548500000027
 20
1770.8035500000001
 11
947.1551350000002
 21
1770.8035500000001
  0
LINE
  8
_0-1_レイヤ___1
  6
CONTINUOUS
 62
    7
 10
942.92283500000008
 20
1770.8035500000001
 11
941.65159500000016
 21
1770.8035500000001
  0
LINE
  8
_0-1_レイヤ___1
  6
CONTINUOUS
 62
    7
 10
938.6888150000002
 20
1770.8035500000001
 11
937.41929500000015
 21
1770.8035500000001
  0
LINE
  8
_0-1_レイヤ___1
  6
CONTINUOUS
 62
    7
 10
917.52214500000025
 20
1770.8035500000001
 11
916.25262500000019
 21
1770.8035500000001
  0
LINE
  8
_0-1_レイヤ___1
  6
CONTINUOUS
 62
    7
 10
913.28812500000015
 20
1770.8035500000001
 11
912.01860500000009
 21
1770.8035500000001
  0
LINE
  8
_0-1_レイヤ___1
  6
CONTINUOUS
 62
    7
 10
909.05582500000014
 20
1770.8035500000001
 11
896.35548500000016
 21
1770.8035500000001
  0
LINE
  8
_0-1_レイヤ___1
  6
CONTINUOUS
 62
    7
 10
892.1214550000002
 20
1770.8035500000001
 11
890.85194500000011
 21
1770.8035500000001
  0
LINE
  8
_0-1_レイヤ___1
  6
CONTINUOUS
 62
    7
 10
887.88915500000019
 20
1770.8035500000001
 11
886.61964500000011
 21
1770.8035500000001
  0
LINE
  8
_0-1_レイヤ___1
  6
CONTINUOUS
 62
    7
 10
883.6551350000002
 20
1770.8035500000001
 11
879.84486500000014
 21
1770.8035500000001
  0
LINE
  8
_0-1_レイヤ___1
  6
CONTINUOUS
 62
    7
 10
920.06290500000023
 20
1731.0092499999998
 11
920.06290500000023
 21
1743.7095999999999
  0
LINE
  8
_0-1_レイヤ___1
  6
CONTINUOUS
 62
    7
 10
920.06290500000023
 20
1747.94362
 11
920.06290500000023
 21
1749.2131399999998
  0
LINE
  8
_0-1_レイヤ___1
  6
CONTINUOUS
 62
    7
 10
920.06290500000023
 20
1752.1759199999999
 11
920.06290500000023
 21
1753.4454400000002
  0
LINE
  8
_0-1_レイヤ___1
  6
CONTINUOUS
 62
    7
 10
920.06290500000023
 20
1773.34259
 11
920.06290500000023
 21
1774.6120999999998
  0
LINE
  8
_0-1_レイヤ___1
  6
CONTINUOUS
 62
    7
 10
920.06290500000023
 20
1777.5766100000001
 11
920.06290500000023
 21
1778.8461299999999
  0
LINE
  8
_0-1_レイヤ___1
  6
CONTINUOUS
 62
    7
 10
920.06290500000023
 20
1781.80891
 11
920.06290500000023
 21
1794.5092500000001
  0
LINE
  8
_0-1_レイヤ___1
  6
CONTINUOUS
 62
    7
 10
920.06290500000023
 20
1798.7432799999999
 11
920.06290500000023
 21
1800.0127900000002
  0
LINE
  8
_0-1_レイヤ___1
  6
CONTINUOUS
 62
    7
 10
920.06290500000023
 20
1802.97558
 11
920.06290500000023
 21
1804.2468199999998
  0
LINE
  8
_0-1_レイヤ___1
  6
CONTINUOUS
 62
    7
 10
920.06290500000023
 20
1807.2095999999999
 11
920.06290500000023
 21
1811.0198700000001
  0
LINE
  8
_0-1_レイヤ___1
  6
CONTINUOUS
 62
    7
 10
1326.8856150000001
 20
1770.8035500000001
 11
1295.1356150000001
 21
1770.8035500000001
  0
LINE
  8
_0-1_レイヤ___1
  6
CONTINUOUS
 62
    7
 10
1284.5522850000002
 20
1770.8035500000001
 11
1281.165755
 21
1770.8035500000001
  0
LINE
  8
_0-1_レイヤ___1
  6
CONTINUOUS
 62
    7
 10
1273.9689550000001
 20
1770.8035500000001
 11
1242.2189550000003
 21
1770.8035500000001
  0
LINE
  8
_0-1_レイヤ___1
  6
CONTINUOUS
 62
    7
 10
1231.6356150000001
 20
1770.8035500000001
 11
1228.2490850000002
 21
1770.8035500000001
  0
LINE
  8
_0-1_レイヤ___1
  6
CONTINUOUS
 62
    7
 10
1221.0522850000002
 20
1770.8035500000001
 11
1189.3022850000002
 21
1770.8035500000001
  0
LINE
  8
_0-1_レイヤ___1
  6
CONTINUOUS
 62
    7
 10
1178.7189550000003
 20
1770.8035500000001
 11
1175.3324250000001
 21
1770.8035500000001
  0
LINE
  8
_0-1_レイヤ___1
  6
CONTINUOUS
 62
    7
 10
1168.1356150000001
 20
1770.8035500000001
 11
1136.3856150000001
 21
1770.8035500000001
  0
LINE
  8
_0-1_レイヤ___1
  6
CONTINUOUS
 62
    7
 10
1125.8022850000002
 20
1770.8035500000001
 11
1122.415755
 21
1770.8035500000001
  0
LINE
  8
_0-1_レイヤ___1
  6
CONTINUOUS
 62
    7
 10
1115.2189550000001
 20
1770.8035500000001
 11
1083.4689550000003
 21
1770.8035500000001
  0
LINE
  8
_0-1_レイヤ___1
  6
CONTINUOUS
 62
    7
 10
1072.8856150000001
 20
1770.8035500000001
 11
1069.4990850000002
 21
1770.8035500000001
  0
LINE
  8
_0-1_レイヤ___1
  6
CONTINUOUS
 62
    7
 10
1062.3022850000002
 20
1770.8035500000001
 11
1030.5522850000002
 21
1770.8035500000001
  0
LINE
  8
_0-1_レイヤ___1
  6
CONTINUOUS
 62
    7
 10
1019.9689550000003
 20
1770.8035500000001
 11
1016.5824250000002
 21
1770.8035500000001
  0
LINE
  8
_0-1_レイヤ___1
  6
CONTINUOUS
 62
    7
 10
1009.3856150000001
 20
1770.8035500000001
 11
977.63561500000014
 21
1770.8035500000001
  0
LINE
  8
_0-1_レイヤ___1
  6
CONTINUOUS
 62
    7
 10
967.05228500000021
 20
1770.8035500000001
 11
963.6657550000001
 21
1770.8035500000001
  0
LINE
  8
_0-1_レイヤ___1
  6
CONTINUOUS
 62
    7
 10
956.46895500000016
 20
1770.8035500000001
 11
924.71895500000016
 21
1770.8035500000001
  0
LINE
  8
_0-1_レイヤ___1
  6
CONTINUOUS
 62
    7
 10
914.13561500000014
 20
1770.8035500000001
 11
910.74908500000015
 21
1770.8035500000001
  0
LINE
  8
_0-1_レイヤ___1
  6
CONTINUOUS
 62
    7
 10
903.5522850000001
 20
1770.8035500000001
 11
871.8022850000001
 21
1770.8035500000001
  0
LINE
  8
_0-1_レイヤ___1
  6
CONTINUOUS
 62
    7
 10
861.21895500000028
 20
1770.8035500000001
 11
857.83242500000017
 21
1770.8035500000001
  0
LINE
  8
_0-1_レイヤ___1
  6
CONTINUOUS
 62
    7
 10
850.63561500000014
 20
1770.8035500000001
 11
818.88561500000014
 21
1770.8035500000001
  0
LINE
  8
_0-1_レイヤ___1
  6
CONTINUOUS
 62
    7
 10
808.30228500000021
 20
1770.8035500000001
 11
804.9157550000001
 21
1770.8035500000001
  0
LINE
  8
_0-1_レイヤ___1
  6
CONTINUOUS
 62
    7
 10
797.71895500000016
 20
1770.8035500000001
 11
765.96895500000016
 21
1770.8035500000001
  0
LINE
  8
_0-1_レイヤ___1
  6
CONTINUOUS
 62
    7
 10
755.38561500000014
 20
1770.8035500000001
 11
751.99908500000015
 21
1770.8035500000001
  0
LINE
  8
_0-1_レイヤ___1
  6
CONTINUOUS
 62
    7
 10
1061.8785350000003
 20
1770.8035500000001
 11
1049.1781950000002
 21
1770.8035500000001
  0
LINE
  8
_0-1_レイヤ___1
  6
CONTINUOUS
 62
    7
 10
1044.9458950000003
 20
1770.8035500000001
 11
1043.6763750000002
 21
1770.8035500000001
  0
LINE
  8
_0-1_レイヤ___1
  6
CONTINUOUS
 62
    7
 10
1040.7118750000002
 20
1770.8035500000001
 11
1039.4423550000001
 21
1770.8035500000001
  0
LINE
  8
_0-1_レイヤ___1
  6
CONTINUOUS
 62
    7
 10
1019.5452050000001
 20
1770.8035500000001
 11
1018.2756850000001
 21
1770.8035500000001
  0
LINE
  8
_0-1_レイヤ___1
  6
CONTINUOUS
 62
    7
 10
1015.3129050000001
 20
1770.8035500000001
 11
1014.0416650000002
 21
1770.8035500000001
  0
LINE
  8
_0-1_レイヤ___1
  6
CONTINUOUS
 62
    7
 10
1011.0788850000001
 20
1770.8035500000001
 11
998.37853500000006
 21
1770.8035500000001
  0
LINE
  8
_0-1_レイヤ___1
  6
CONTINUOUS
 62
    7
 10
994.14623500000016
 20
1770.8035500000001
 11
992.87499500000013
 21
1770.8035500000001
  0
LINE
  8
_0-1_レイヤ___1
  6
CONTINUOUS
 62
    7
 10
989.91221500000006
 20
1770.8035500000001
 11
988.64269500000023
 21
1770.8035500000001
  0
LINE
  8
_0-1_レイヤ___1
  6
CONTINUOUS
 62
    7
 10
985.67819500000019
 20
1770.8035500000001
 11
981.86964500000022
 21
1770.8035500000001
  0
LINE
  8
_0-1_レイヤ___1
  6
CONTINUOUS
 62
    7
 10
1022.0859650000001
 20
1731.0092499999998
 11
1022.0859650000001
 21
1743.7095999999999
  0
LINE
  8
_0-1_レイヤ___1
  6
CONTINUOUS
 62
    7
 10
1022.0859650000001
 20
1747.94362
 11
1022.0859650000001
 21
1749.2131399999998
  0
LINE
  8
_0-1_レイヤ___1
  6
CONTINUOUS
 62
    7
 10
1022.0859650000001
 20
1752.1759199999999
 11
1022.0859650000001
 21
1753.4454400000002
  0
LINE
  8
_0-1_レイヤ___1
  6
CONTINUOUS
 62
    7
 10
1022.0859650000001
 20
1773.34259
 11
1022.0859650000001
 21
1774.6120999999998
  0
LINE
  8
_0-1_レイヤ___1
  6
CONTINUOUS
 62
    7
 10
1022.0859650000001
 20
1777.5766100000001
 11
1022.0859650000001
 21
1778.8461299999999
  0
LINE
  8
_0-1_レイヤ___1
  6
CONTINUOUS
 62
    7
 10
1022.0859650000001
 20
1781.80891
 11
1022.0859650000001
 21
1794.5092500000001
  0
LINE
  8
_0-1_レイヤ___1
  6
CONTINUOUS
 62
    7
 10
1022.0859650000001
 20
1798.7432799999999
 11
1022.0859650000001
 21
1800.0127900000002
  0
LINE
  8
_0-1_レイヤ___1
  6
CONTINUOUS
 62
    7
 10
1022.0859650000001
 20
1802.97558
 11
1022.0859650000001
 21
1804.2468199999998
  0
LINE
  8
_0-1_レイヤ___1
  6
CONTINUOUS
 62
    7
 10
1022.0859650000001
 20
1807.2095999999999
 11
1022.0859650000001
 21
1811.0198700000001
  0
LINE
  8
_0-1_レイヤ___1
  6
CONTINUOUS
 62
    7
 10
1163.901595
 20
1770.8035500000001
 11
1151.2029750000002
 21
1770.8035500000001
  0
LINE
  8
_0-1_レイヤ___1
  6
CONTINUOUS
 62
    7
 10
1146.9689550000001
 20
1770.8035500000001
 11
1145.6994350000002
 21
1770.8035500000001
  0
LINE
  8
_0-1_レイヤ___1
  6
CONTINUOUS
 62
    7
 10
1142.7349250000002
 20
1770.8035500000001
 11
1141.4654150000001
 21
1770.8035500000001
  0
LINE
  8
_0-1_レイヤ___1
  6
CONTINUOUS
 62
    7
 10
1138.5026250000001
 20
1770.8035500000001
 11
1125.8022850000002
 21
1770.8035500000001
  0
LINE
  8
_0-1_レイヤ___1
  6
CONTINUOUS
 62
    7
 10
1121.5682650000003
 20
1770.8035500000001
 11
1120.2987450000003
 21
1770.8035500000001
  0
LINE
  8
_0-1_レイヤ___1
  6
CONTINUOUS
 62
    7
 10
1117.3359650000002
 20
1770.8035500000001
 11
1116.0664450000002
 21
1770.8035500000001
  0
LINE
  8
_0-1_レイヤ___1
  6
CONTINUOUS
 62
    7
 10
1113.1019450000001
 20
1770.8035500000001
 11
1100.4015950000003
 21
1770.8035500000001
  0
LINE
  8
_0-1_レイヤ___1
  6
CONTINUOUS
 62
    7
 10
1096.1692950000001
 20
1770.8035500000001
 11
1094.8997750000001
 21
1770.8035500000001
  0
LINE
  8
_0-1_レイヤ___1
  6
CONTINUOUS
 62
    7
 10
1091.9352750000003
 20
1770.8035500000001
 11
1090.6657550000002
 21
1770.8035500000001
  0
LINE
  8
_0-1_レイヤ___1
  6
CONTINUOUS
 62
    7
 10
1087.7029750000002
 20
1770.8035500000001
 11
1083.892695
 21
1770.8035500000001
  0
LINE
  8
_0-1_レイヤ___1
  6
CONTINUOUS
 62
    7
 10
1123.685275
 20
1731.0092499999998
 11
1123.685275
 21
1743.7095999999999
  0
LINE
  8
_0-1_レイヤ___1
  6
CONTINUOUS
 62
    7
 10
1123.685275
 20
1747.94362
 11
1123.685275
 21
1749.2131399999998
  0
LINE
  8
_0-1_レイヤ___1
  6
CONTINUOUS
 62
    7
 10
1123.685275
 20
1752.1759199999999
 11
1123.685275
 21
1753.4454400000002
  0
LINE
  8
_0-1_レイヤ___1
  6
CONTINUOUS
 62
    7
 10
1123.685275
 20
1773.34259
 11
1123.685275
 21
1774.6120999999998
  0
LINE
  8
_0-1_レイヤ___1
  6
CONTINUOUS
 62
    7
 10
1123.685275
 20
1777.5766100000001
 11
1123.685275
 21
1778.8461299999999
  0
LINE
  8
_0-1_レイヤ___1
  6
CONTINUOUS
 62
    7
 10
1123.685275
 20
1781.80891
 11
1123.685275
 21
1794.5092500000001
  0
LINE
  8
_0-1_レイヤ___1
  6
CONTINUOUS
 62
    7
 10
1123.685275
 20
1798.7432799999999
 11
1123.685275
 21
1800.0127900000002
  0
LINE
  8
_0-1_レイヤ___1
  6
CONTINUOUS
 62
    7
 10
1123.685275
 20
1802.97558
 11
1123.685275
 21
1804.2468199999998
  0
LINE
  8
_0-1_レイヤ___1
  6
CONTINUOUS
 62
    7
 10
1123.685275
 20
1807.2095999999999
 11
1123.685275
 21
1811.0198700000001
  0
LINE
  8
_0-1_レイヤ___1
  6
CONTINUOUS
 62
    7
 10
757.07888500000013
 20
1770.8035500000001
 11
744.37853500000017
 21
1770.8035500000001
  0
LINE
  8
_0-1_レイヤ___1
  6
CONTINUOUS
 62
    7
 10
740.14623500000016
 20
1770.8035500000001
 11
738.87499500000013
 21
1770.8035500000001
  0
LINE
  8
_0-1_レイヤ___1
  6
CONTINUOUS
 62
    7
 10
735.91221500000017
 20
1770.8035500000001
 11
734.64269500000012
 21
1770.8035500000001
  0
LINE
  8
_0-1_レイヤ___1
  6
CONTINUOUS
 62
    7
 10
731.67819500000019
 20
1770.8035500000001
 11
718.97957500000018
 21
1770.8035500000001
  0
LINE
  8
_0-1_レイヤ___1
  6
CONTINUOUS
 62
    7
 10
714.74554500000011
 20
1770.8035500000001
 11
713.47603500000014
 21
1770.8035500000001
  0
LINE
  8
_0-1_レイヤ___1
  6
CONTINUOUS
 62
    7
 10
710.51152500000012
 20
1770.8035500000001
 11
709.24200500000006
 21
1770.8035500000001
  0
LINE
  8
_0-1_レイヤ___1
  6
CONTINUOUS
 62
    7
 10
706.27922500000011
 20
1770.8035500000001
 11
693.57888500000013
 21
1770.8035500000001
  0
LINE
  8
_0-1_レイヤ___1
  6
CONTINUOUS
 62
    7
 10
689.34486500000025
 20
1770.8035500000001
 11
688.0753450000002
 21
1770.8035500000001
  0
LINE
  8
_0-1_レイヤ___1
  6
CONTINUOUS
 62
    7
 10
685.11256500000013
 20
1770.8035500000001
 11
683.84304500000007
 21
1770.8035500000001
  0
LINE
  8
_0-1_レイヤ___1
  6
CONTINUOUS
 62
    7
 10
680.87853500000028
 20
1770.8035500000001
 11
677.06826500000011
 21
1770.8035500000001
  0
LINE
  8
_0-1_レイヤ___1
  6
CONTINUOUS
 62
    7
 10
716.86256500000013
 20
1731.0092499999998
 11
716.86256500000013
 21
1743.7095999999999
  0
LINE
  8
_0-1_レイヤ___1
  6
CONTINUOUS
 62
    7
 10
716.86256500000013
 20
1747.94362
 11
716.86256500000013
 21
1749.2131399999998
  0
LINE
  8
_0-1_レイヤ___1
  6
CONTINUOUS
 62
    7
 10
716.86256500000013
 20
1752.1759199999999
 11
716.86256500000013
 21
1753.4454400000002
  0
LINE
  8
_0-1_レイヤ___1
  6
CONTINUOUS
 62
    7
 10
716.86256500000013
 20
1773.34259
 11
716.86256500000013
 21
1774.6120999999998
  0
LINE
  8
_0-1_レイヤ___1
  6
CONTINUOUS
 62
    7
 10
716.86256500000013
 20
1777.5766100000001
 11
716.86256500000013
 21
1778.8461299999999
  0
LINE
  8
_0-1_レイヤ___1
  6
CONTINUOUS
 62
    7
 10
716.86256500000013
 20
1781.80891
 11
716.86256500000013
 21
1794.5092500000001
  0
LINE
  8
_0-1_レイヤ___1
  6
CONTINUOUS
 62
    7
 10
716.86256500000013
 20
1798.7432799999999
 11
716.86256500000013
 21
1800.0127900000002
  0
LINE
  8
_0-1_レイヤ___1
  6
CONTINUOUS
 62
    7
 10
716.86256500000013
 20
1802.97558
 11
716.86256500000013
 21
1804.2468199999998
  0
LINE
  8
_0-1_レイヤ___1
  6
CONTINUOUS
 62
    7
 10
716.86256500000013
 20
1807.2095999999999
 11
716.86256500000013
 21
1811.0198700000001
  0
LINE
  8
_0-1_レイヤ___1
  6
CONTINUOUS
 62
    7
 10
1258.7295750000001
 20
348.82660999999996
 11
1258.7295750000001
 21
361.52523000000002
  0
LINE
  8
_0-1_レイヤ___1
  6
CONTINUOUS
 62
    7
 10
1258.7295750000001
 20
365.75924999999995
 11
1258.7295750000001
 21
367.03048999999993
  0
LINE
  8
_0-1_レイヤ___1
  6
CONTINUOUS
 62
    7
 10
1258.7295750000001
 20
369.99327999999991
 11
1258.7295750000001
 21
371.26452
  0
LINE
  8
_0-1_レイヤ___1
  6
CONTINUOUS
 62
    7
 10
1258.7295750000001
 20
374.22730000000001
 11
1258.7295750000001
 21
386.92591999999991
  0
LINE
  8
_0-1_レイヤ___1
  6
CONTINUOUS
 62
    7
 10
1258.7295750000001
 20
391.15994000000001
 11
1258.7295750000001
 21
392.4311800000001
  0
LINE
  8
_0-1_レイヤ___1
  6
CONTINUOUS
 62
    7
 10
1258.7295750000001
 20
395.39397000000008
 11
1258.7295750000001
 21
396.66176000000007
  0
LINE
  8
_0-1_レイヤ___1
  6
CONTINUOUS
 62
    7
 10
1258.7295750000001
 20
399.62454000000008
 11
1258.7295750000001
 21
412.32661000000002
  0
LINE
  8
_0-1_レイヤ___1
  6
CONTINUOUS
 62
    7
 10
1258.7295750000001
 20
416.13688999999999
 11
1258.7295750000001
 21
416.98438000000004
  0
LINE
  8
_0-1_レイヤ___1
  6
CONTINUOUS
 62
    7
 10
1258.7295750000001
 20
333.16175999999996
 11
1258.7295750000001
 21
364.91175999999996
  0
LINE
  8
_0-1_レイヤ___1
  6
CONTINUOUS
 62
    7
 10
1258.7295750000001
 20
375.49509
 11
1258.7295750000001
 21
378.88161999999994
  0
LINE
  8
_0-1_レイヤ___1
  6
CONTINUOUS
 62
    7
 10
1258.7295750000001
 20
386.07843000000003
 11
1258.7295750000001
 21
417.82843000000003
  0
LINE
  8
_0-1_レイヤ___1
  6
CONTINUOUS
 62
    7
 10
1258.7295750000001
 20
428.41175999999996
 11
1258.7295750000001
 21
431.79828999999995
  0
LINE
  8
_0-1_レイヤ___1
  6
CONTINUOUS
 62
    7
 10
1258.7295750000001
 20
438.99509
 11
1258.7295750000001
 21
470.74509
  0
LINE
  8
_0-1_レイヤ___1
  6
CONTINUOUS
 62
    7
 10
1258.7295750000001
 20
481.32843000000003
 11
1258.7295750000001
 21
484.71496000000002
  0
LINE
  8
_0-1_レイヤ___1
  6
CONTINUOUS
 62
    7
 10
1258.7295750000001
 20
491.91175999999996
 11
1258.7295750000001
 21
523.66176000000007
  0
LINE
  8
_0-1_レイヤ___1
  6
CONTINUOUS
 62
    7
 10
1258.7295750000001
 20
534.24509
 11
1258.7295750000001
 21
537.63162
  0
LINE
  8
_0-1_レイヤ___1
  6
CONTINUOUS
 62
    7
 10
1258.7295750000001
 20
544.82843000000003
 11
1258.7295750000001
 21
576.57843000000003
  0
LINE
  8
_0-1_レイヤ___1
  6
CONTINUOUS
 62
    7
 10
1258.7295750000001
 20
582.08368999999993
 11
1258.7295750000001
 21
582.93118000000004
  0
LINE
  8
_0-1_レイヤ___1
  6
CONTINUOUS
 62
    7
 10
1022.0859650000001
 20
731.51814999999999
 11
1022.0859650000001
 21
744.22021999999993
  0
LINE
  8
_0-1_レイヤ___1
  6
CONTINUOUS
 62
    7
 10
1022.0859650000001
 20
748.45423999999991
 11
1022.0859650000001
 21
749.72204000000011
  0
LINE
  8
_0-1_レイヤ___1
  6
CONTINUOUS
 62
    7
 10
1022.0859650000001
 20
752.68482000000006
 11
1022.0859650000001
 21
753.95605999999998
  0
LINE
  8
_0-1_レイヤ___1
  6
CONTINUOUS
 62
    7
 10
1022.0859650000001
 20
756.91884000000005
 11
1022.0859650000001
 21
769.62090999999998
  0
LINE
  8
_0-1_レイヤ___1
  6
CONTINUOUS
 62
    7
 10
1022.0859650000001
 20
773.85148000000004
 11
1022.0859650000001
 21
775.12272999999993
  0
LINE
  8
_0-1_レイヤ___1
  6
CONTINUOUS
 62
    7
 10
1022.0859650000001
 20
778.08550999999989
 11
1022.0859650000001
 21
779.35675000000003
  0
LINE
  8
_0-1_レイヤ___1
  6
CONTINUOUS
 62
    7
 10
1022.0859650000001
 20
782.31952999999999
 11
1022.0859650000001
 21
795.01814999999988
  0
LINE
  8
_0-1_レイヤ___1
  6
CONTINUOUS
 62
    7
 10
1022.0859650000001
 20
795.44190000000003
 11
1022.0859650000001
 21
796.28939000000003
  0
LINE
  8
_0-1_レイヤ___1
  6
CONTINUOUS
 62
    7
 10
603.40867500000013
 20
753.53230999999994
 11
603.83242500000028
 21
755.65105000000005
  0
LINE
  8
_0-1_レイヤ___1
  6
CONTINUOUS
 62
    7
 10
603.83242500000028
 20
755.65105000000005
 11
605.10194500000011
 21
757.76633000000004
  0
LINE
  8
_0-1_レイヤ___1
  6
CONTINUOUS
 62
    7
 10
605.10194500000011
 20
757.76633000000004
 11
606.3714550000002
 21
759.45788000000005
  0
LINE
  8
_0-1_レイヤ___1
  6
CONTINUOUS
 62
    7
 10
606.3714550000002
 20
759.45788000000005
 11
607.64269500000012
 21
761.15285999999992
  0
LINE
  8
_0-1_レイヤ___1
  6
CONTINUOUS
 62
    7
 10
607.64269500000012
 20
761.15285999999992
 11
609.33596500000021
 21
762.42410000000007
  0
LINE
  8
_0-1_レイヤ___1
  6
CONTINUOUS
 62
    7
 10
609.33596500000021
 20
762.42410000000007
 11
611.45297500000015
 21
763.26814999999999
  0
LINE
  8
_0-1_レイヤ___1
  6
CONTINUOUS
 62
    7
 10
611.45297500000015
 20
763.26814999999999
 11
613.56826500000011
 21
763.69190000000003
  0
LINE
  8
_0-1_レイヤ___1
  6
CONTINUOUS
 62
    7
 10
613.56826500000011
 20
763.69190000000003
 11
615.68527500000016
 21
764.11564999999996
  0
LINE
  8
_0-1_レイヤ___1
  6
CONTINUOUS
 62
    7
 10
615.68527500000016
 20
764.11564999999996
 11
1428.0629050000002
 21
764.11564999999996
  0
LINE
  8
_0-1_レイヤ___1
  6
CONTINUOUS
 62
    7
 10
1428.0629050000002
 20
764.11564999999996
 11
1430.178195
 21
763.69190000000003
  0
LINE
  8
_0-1_レイヤ___1
  6
CONTINUOUS
 62
    7
 10
1430.178195
 20
763.69190000000003
 11
1432.2952050000001
 21
763.26814999999999
  0
LINE
  8
_0-1_レイヤ___1
  6
CONTINUOUS
 62
    7
 10
1432.2952050000001
 20
763.26814999999999
 11
1434.4122150000001
 21
762.42410000000007
  0
LINE
  8
_0-1_レイヤ___1
  6
CONTINUOUS
 62
    7
 10
1434.4122150000001
 20
762.42410000000007
 11
1436.1054850000003
 21
761.15285999999992
  0
LINE
  8
_0-1_レイヤ___1
  6
CONTINUOUS
 62
    7
 10
1436.1054850000003
 20
761.15285999999992
 11
1437.7987450000001
 21
759.45788000000005
  0
LINE
  8
_0-1_レイヤ___1
  6
CONTINUOUS
 62
    7
 10
1437.7987450000001
 20
759.45788000000005
 11
1439.0682650000003
 21
757.76633000000004
  0
LINE
  8
_0-1_レイヤ___1
  6
CONTINUOUS
 62
    7
 10
1439.0682650000003
 20
757.76633000000004
 11
1439.915755
 21
755.65105000000005
  0
LINE
  8
_0-1_レイヤ___1
  6
CONTINUOUS
 62
    7
 10
1439.915755
 20
755.65105000000005
 11
1440.3395049999999
 21
753.53230999999994
  0
LINE
  8
_0-1_レイヤ___1
  6
CONTINUOUS
 62
    7
 10
1440.3395049999999
 20
753.53230999999994
 11
1440.7615250000001
 21
750.5695300000001
  0
LINE
  8
_0-1_レイヤ___1
  6
CONTINUOUS
 62
    7
 10
1440.7615250000001
 20
750.5695300000001
 11
1440.7615250000001
 21
750.14578000000006
  0
LINE
  8
_0-1_レイヤ___1
  6
CONTINUOUS
 62
    7
 10
1440.7615250000001
 20
750.14578000000006
 11
1440.3395049999999
 21
750.14578000000006
  0
LINE
  8
_0-1_レイヤ___1
  6
CONTINUOUS
 62
    7
 10
1440.3395049999999
 20
750.14578000000006
 11
1022.0859650000001
 21
750.14578000000006
  0
LINE
  8
_0-1_レイヤ___1
  6
CONTINUOUS
 62
    7
 10
1022.0859650000001
 20
750.14578000000006
 11
603.40867500000013
 21
750.14578000000006
  0
LINE
  8
_0-1_レイヤ___1
  6
CONTINUOUS
 62
    7
 10
603.40867500000013
 20
750.14578000000006
 11
602.98492500000009
 21
750.14578000000006
  0
LINE
  8
_0-1_レイヤ___1
  6
CONTINUOUS
 62
    7
 10
602.98492500000009
 20
750.14578000000006
 11
602.98492500000009
 21
750.5695300000001
  0
LINE
  8
_0-1_レイヤ___1
  6
CONTINUOUS
 62
    7
 10
602.98492500000009
 20
750.5695300000001
 11
603.40867500000013
 21
753.53230999999994
  0
LINE
  8
_0-1_レイヤ___1
  6
CONTINUOUS
 62
    7
 10
671.98846500000013
 20
543.98437999999999
 11
671.98846500000013
 21
544.40467999999998
  0
LINE
  8
_0-1_レイヤ___1
  6
CONTINUOUS
 62
    7
 10
671.98846500000013
 20
544.40467999999998
 11
671.56644500000016
 21
544.40467999999998
  0
LINE
  8
_0-1_レイヤ___1
  6
CONTINUOUS
 62
    7
 10
671.56644500000016
 20
544.40467999999998
 11
671.56644500000016
 21
544.82843000000003
  0
LINE
  8
_0-1_レイヤ___1
  6
CONTINUOUS
 62
    7
 10
671.56644500000016
 20
544.82843000000003
 11
671.56644500000016
 21
545.25216999999998
  0
LINE
  8
_0-1_レイヤ___1
  6
CONTINUOUS
 62
    7
 10
671.56644500000016
 20
545.25216999999998
 11
671.56644500000016
 21
545.67592000000002
  0
LINE
  8
_0-1_レイヤ___1
  6
CONTINUOUS
 62
    7
 10
671.56644500000016
 20
545.67592000000002
 11
671.56644500000016
 21
546.09966999999995
  0
LINE
  8
_0-1_レイヤ___1
  6
CONTINUOUS
 62
    7
 10
671.56644500000016
 20
546.09966999999995
 11
671.142695
 21
546.09966999999995
  0
LINE
  8
_0-1_レイヤ___1
  6
CONTINUOUS
 62
    7
 10
671.142695
 20
546.09966999999995
 11
671.142695
 21
546.52341000000001
  0
LINE
  8
_0-1_レイヤ___1
  6
CONTINUOUS
 62
    7
 10
671.142695
 20
546.52341000000001
 11
671.142695
 21
546.94715999999994
  0
LINE
  8
_0-1_レイヤ___1
  6
CONTINUOUS
 62
    7
 10
671.142695
 20
546.94715999999994
 11
670.71895500000005
 21
546.94715999999994
  0
LINE
  8
_0-1_レイヤ___1
  6
CONTINUOUS
 62
    7
 10
670.71895500000005
 20
546.94715999999994
 11
670.71895500000005
 21
547.37090999999998
  0
LINE
  8
_0-1_レイヤ___1
  6
CONTINUOUS
 62
    7
 10
670.71895500000005
 20
547.37090999999998
 11
670.29520500000012
 21
547.37090999999998
  0
LINE
  8
_0-1_レイヤ___1
  6
CONTINUOUS
 62
    7
 10
670.29520500000012
 20
547.37090999999998
 11
670.29520500000012
 21
547.79121000000009
  0
LINE
  8
_0-1_レイヤ___1
  6
CONTINUOUS
 62
    7
 10
670.29520500000012
 20
547.79121000000009
 11
669.8714550000002
 21
547.79121000000009
  0
LINE
  8
_0-1_レイヤ___1
  6
CONTINUOUS
 62
    7
 10
669.8714550000002
 20
547.79121000000009
 11
669.8714550000002
 21
548.21496000000002
  0
LINE
  8
_0-1_レイヤ___1
  6
CONTINUOUS
 62
    7
 10
671.98846500000013
 20
543.13688999999999
 11
671.98846500000013
 21
543.56062999999995
  0
LINE
  8
_0-1_レイヤ___1
  6
CONTINUOUS
 62
    7
 10
671.98846500000013
 20
543.56062999999995
 11
671.98846500000013
 21
543.98437999999999
  0
LINE
  8
_0-1_レイヤ___1
  6
CONTINUOUS
 62
    7
 10
671.98846500000013
 20
543.98437999999999
 11
671.56644500000016
 21
543.98437999999999
  0
LINE
  8
_0-1_レイヤ___1
  6
CONTINUOUS
 62
    7
 10
671.56644500000016
 20
543.98437999999999
 11
671.56644500000016
 21
544.40467999999998
  0
LINE
  8
_0-1_レイヤ___1
  6
CONTINUOUS
 62
    7
 10
671.56644500000016
 20
544.40467999999998
 11
671.56644500000016
 21
544.82843000000003
  0
LINE
  8
_0-1_レイヤ___1
  6
CONTINUOUS
 62
    7
 10
671.56644500000016
 20
544.82843000000003
 11
671.56644500000016
 21
545.25216999999998
  0
LINE
  8
_0-1_レイヤ___1
  6
CONTINUOUS
 62
    7
 10
671.56644500000016
 20
545.25216999999998
 11
671.142695
 21
545.25216999999998
  0
LINE
  8
_0-1_レイヤ___1
  6
CONTINUOUS
 62
    7
 10
671.142695
 20
545.25216999999998
 11
671.142695
 21
545.67592000000002
  0
LINE
  8
_0-1_レイヤ___1
  6
CONTINUOUS
 62
    7
 10
671.142695
 20
545.67592000000002
 11
670.71895500000005
 21
546.09966999999995
  0
LINE
  8
_0-1_レイヤ___1
  6
CONTINUOUS
 62
    7
 10
670.71895500000005
 20
546.09966999999995
 11
670.71895500000005
 21
546.52341000000001
  0
LINE
  8
_0-1_レイヤ___1
  6
CONTINUOUS
 62
    7
 10
670.71895500000005
 20
546.52341000000001
 11
670.29520500000012
 21
546.52341000000001
  0
LINE
  8
_0-1_レイヤ___1
  6
CONTINUOUS
 62
    7
 10
670.29520500000012
 20
546.52341000000001
 11
670.29520500000012
 21
546.94715999999994
  0
LINE
  8
_0-1_レイヤ___1
  6
CONTINUOUS
 62
    7
 10
670.29520500000012
 20
546.94715999999994
 11
669.8714550000002
 21
546.94715999999994
  0
LINE
  8
_0-1_レイヤ___1
  6
CONTINUOUS
 62
    7
 10
669.8714550000002
 20
546.94715999999994
 11
669.8714550000002
 21
547.37090999999998
  0
LINE
  8
_0-1_レイヤ___1
  6
CONTINUOUS
 62
    7
 10
669.8714550000002
 20
547.37090999999998
 11
669.44943500000022
 21
547.37090999999998
  0
LINE
  8
_0-1_レイヤ___1
  6
CONTINUOUS
 62
    7
 10
669.44943500000022
 20
547.37090999999998
 11
669.44943500000022
 21
547.79121000000009
  0
LINE
  8
_0-1_レイヤ___1
  6
CONTINUOUS
 62
    7
 10
688.0753450000002
 20
517.73620000000005
 11
688.49908500000015
 21
517.73620000000005
  0
LINE
  8
_0-1_レイヤ___1
  6
CONTINUOUS
 62
    7
 10
688.49908500000015
 20
517.73620000000005
 11
688.92283500000019
 21
517.73620000000005
  0
LINE
  8
_0-1_レイヤ___1
  6
CONTINUOUS
 62
    7
 10
688.92283500000019
 20
517.73620000000005
 11
688.92283500000019
 21
518.15994000000001
  0
LINE
  8
_0-1_レイヤ___1
  6
CONTINUOUS
 62
    7
 10
688.92283500000019
 20
518.15994000000001
 11
689.34486500000025
 21
518.15994000000001
  0
LINE
  8
_0-1_レイヤ___1
  6
CONTINUOUS
 62
    7
 10
689.34486500000025
 20
518.15994000000001
 11
689.34486500000025
 21
518.58369000000005
  0
LINE
  8
_0-1_レイヤ___1
  6
CONTINUOUS
 62
    7
 10
689.34486500000025
 20
518.58369000000005
 11
689.76860500000021
 21
518.58369000000005
  0
LINE
  8
_0-1_レイヤ___1
  6
CONTINUOUS
 62
    7
 10
689.76860500000021
 20
518.58369000000005
 11
689.76860500000021
 21
519.00744000000009
  0
LINE
  8
_0-1_レイヤ___1
  6
CONTINUOUS
 62
    7
 10
673.68173500000012
 20
519.00744000000009
 11
673.68173500000012
 21
518.58369000000005
  0
LINE
  8
_0-1_レイヤ___1
  6
CONTINUOUS
 62
    7
 10
673.68173500000012
 20
518.58369000000005
 11
673.68173500000012
 21
518.15994000000001
  0
LINE
  8
_0-1_レイヤ___1
  6
CONTINUOUS
 62
    7
 10
673.68173500000012
 20
518.15994000000001
 11
674.10548500000016
 21
518.15994000000001
  0
LINE
  8
_0-1_レイヤ___1
  6
CONTINUOUS
 62
    7
 10
674.10548500000016
 20
518.15994000000001
 11
674.10548500000016
 21
517.73620000000005
  0
LINE
  8
_0-1_レイヤ___1
  6
CONTINUOUS
 62
    7
 10
674.10548500000016
 20
517.73620000000005
 11
674.52922500000011
 21
517.73620000000005
  0
LINE
  8
_0-1_レイヤ___1
  6
CONTINUOUS
 62
    7
 10
674.52922500000011
 20
517.73620000000005
 11
674.95297500000015
 21
517.73620000000005
  0
LINE
  8
_0-1_レイヤ___1
  6
CONTINUOUS
 62
    7
 10
694.84840500000018
 20
545.25216999999998
 11
694.42637500000023
 21
545.25216999999998
  0
LINE
  8
_0-1_レイヤ___1
  6
CONTINUOUS
 62
    7
 10
694.42637500000023
 20
545.25216999999998
 11
694.42637500000023
 21
544.82843000000003
  0
LINE
  8
_0-1_レイヤ___1
  6
CONTINUOUS
 62
    7
 10
694.42637500000023
 20
544.82843000000003
 11
694.00262500000008
 21
544.82843000000003
  0
LINE
  8
_0-1_レイヤ___1
  6
CONTINUOUS
 62
    7
 10
694.00262500000008
 20
544.82843000000003
 11
693.57888500000013
 21
544.40467999999998
  0
LINE
  8
_0-1_レイヤ___1
  6
CONTINUOUS
 62
    7
 10
693.57888500000013
 20
544.40467999999998
 11
693.15513500000009
 21
544.40467999999998
  0
LINE
  8
_0-1_レイヤ___1
  6
CONTINUOUS
 62
    7
 10
693.15513500000009
 20
544.40467999999998
 11
693.15513500000009
 21
543.98437999999999
  0
LINE
  8
_0-1_レイヤ___1
  6
CONTINUOUS
 62
    7
 10
693.15513500000009
 20
543.98437999999999
 11
692.73311500000023
 21
543.98437999999999
  0
LINE
  8
_0-1_レイヤ___1
  6
CONTINUOUS
 62
    7
 10
692.73311500000023
 20
543.98437999999999
 11
692.73311500000023
 21
543.56062999999995
  0
LINE
  8
_0-1_レイヤ___1
  6
CONTINUOUS
 62
    7
 10
692.73311500000023
 20
543.56062999999995
 11
692.30936500000007
 21
543.56062999999995
  0
LINE
  8
_0-1_レイヤ___1
  6
CONTINUOUS
 62
    7
 10
692.30936500000007
 20
543.56062999999995
 11
692.30936500000007
 21
543.13688999999999
  0
LINE
  8
_0-1_レイヤ___1
  6
CONTINUOUS
 62
    7
 10
692.30936500000007
 20
543.13688999999999
 11
692.30936500000007
 21
542.71314000000007
  0
LINE
  8
_0-1_レイヤ___1
  6
CONTINUOUS
 62
    7
 10
692.30936500000007
 20
542.71314000000007
 11
691.88561500000014
 21
542.71314000000007
  0
LINE
  8
_0-1_レイヤ___1
  6
CONTINUOUS
 62
    7
 10
691.88561500000014
 20
542.71314000000007
 11
691.88561500000014
 21
542.28938999999991
  0
LINE
  8
_0-1_レイヤ___1
  6
CONTINUOUS
 62
    7
 10
691.88561500000014
 20
542.28938999999991
 11
691.88561500000014
 21
541.86564999999996
  0
LINE
  8
_0-1_レイヤ___1
  6
CONTINUOUS
 62
    7
 10
691.88561500000014
 20
541.86564999999996
 11
691.46187500000008
 21
541.86564999999996
  0
LINE
  8
_0-1_レイヤ___1
  6
CONTINUOUS
 62
    7
 10
691.46187500000008
 20
541.86564999999996
 11
691.46187500000008
 21
541.44190000000003
  0
LINE
  8
_0-1_レイヤ___1
  6
CONTINUOUS
 62
    7
 10
691.46187500000008
 20
541.44190000000003
 11
691.46187500000008
 21
541.01814999999999
  0
LINE
  8
_0-1_レイヤ___1
  6
CONTINUOUS
 62
    7
 10
691.46187500000008
 20
541.01814999999999
 11
691.46187500000008
 21
540.59784999999999
  0
LINE
  8
_0-1_レイヤ___1
  6
CONTINUOUS
 62
    7
 10
691.46187500000008
 20
540.59784999999999
 11
691.46187500000008
 21
540.17409999999995
  0
LINE
  8
_0-1_レイヤ___1
  6
CONTINUOUS
 62
    7
 10
691.46187500000008
 20
540.17409999999995
 11
691.03812500000015
 21
540.17409999999995
  0
LINE
  8
_0-1_レイヤ___1
  6
CONTINUOUS
 62
    7
 10
691.03812500000015
 20
540.17409999999995
 11
691.03812500000015
 21
539.75036
  0
LINE
  8
_0-1_レイヤ___1
  6
CONTINUOUS
 62
    7
 10
1370.9122150000003
 20
529.59077000000002
 11
1371.3359650000002
 21
529.59077000000002
  0
LINE
  8
_0-1_レイヤ___1
  6
CONTINUOUS
 62
    7
 10
1371.3359650000002
 20
529.59077000000002
 11
1371.3359650000002
 21
530.01451999999995
  0
LINE
  8
_0-1_レイヤ___1
  6
CONTINUOUS
 62
    7
 10
1371.3359650000002
 20
530.01451999999995
 11
1371.7597049999999
 21
530.01451999999995
  0
LINE
  8
_0-1_レイヤ___1
  6
CONTINUOUS
 62
    7
 10
1371.7597049999999
 20
530.01451999999995
 11
1372.1817350000001
 21
530.01451999999995
  0
LINE
  8
_0-1_レイヤ___1
  6
CONTINUOUS
 62
    7
 10
1372.1817350000001
 20
530.01451999999995
 11
1372.6054850000003
 21
530.01451999999995
  0
LINE
  8
_0-1_レイヤ___1
  6
CONTINUOUS
 62
    7
 10
1372.6054850000003
 20
530.01451999999995
 11
1372.6054850000003
 21
530.43481999999995
  0
LINE
  8
_0-1_レイヤ___1
  6
CONTINUOUS
 62
    7
 10
1372.6054850000003
 20
530.43481999999995
 11
1373.0292250000002
 21
530.43481999999995
  0
LINE
  8
_0-1_レイヤ___1
  6
CONTINUOUS
 62
    7
 10
1373.0292250000002
 20
530.43481999999995
 11
1373.4529750000002
 21
530.43481999999995
  0
LINE
  8
_0-1_レイヤ___1
  6
CONTINUOUS
 62
    7
 10
1373.4529750000002
 20
530.43481999999995
 11
1373.8749950000001
 21
530.43481999999995
  0
LINE
  8
_0-1_レイヤ___1
  6
CONTINUOUS
 62
    7
 10
1373.8749950000001
 20
530.43481999999995
 11
1373.8749950000001
 21
530.85856000000001
  0
LINE
  8
_0-1_レイヤ___1
  6
CONTINUOUS
 62
    7
 10
1373.8749950000001
 20
530.85856000000001
 11
1374.2987450000001
 21
530.85856000000001
  0
LINE
  8
_0-1_レイヤ___1
  6
CONTINUOUS
 62
    7
 10
1374.2987450000001
 20
530.85856000000001
 11
1374.722495
 21
530.85856000000001
  0
LINE
  8
_0-1_レイヤ___1
  6
CONTINUOUS
 62
    7
 10
1374.722495
 20
530.85856000000001
 11
1375.1462350000002
 21
530.85856000000001
  0
LINE
  8
_0-1_レイヤ___1
  6
CONTINUOUS
 62
    7
 10
1375.1462350000002
 20
530.85856000000001
 11
1375.1462350000002
 21
531.28231000000005
  0
LINE
  8
_0-1_レイヤ___1
  6
CONTINUOUS
 62
    7
 10
1375.1462350000002
 20
531.28231000000005
 11
1375.5682650000003
 21
531.28231000000005
  0
LINE
  8
_0-1_レイヤ___1
  6
CONTINUOUS
 62
    7
 10
1375.5682650000003
 20
531.28231000000005
 11
1375.9920050000003
 21
531.28231000000005
  0
LINE
  8
_0-1_レイヤ___1
  6
CONTINUOUS
 62
    7
 10
1375.9920050000003
 20
531.28231000000005
 11
1375.9920050000003
 21
531.70605999999998
  0
LINE
  8
_0-1_レイヤ___1
  6
CONTINUOUS
 62
    7
 10
1375.9920050000003
 20
531.70605999999998
 11
1376.4157550000002
 21
531.70605999999998
  0
LINE
  8
_0-1_レイヤ___1
  6
CONTINUOUS
 62
    7
 10
1376.4157550000002
 20
531.70605999999998
 11
1376.8395050000001
 21
531.70605999999998
  0
LINE
  8
_0-1_レイヤ___1
  6
CONTINUOUS
 62
    7
 10
1376.8395050000001
 20
531.70605999999998
 11
1376.8395050000001
 21
532.12981000000002
  0
LINE
  8
_0-1_レイヤ___1
  6
CONTINUOUS
 62
    7
 10
1376.8395050000001
 20
532.12981000000002
 11
1377.2615250000001
 21
532.12981000000002
  0
LINE
  8
_0-1_レイヤ___1
  6
CONTINUOUS
 62
    7
 10
1377.2615250000001
 20
532.12981000000002
 11
1377.685275
 21
532.12981000000002
  0
LINE
  8
_0-1_レイヤ___1
  6
CONTINUOUS
 62
    7
 10
1377.685275
 20
532.12981000000002
 11
1377.685275
 21
532.55354999999997
  0
LINE
  8
_0-1_レイヤ___1
  6
CONTINUOUS
 62
    7
 10
1377.685275
 20
532.55354999999997
 11
1378.1090250000002
 21
532.55354999999997
  0
LINE
  8
_0-1_レイヤ___1
  6
CONTINUOUS
 62
    7
 10
1378.1090250000002
 20
532.55354999999997
 11
1378.5327650000002
 21
532.55354999999997
  0
LINE
  8
_0-1_レイヤ___1
  6
CONTINUOUS
 62
    7
 10
1378.5327650000002
 20
532.55354999999997
 11
1378.5327650000002
 21
532.97730000000001
  0
LINE
  8
_0-1_レイヤ___1
  6
CONTINUOUS
 62
    7
 10
1378.5327650000002
 20
532.97730000000001
 11
1378.9547950000001
 21
532.97730000000001
  0
LINE
  8
_0-1_レイヤ___1
  6
CONTINUOUS
 62
    7
 10
1378.9547950000001
 20
532.97730000000001
 11
1379.3785350000003
 21
532.97730000000001
  0
LINE
  8
_0-1_レイヤ___1
  6
CONTINUOUS
 62
    7
 10
1379.3785350000003
 20
532.97730000000001
 11
1379.3785350000003
 21
533.40105000000005
  0
LINE
  8
_0-1_レイヤ___1
  6
CONTINUOUS
 62
    7
 10
1379.3785350000003
 20
533.40105000000005
 11
1379.8022850000002
 21
533.40105000000005
  0
LINE
  8
_0-1_レイヤ___1
  6
CONTINUOUS
 62
    7
 10
1379.8022850000002
 20
533.40105000000005
 11
1380.2260350000001
 21
533.82134999999994
  0
LINE
  8
_0-1_レイヤ___1
  6
CONTINUOUS
 62
    7
 10
1380.2260350000001
 20
533.82134999999994
 11
1380.6497750000003
 21
533.82134999999994
  0
LINE
  8
_0-1_レイヤ___1
  6
CONTINUOUS
 62
    7
 10
1380.6497750000003
 20
533.82134999999994
 11
1381.0718050000003
 21
534.24509
  0
LINE
  8
_0-1_レイヤ___1
  6
CONTINUOUS
 62
    7
 10
1381.0718050000003
 20
534.24509
 11
1381.4955450000002
 21
534.24509
  0
LINE
  8
_0-1_レイヤ___1
  6
CONTINUOUS
 62
    7
 10
1381.4955450000002
 20
534.24509
 11
1381.4955450000002
 21
534.66884000000005
  0
LINE
  8
_0-1_レイヤ___1
  6
CONTINUOUS
 62
    7
 10
1381.4955450000002
 20
534.66884000000005
 11
1381.9192950000001
 21
534.66884000000005
  0
LINE
  8
_0-1_レイヤ___1
  6
CONTINUOUS
 62
    7
 10
1381.9192950000001
 20
534.66884000000005
 11
1382.3430450000001
 21
535.09258999999997
  0
LINE
  8
_0-1_レイヤ___1
  6
CONTINUOUS
 62
    7
 10
1382.3430450000001
 20
535.09258999999997
 11
1382.765065
 21
535.51633000000004
  0
LINE
  8
_0-1_レイヤ___1
  6
CONTINUOUS
 62
    7
 10
1382.765065
 20
535.51633000000004
 11
1383.188815
 21
535.51633000000004
  0
LINE
  8
_0-1_レイヤ___1
  6
CONTINUOUS
 62
    7
 10
1383.188815
 20
535.51633000000004
 11
1383.188815
 21
535.94008000000008
  0
LINE
  8
_0-1_レイヤ___1
  6
CONTINUOUS
 62
    7
 10
1383.188815
 20
535.94008000000008
 11
1383.6125650000004
 21
535.94008000000008
  0
LINE
  8
_0-1_レイヤ___1
  6
CONTINUOUS
 62
    7
 10
1383.6125650000004
 20
535.94008000000008
 11
1384.0363050000001
 21
536.36383000000001
  0
LINE
  8
_0-1_レイヤ___1
  6
CONTINUOUS
 62
    7
 10
1384.0363050000001
 20
536.36383000000001
 11
1384.4583350000003
 21
536.78756999999996
  0
LINE
  8
_0-1_レイヤ___1
  6
CONTINUOUS
 62
    7
 10
1384.4583350000003
 20
536.78756999999996
 11
1384.8820750000002
 21
536.78756999999996
  0
LINE
  8
_0-1_レイヤ___1
  6
CONTINUOUS
 62
    7
 10
1384.8820750000002
 20
536.78756999999996
 11
1384.8820750000002
 21
537.20787999999993
  0
LINE
  8
_0-1_レイヤ___1
  6
CONTINUOUS
 62
    7
 10
1384.8820750000002
 20
537.20787999999993
 11
1385.3058250000001
 21
537.20787999999993
  0
LINE
  8
_0-1_レイヤ___1
  6
CONTINUOUS
 62
    7
 10
1385.3058250000001
 20
537.20787999999993
 11
1385.3058250000001
 21
537.63162
  0
LINE
  8
_0-1_レイヤ___1
  6
CONTINUOUS
 62
    7
 10
1385.3058250000001
 20
537.63162
 11
1385.7295750000003
 21
537.63162
  0
LINE
  8
_0-1_レイヤ___1
  6
CONTINUOUS
 62
    7
 10
1385.7295750000003
 20
537.63162
 11
1385.7295750000003
 21
538.05537000000004
  0
LINE
  8
_0-1_レイヤ___1
  6
CONTINUOUS
 62
    7
 10
650.82180500000027
 20
563.87981000000002
 11
650.82180500000027
 21
563.45605999999998
  0
LINE
  8
_0-1_レイヤ___1
  6
CONTINUOUS
 62
    7
 10
650.82180500000027
 20
563.45605999999998
 11
651.24554500000022
 21
563.45605999999998
  0
LINE
  8
_0-1_レイヤ___1
  6
CONTINUOUS
 62
    7
 10
651.24554500000022
 20
563.45605999999998
 11
651.24554500000022
 21
563.03231000000005
  0
LINE
  8
_0-1_レイヤ___1
  6
CONTINUOUS
 62
    7
 10
651.24554500000022
 20
563.03231000000005
 11
651.66929500000015
 21
562.60856000000001
  0
LINE
  8
_0-1_レイヤ___1
  6
CONTINUOUS
 62
    7
 10
651.66929500000015
 20
562.60856000000001
 11
651.66929500000015
 21
562.18482000000006
  0
LINE
  8
_0-1_レイヤ___1
  6
CONTINUOUS
 62
    7
 10
651.66929500000015
 20
562.18482000000006
 11
652.09304500000019
 21
562.18482000000006
  0
LINE
  8
_0-1_レイヤ___1
  6
CONTINUOUS
 62
    7
 10
652.09304500000019
 20
562.18482000000006
 11
652.09304500000019
 21
561.76451999999995
  0
LINE
  8
_0-1_レイヤ___1
  6
CONTINUOUS
 62
    7
 10
652.09304500000019
 20
561.76451999999995
 11
652.09304500000019
 21
561.34077000000002
  0
LINE
  8
_0-1_レイヤ___1
  6
CONTINUOUS
 62
    7
 10
652.09304500000019
 20
561.34077000000002
 11
652.51506500000005
 21
561.34077000000002
  0
LINE
  8
_0-1_レイヤ___1
  6
CONTINUOUS
 62
    7
 10
652.51506500000005
 20
561.34077000000002
 11
652.51506500000005
 21
560.91701999999998
  0
LINE
  8
_0-1_レイヤ___1
  6
CONTINUOUS
 62
    7
 10
652.51506500000005
 20
560.91701999999998
 11
652.93881500000009
 21
560.91701999999998
  0
LINE
  8
_0-1_レイヤ___1
  6
CONTINUOUS
 62
    7
 10
652.93881500000009
 20
560.91701999999998
 11
652.93881500000009
 21
560.49328000000003
  0
LINE
  8
_0-1_レイヤ___1
  6
CONTINUOUS
 62
    7
 10
652.93881500000009
 20
560.49328000000003
 11
652.93881500000009
 21
560.06952999999999
  0
LINE
  8
_0-1_レイヤ___1
  6
CONTINUOUS
 62
    7
 10
652.93881500000009
 20
560.06952999999999
 11
653.36256500000013
 21
560.06952999999999
  0
LINE
  8
_0-1_レイヤ___1
  6
CONTINUOUS
 62
    7
 10
653.36256500000013
 20
560.06952999999999
 11
653.36256500000013
 21
559.64578000000006
  0
LINE
  8
_0-1_レイヤ___1
  6
CONTINUOUS
 62
    7
 10
653.36256500000013
 20
559.64578000000006
 11
653.78630500000008
 21
559.64578000000006
  0
LINE
  8
_0-1_レイヤ___1
  6
CONTINUOUS
 62
    7
 10
653.78630500000008
 20
559.64578000000006
 11
653.78630500000008
 21
559.22203999999999
  0
LINE
  8
_0-1_レイヤ___1
  6
CONTINUOUS
 62
    7
 10
653.78630500000008
 20
559.22203999999999
 11
654.20833500000015
 21
558.79828999999995
  0
LINE
  8
_0-1_レイヤ___1
  6
CONTINUOUS
 62
    7
 10
654.20833500000015
 20
558.79828999999995
 11
654.20833500000015
 21
558.37454000000002
  0
LINE
  8
_0-1_レイヤ___1
  6
CONTINUOUS
 62
    7
 10
654.20833500000015
 20
558.37454000000002
 11
654.6320750000001
 21
558.37454000000002
  0
LINE
  8
_0-1_レイヤ___1
  6
CONTINUOUS
 62
    7
 10
654.6320750000001
 20
558.37454000000002
 11
654.6320750000001
 21
557.95424000000003
  0
LINE
  8
_0-1_レイヤ___1
  6
CONTINUOUS
 62
    7
 10
654.6320750000001
 20
557.95424000000003
 11
655.05582500000014
 21
557.95424000000003
  0
LINE
  8
_0-1_レイヤ___1
  6
CONTINUOUS
 62
    7
 10
655.05582500000014
 20
557.95424000000003
 11
655.05582500000014
 21
557.53048999999999
  0
LINE
  8
_0-1_レイヤ___1
  6
CONTINUOUS
 62
    7
 10
655.05582500000014
 20
557.53048999999999
 11
655.4795750000003
 21
557.53048999999999
  0
LINE
  8
_0-1_レイヤ___1
  6
CONTINUOUS
 62
    7
 10
655.4795750000003
 20
557.53048999999999
 11
655.4795750000003
 21
557.10675000000003
  0
LINE
  8
_0-1_レイヤ___1
  6
CONTINUOUS
 62
    7
 10
655.4795750000003
 20
557.10675000000003
 11
655.90159500000016
 21
557.10675000000003
  0
LINE
  8
_0-1_レイヤ___1
  6
CONTINUOUS
 62
    7
 10
655.90159500000016
 20
557.10675000000003
 11
655.90159500000016
 21
556.68299999999999
  0
LINE
  8
_0-1_レイヤ___1
  6
CONTINUOUS
 62
    7
 10
655.90159500000016
 20
556.68299999999999
 11
656.3253450000002
 21
556.68299999999999
  0
LINE
  8
_0-1_レイヤ___1
  6
CONTINUOUS
 62
    7
 10
656.3253450000002
 20
556.68299999999999
 11
656.3253450000002
 21
556.25925000000007
  0
LINE
  8
_0-1_レイヤ___1
  6
CONTINUOUS
 62
    7
 10
656.3253450000002
 20
556.25925000000007
 11
656.74908500000015
 21
555.83551
  0
LINE
  8
_0-1_レイヤ___1
  6
CONTINUOUS
 62
    7
 10
656.74908500000015
 20
555.83551
 11
657.17283500000008
 21
555.83551
  0
LINE
  8
_0-1_レイヤ___1
  6
CONTINUOUS
 62
    7
 10
657.17283500000008
 20
555.83551
 11
657.17283500000008
 21
555.41175999999996
  0
LINE
  8
_0-1_レイヤ___1
  6
CONTINUOUS
 62
    7
 10
657.17283500000008
 20
555.41175999999996
 11
657.59486500000003
 21
554.98801000000003
  0
LINE
  8
_0-1_レイヤ___1
  6
CONTINUOUS
 62
    7
 10
657.59486500000003
 20
554.98801000000003
 11
658.01860500000021
 21
554.56771000000003
  0
LINE
  8
_0-1_レイヤ___1
  6
CONTINUOUS
 62
    7
 10
658.01860500000021
 20
554.56771000000003
 11
658.44235500000025
 21
554.56771000000003
  0
LINE
  8
_0-1_レイヤ___1
  6
CONTINUOUS
 62
    7
 10
658.44235500000025
 20
554.56771000000003
 11
658.44235500000025
 21
554.14396999999997
  0
LINE
  8
_0-1_レイヤ___1
  6
CONTINUOUS
 62
    7
 10
658.44235500000025
 20
554.14396999999997
 11
658.86610500000018
 21
554.14396999999997
  0
LINE
  8
_0-1_レイヤ___1
  6
CONTINUOUS
 62
    7
 10
658.86610500000018
 20
554.14396999999997
 11
658.86610500000018
 21
553.72022000000004
  0
LINE
  8
_0-1_レイヤ___1
  6
CONTINUOUS
 62
    7
 10
658.86610500000018
 20
553.72022000000004
 11
659.28812500000026
 21
553.72022000000004
  0
LINE
  8
_0-1_レイヤ___1
  6
CONTINUOUS
 62
    7
 10
659.28812500000026
 20
553.72022000000004
 11
659.28812500000026
 21
553.29647
  0
LINE
  8
_0-1_レイヤ___1
  6
CONTINUOUS
 62
    7
 10
659.28812500000026
 20
553.29647
 11
659.71187500000019
 21
553.29647
  0
LINE
  8
_0-1_レイヤ___1
  6
CONTINUOUS
 62
    7
 10
659.71187500000019
 20
553.29647
 11
659.71187500000019
 21
552.87273000000005
  0
LINE
  8
_0-1_レイヤ___1
  6
CONTINUOUS
 62
    7
 10
659.71187500000019
 20
552.87273000000005
 11
660.13561500000014
 21
552.87273000000005
  0
LINE
  8
_0-1_レイヤ___1
  6
CONTINUOUS
 62
    7
 10
660.13561500000014
 20
552.87273000000005
 11
660.55936500000018
 21
552.44898000000001
  0
LINE
  8
_0-1_レイヤ___1
  6
CONTINUOUS
 62
    7
 10
660.55936500000018
 20
552.44898000000001
 11
660.98311500000023
 21
552.44898000000001
  0
LINE
  8
_0-1_レイヤ___1
  6
CONTINUOUS
 62
    7
 10
660.98311500000023
 20
552.44898000000001
 11
660.98311500000023
 21
552.02522999999997
  0
LINE
  8
_0-1_レイヤ___1
  6
CONTINUOUS
 62
    7
 10
660.98311500000023
 20
552.02522999999997
 11
661.4051350000002
 21
552.02522999999997
  0
LINE
  8
_0-1_レイヤ___1
  6
CONTINUOUS
 62
    7
 10
661.4051350000002
 20
552.02522999999997
 11
661.4051350000002
 21
551.60148000000004
  0
LINE
  8
_0-1_レイヤ___1
  6
CONTINUOUS
 62
    7
 10
661.4051350000002
 20
551.60148000000004
 11
661.82888500000013
 21
551.60148000000004
  0
LINE
  8
_0-1_レイヤ___1
  6
CONTINUOUS
 62
    7
 10
661.82888500000013
 20
551.60148000000004
 11
661.82888500000013
 21
551.18118000000004
  0
LINE
  8
_0-1_レイヤ___1
  6
CONTINUOUS
 62
    7
 10
661.82888500000013
 20
551.18118000000004
 11
662.25262500000008
 21
551.18118000000004
  0
LINE
  8
_0-1_レイヤ___1
  6
CONTINUOUS
 62
    7
 10
662.25262500000008
 20
551.18118000000004
 11
662.67637500000001
 21
551.18118000000004
  0
LINE
  8
_0-1_レイヤ___1
  6
CONTINUOUS
 62
    7
 10
662.67637500000001
 20
551.18118000000004
 11
662.67637500000001
 21
550.75743999999997
  0
LINE
  8
_0-1_レイヤ___1
  6
CONTINUOUS
 62
    7
 10
662.67637500000001
 20
550.75743999999997
 11
663.09840500000007
 21
550.75743999999997
  0
LINE
  8
_0-1_レイヤ___1
  6
CONTINUOUS
 62
    7
 10
663.09840500000007
 20
550.75743999999997
 11
663.52214500000014
 21
550.33369000000005
  0
LINE
  8
_0-1_レイヤ___1
  6
CONTINUOUS
 62
    7
 10
663.52214500000014
 20
550.33369000000005
 11
663.94589500000029
 21
550.33369000000005
  0
LINE
  8
_0-1_レイヤ___1
  6
CONTINUOUS
 62
    7
 10
663.94589500000029
 20
550.33369000000005
 11
663.94589500000029
 21
549.90994000000001
  0
LINE
  8
_0-1_レイヤ___1
  6
CONTINUOUS
 62
    7
 10
663.94589500000029
 20
549.90994000000001
 11
664.36964500000022
 21
549.90994000000001
  0
LINE
  8
_0-1_レイヤ___1
  6
CONTINUOUS
 62
    7
 10
664.36964500000022
 20
549.90994000000001
 11
664.79166500000019
 21
549.90994000000001
  0
LINE
  8
_0-1_レイヤ___1
  6
CONTINUOUS
 62
    7
 10
664.79166500000019
 20
549.90994000000001
 11
664.79166500000019
 21
549.48619999999994
  0
LINE
  8
_0-1_レイヤ___1
  6
CONTINUOUS
 62
    7
 10
664.79166500000019
 20
549.48619999999994
 11
665.21541500000012
 21
549.48619999999994
  0
LINE
  8
_0-1_レイヤ___1
  6
CONTINUOUS
 62
    7
 10
665.21541500000012
 20
549.48619999999994
 11
665.63915500000007
 21
549.06245000000001
  0
LINE
  8
_0-1_レイヤ___1
  6
CONTINUOUS
 62
    7
 10
665.63915500000007
 20
549.06245000000001
 11
666.06290500000011
 21
549.06245000000001
  0
LINE
  8
_0-1_レイヤ___1
  6
CONTINUOUS
 62
    7
 10
666.06290500000011
 20
549.06245000000001
 11
666.4849250000002
 21
548.63869999999997
  0
LINE
  8
_0-1_レイヤ___1
  6
CONTINUOUS
 62
    7
 10
666.4849250000002
 20
548.63869999999997
 11
666.90867500000024
 21
548.63869999999997
  0
LINE
  8
_0-1_レイヤ___1
  6
CONTINUOUS
 62
    7
 10
666.90867500000024
 20
548.63869999999997
 11
667.33242500000017
 21
548.21496000000002
  0
LINE
  8
_0-1_レイヤ___1
  6
CONTINUOUS
 62
    7
 10
667.33242500000017
 20
548.21496000000002
 11
667.75616500000012
 21
548.21496000000002
  0
LINE
  8
_0-1_レイヤ___1
  6
CONTINUOUS
 62
    7
 10
667.75616500000012
 20
548.21496000000002
 11
668.17819500000019
 21
548.21496000000002
  0
LINE
  8
_0-1_レイヤ___1
  6
CONTINUOUS
 62
    7
 10
668.17819500000019
 20
548.21496000000002
 11
668.17819500000019
 21
547.79121000000009
  0
LINE
  8
_0-1_レイヤ___1
  6
CONTINUOUS
 62
    7
 10
668.17819500000019
 20
547.79121000000009
 11
668.60194500000011
 21
547.79121000000009
  0
LINE
  8
_0-1_レイヤ___1
  6
CONTINUOUS
 62
    7
 10
668.60194500000011
 20
547.79121000000009
 11
669.02568500000018
 21
547.79121000000009
  0
LINE
  8
_0-1_レイヤ___1
  6
CONTINUOUS
 62
    7
 10
669.02568500000018
 20
547.79121000000009
 11
669.02568500000018
 21
547.37090999999998
  0
LINE
  8
_0-1_レイヤ___1
  6
CONTINUOUS
 62
    7
 10
669.02568500000018
 20
547.37090999999998
 11
669.44943500000022
 21
547.37090999999998
  0
LINE
  8
_0-1_レイヤ___1
  6
CONTINUOUS
 62
    7
 10
695.27214500000014
 20
544.40467999999998
 11
694.84840500000018
 21
544.40467999999998
  0
LINE
  8
_0-1_レイヤ___1
  6
CONTINUOUS
 62
    7
 10
694.84840500000018
 20
544.40467999999998
 11
694.84840500000018
 21
543.98437999999999
  0
LINE
  8
_0-1_レイヤ___1
  6
CONTINUOUS
 62
    7
 10
694.84840500000018
 20
543.98437999999999
 11
694.42637500000023
 21
543.98437999999999
  0
LINE
  8
_0-1_レイヤ___1
  6
CONTINUOUS
 62
    7
 10
694.42637500000023
 20
543.98437999999999
 11
694.00262500000008
 21
543.98437999999999
  0
LINE
  8
_0-1_レイヤ___1
  6
CONTINUOUS
 62
    7
 10
694.00262500000008
 20
543.98437999999999
 11
694.00262500000008
 21
543.56062999999995
  0
LINE
  8
_0-1_レイヤ___1
  6
CONTINUOUS
 62
    7
 10
694.00262500000008
 20
543.56062999999995
 11
693.57888500000013
 21
543.56062999999995
  0
LINE
  8
_0-1_レイヤ___1
  6
CONTINUOUS
 62
    7
 10
693.57888500000013
 20
543.56062999999995
 11
693.57888500000013
 21
543.13688999999999
  0
LINE
  8
_0-1_レイヤ___1
  6
CONTINUOUS
 62
    7
 10
693.57888500000013
 20
543.13688999999999
 11
693.15513500000009
 21
543.13688999999999
  0
LINE
  8
_0-1_レイヤ___1
  6
CONTINUOUS
 62
    7
 10
693.15513500000009
 20
543.13688999999999
 11
693.15513500000009
 21
542.71314000000007
  0
LINE
  8
_0-1_レイヤ___1
  6
CONTINUOUS
 62
    7
 10
693.15513500000009
 20
542.71314000000007
 11
692.73311500000023
 21
542.71314000000007
  0
LINE
  8
_0-1_レイヤ___1
  6
CONTINUOUS
 62
    7
 10
692.73311500000023
 20
542.71314000000007
 11
692.73311500000023
 21
542.28938999999991
  0
LINE
  8
_0-1_レイヤ___1
  6
CONTINUOUS
 62
    7
 10
692.73311500000023
 20
542.28938999999991
 11
692.30936500000007
 21
542.28938999999991
  0
LINE
  8
_0-1_レイヤ___1
  6
CONTINUOUS
 62
    7
 10
692.30936500000007
 20
542.28938999999991
 11
692.30936500000007
 21
541.86564999999996
  0
LINE
  8
_0-1_レイヤ___1
  6
CONTINUOUS
 62
    7
 10
692.30936500000007
 20
541.86564999999996
 11
691.88561500000014
 21
541.86564999999996
  0
LINE
  8
_0-1_レイヤ___1
  6
CONTINUOUS
 62
    7
 10
691.88561500000014
 20
541.86564999999996
 11
691.88561500000014
 21
541.44190000000003
  0
LINE
  8
_0-1_レイヤ___1
  6
CONTINUOUS
 62
    7
 10
691.88561500000014
 20
541.44190000000003
 11
691.88561500000014
 21
541.01814999999999
  0
LINE
  8
_0-1_レイヤ___1
  6
CONTINUOUS
 62
    7
 10
691.88561500000014
 20
541.01814999999999
 11
691.46187500000008
 21
541.01814999999999
  0
LINE
  8
_0-1_レイヤ___1
  6
CONTINUOUS
 62
    7
 10
691.46187500000008
 20
541.01814999999999
 11
691.46187500000008
 21
540.59784999999999
  0
LINE
  8
_0-1_レイヤ___1
  6
CONTINUOUS
 62
    7
 10
691.46187500000008
 20
540.59784999999999
 11
691.46187500000008
 21
540.17409999999995
  0
LINE
  8
_0-1_レイヤ___1
  6
CONTINUOUS
 62
    7
 10
691.46187500000008
 20
540.17409999999995
 11
691.46187500000008
 21
539.75036
  0
LINE
  8
_0-1_レイヤ___1
  6
CONTINUOUS
 62
    7
 10
691.46187500000008
 20
539.75036
 11
691.46187500000008
 21
539.32661000000007
  0
LINE
  8
_0-1_レイヤ___1
  6
CONTINUOUS
 62
    7
 10
691.46187500000008
 20
539.32661000000007
 11
691.03812500000015
 21
539.32661000000007
  0
LINE
  8
_0-1_レイヤ___1
  6
CONTINUOUS
 62
    7
 10
691.03812500000015
 20
539.32661000000007
 11
691.03812500000015
 21
538.90286000000003
  0
LINE
  8
_0-1_レイヤ___1
  6
CONTINUOUS
 62
    7
 10
1353.132075
 20
525.35674999999992
 11
1353.132075
 21
525.78048999999999
  0
LINE
  8
_0-1_レイヤ___1
  6
CONTINUOUS
 62
    7
 10
1353.132075
 20
525.78048999999999
 11
1353.132075
 21
526.20424000000003
  0
LINE
  8
_0-1_レイヤ___1
  6
CONTINUOUS
 62
    7
 10
1353.132075
 20
526.20424000000003
 11
1352.708335
 21
526.20424000000003
  0
LINE
  8
_0-1_レイヤ___1
  6
CONTINUOUS
 62
    7
 10
1352.708335
 20
526.20424000000003
 11
1352.708335
 21
526.62454000000002
  0
LINE
  8
_0-1_レイヤ___1
  6
CONTINUOUS
 62
    7
 10
1352.708335
 20
526.62454000000002
 11
1352.2863050000001
 21
526.62454000000002
  0
LINE
  8
_0-1_レイヤ___1
  6
CONTINUOUS
 62
    7
 10
1352.2863050000001
 20
526.62454000000002
 11
1352.2863050000001
 21
527.04829000000007
  0
LINE
  8
_0-1_レイヤ___1
  6
CONTINUOUS
 62
    7
 10
1352.2863050000001
 20
527.04829000000007
 11
1352.2863050000001
 21
527.47203999999999
  0
LINE
  8
_0-1_レイヤ___1
  6
CONTINUOUS
 62
    7
 10
1352.2863050000001
 20
527.47203999999999
 11
1351.8625650000001
 21
527.47203999999999
  0
LINE
  8
_0-1_レイヤ___1
  6
CONTINUOUS
 62
    7
 10
1351.8625650000001
 20
527.47203999999999
 11
1351.8625650000001
 21
527.89577999999995
  0
LINE
  8
_0-1_レイヤ___1
  6
CONTINUOUS
 62
    7
 10
1351.8625650000001
 20
527.89577999999995
 11
1351.4388150000002
 21
527.89577999999995
  0
LINE
  8
_0-1_レイヤ___1
  6
CONTINUOUS
 62
    7
 10
1335.7756850000001
 20
526.62454000000002
 11
1335.3519450000001
 21
526.62454000000002
  0
LINE
  8
_0-1_レイヤ___1
  6
CONTINUOUS
 62
    7
 10
1335.3519450000001
 20
526.62454000000002
 11
1335.3519450000001
 21
526.20424000000003
  0
LINE
  8
_0-1_レイヤ___1
  6
CONTINUOUS
 62
    7
 10
1335.3519450000001
 20
526.20424000000003
 11
1334.9281950000002
 21
526.20424000000003
  0
LINE
  8
_0-1_レイヤ___1
  6
CONTINUOUS
 62
    7
 10
1334.9281950000002
 20
526.20424000000003
 11
1334.5061650000002
 21
526.20424000000003
  0
LINE
  8
_0-1_レイヤ___1
  6
CONTINUOUS
 62
    7
 10
1334.5061650000002
 20
526.20424000000003
 11
1334.0824250000003
 21
526.20424000000003
  0
LINE
  8
_0-1_レイヤ___1
  6
CONTINUOUS
 62
    7
 10
1334.0824250000003
 20
526.20424000000003
 11
1334.0824250000003
 21
525.78048999999999
  0
LINE
  8
_0-1_レイヤ___1
  6
CONTINUOUS
 62
    7
 10
1334.0824250000003
 20
525.78048999999999
 11
1333.6586750000001
 21
525.78048999999999
  0
LINE
  8
_0-1_レイヤ___1
  6
CONTINUOUS
 62
    7
 10
1333.6586750000001
 20
525.78048999999999
 11
1333.2349250000002
 21
525.78048999999999
  0
LINE
  8
_0-1_レイヤ___1
  6
CONTINUOUS
 62
    7
 10
1333.2349250000002
 20
525.78048999999999
 11
1332.8129050000002
 21
525.78048999999999
  0
LINE
  8
_0-1_レイヤ___1
  6
CONTINUOUS
 62
    7
 10
1332.8129050000002
 20
525.78048999999999
 11
1332.8129050000002
 21
525.35674999999992
  0
LINE
  8
_0-1_レイヤ___1
  6
CONTINUOUS
 62
    7
 10
1332.8129050000002
 20
525.35674999999992
 11
1332.3891550000003
 21
525.35674999999992
  0
LINE
  8
_0-1_レイヤ___1
  6
CONTINUOUS
 62
    7
 10
1332.3891550000003
 20
525.35674999999992
 11
1331.9654150000001
 21
525.35674999999992
  0
LINE
  8
_0-1_レイヤ___1
  6
CONTINUOUS
 62
    7
 10
1331.9654150000001
 20
525.35674999999992
 11
1331.9654150000001
 21
524.93299999999999
  0
LINE
  8
_0-1_レイヤ___1
  6
CONTINUOUS
 62
    7
 10
1331.9654150000001
 20
524.93299999999999
 11
1331.541665
 21
524.93299999999999
  0
LINE
  8
_0-1_レイヤ___1
  6
CONTINUOUS
 62
    7
 10
1331.541665
 20
524.93299999999999
 11
1331.1196450000002
 21
524.93299999999999
  0
LINE
  8
_0-1_レイヤ___1
  6
CONTINUOUS
 62
    7
 10
1331.1196450000002
 20
524.93299999999999
 11
1331.1196450000002
 21
524.50924999999995
  0
LINE
  8
_0-1_レイヤ___1
  6
CONTINUOUS
 62
    7
 10
1331.1196450000002
 20
524.50924999999995
 11
1330.6958950000001
 21
524.50924999999995
  0
LINE
  8
_0-1_レイヤ___1
  6
CONTINUOUS
 62
    7
 10
1330.6958950000001
 20
524.50924999999995
 11
1330.2721450000001
 21
524.50924999999995
  0
LINE
  8
_0-1_レイヤ___1
  6
CONTINUOUS
 62
    7
 10
1330.2721450000001
 20
524.50924999999995
 11
1330.2721450000001
 21
524.08551
  0
LINE
  8
_0-1_レイヤ___1
  6
CONTINUOUS
 62
    7
 10
1330.2721450000001
 20
524.08551
 11
1329.8484050000002
 21
524.08551
  0
LINE
  8
_0-1_レイヤ___1
  6
CONTINUOUS
 62
    7
 10
1329.8484050000002
 20
524.08551
 11
1329.4263750000002
 21
524.08551
  0
LINE
  8
_0-1_レイヤ___1
  6
CONTINUOUS
 62
    7
 10
1329.4263750000002
 20
524.08551
 11
1329.4263750000002
 21
523.66176000000007
  0
LINE
  8
_0-1_レイヤ___1
  6
CONTINUOUS
 62
    7
 10
1329.4263750000002
 20
523.66176000000007
 11
1329.0026250000003
 21
523.66176000000007
  0
LINE
  8
_0-1_レイヤ___1
  6
CONTINUOUS
 62
    7
 10
1329.0026250000003
 20
523.66176000000007
 11
1328.5788849999999
 21
523.66176000000007
  0
LINE
  8
_0-1_レイヤ___1
  6
CONTINUOUS
 62
    7
 10
1328.5788849999999
 20
523.66176000000007
 11
1328.5788849999999
 21
523.23801000000003
  0
LINE
  8
_0-1_レイヤ___1
  6
CONTINUOUS
 62
    7
 10
1328.5788849999999
 20
523.23801000000003
 11
1328.155135
 21
523.23801000000003
  0
LINE
  8
_0-1_レイヤ___1
  6
CONTINUOUS
 62
    7
 10
1328.155135
 20
523.23801000000003
 11
1327.733115
 21
522.81771000000003
  0
LINE
  8
_0-1_レイヤ___1
  6
CONTINUOUS
 62
    7
 10
1327.733115
 20
522.81771000000003
 11
1327.3093650000001
 21
522.81771000000003
  0
LINE
  8
_0-1_レイヤ___1
  6
CONTINUOUS
 62
    7
 10
1327.3093650000001
 20
522.81771000000003
 11
1327.3093650000001
 21
522.39397000000008
  0
LINE
  8
_0-1_レイヤ___1
  6
CONTINUOUS
 62
    7
 10
1327.3093650000001
 20
522.39397000000008
 11
1326.8856150000001
 21
522.39397000000008
  0
LINE
  8
_0-1_レイヤ___1
  6
CONTINUOUS
 62
    7
 10
1326.8856150000001
 20
522.39397000000008
 11
1326.4618750000002
 21
522.39397000000008
  0
LINE
  8
_0-1_レイヤ___1
  6
CONTINUOUS
 62
    7
 10
1326.4618750000002
 20
522.39397000000008
 11
1326.4618750000002
 21
521.97021999999993
  0
LINE
  8
_0-1_レイヤ___1
  6
CONTINUOUS
 62
    7
 10
1326.4618750000002
 20
521.97021999999993
 11
1326.038125
 21
521.97021999999993
  0
LINE
  8
_0-1_レイヤ___1
  6
CONTINUOUS
 62
    7
 10
1326.038125
 20
521.97021999999993
 11
1326.038125
 21
521.54647
  0
LINE
  8
_0-1_レイヤ___1
  6
CONTINUOUS
 62
    7
 10
1326.038125
 20
521.54647
 11
1325.6161050000003
 21
521.54647
  0
LINE
  8
_0-1_レイヤ___1
  6
CONTINUOUS
 62
    7
 10
1325.6161050000003
 20
521.54647
 11
1325.1923550000004
 21
521.12273000000005
  0
LINE
  8
_0-1_レイヤ___1
  6
CONTINUOUS
 62
    7
 10
1325.1923550000004
 20
521.12273000000005
 11
1324.7686050000002
 21
521.12273000000005
  0
LINE
  8
_0-1_レイヤ___1
  6
CONTINUOUS
 62
    7
 10
1324.7686050000002
 20
521.12273000000005
 11
1324.7686050000002
 21
520.69898000000001
  0
LINE
  8
_0-1_レイヤ___1
  6
CONTINUOUS
 62
    7
 10
1324.7686050000002
 20
520.69898000000001
 11
1324.3448650000003
 21
520.69898000000001
  0
LINE
  8
_0-1_レイヤ___1
  6
CONTINUOUS
 62
    7
 10
1324.3448650000003
 20
520.69898000000001
 11
1324.3448650000003
 21
520.27522999999997
  0
LINE
  8
_0-1_レイヤ___1
  6
CONTINUOUS
 62
    7
 10
1343.3962350000002
 20
527.89577999999995
 11
1342.9724950000002
 21
527.89577999999995
  0
LINE
  8
_0-1_レイヤ___1
  6
CONTINUOUS
 62
    7
 10
1342.9724950000002
 20
527.89577999999995
 11
1342.5487450000003
 21
527.89577999999995
  0
LINE
  8
_0-1_レイヤ___1
  6
CONTINUOUS
 62
    7
 10
1342.5487450000003
 20
527.89577999999995
 11
1342.1249950000001
 21
527.89577999999995
  0
LINE
  8
_0-1_レイヤ___1
  6
CONTINUOUS
 62
    7
 10
1342.1249950000001
 20
527.89577999999995
 11
1341.7029750000002
 21
527.89577999999995
  0
LINE
  8
_0-1_レイヤ___1
  6
CONTINUOUS
 62
    7
 10
1341.7029750000002
 20
527.89577999999995
 11
1341.7029750000002
 21
527.47203999999999
  0
LINE
  8
_0-1_レイヤ___1
  6
CONTINUOUS
 62
    7
 10
1341.7029750000002
 20
527.47203999999999
 11
1341.2792250000002
 21
527.47203999999999
  0
LINE
  8
_0-1_レイヤ___1
  6
CONTINUOUS
 62
    7
 10
1341.2792250000002
 20
527.47203999999999
 11
1340.855485
 21
527.47203999999999
  0
LINE
  8
_0-1_レイヤ___1
  6
CONTINUOUS
 62
    7
 10
1340.855485
 20
527.47203999999999
 11
1340.4317350000001
 21
527.47203999999999
  0
LINE
  8
_0-1_レイヤ___1
  6
CONTINUOUS
 62
    7
 10
1340.4317350000001
 20
527.47203999999999
 11
1340.0097050000002
 21
527.47203999999999
  0
LINE
  8
_0-1_レイヤ___1
  6
CONTINUOUS
 62
    7
 10
1340.0097050000002
 20
527.47203999999999
 11
1339.5859650000002
 21
527.47203999999999
  0
LINE
  8
_0-1_レイヤ___1
  6
CONTINUOUS
 62
    7
 10
1339.5859650000002
 20
527.47203999999999
 11
1339.1622150000001
 21
527.47203999999999
  0
LINE
  8
_0-1_レイヤ___1
  6
CONTINUOUS
 62
    7
 10
1339.1622150000001
 20
527.47203999999999
 11
1338.7384650000001
 21
527.47203999999999
  0
LINE
  8
_0-1_レイヤ___1
  6
CONTINUOUS
 62
    7
 10
1338.7384650000001
 20
527.47203999999999
 11
1338.7384650000001
 21
527.04829000000007
  0
LINE
  8
_0-1_レイヤ___1
  6
CONTINUOUS
 62
    7
 10
1338.7384650000001
 20
527.04829000000007
 11
1338.3164450000002
 21
527.04829000000007
  0
LINE
  8
_0-1_レイヤ___1
  6
CONTINUOUS
 62
    7
 10
1338.3164450000002
 20
527.04829000000007
 11
1337.8926950000002
 21
527.04829000000007
  0
LINE
  8
_0-1_レイヤ___1
  6
CONTINUOUS
 62
    7
 10
1337.8926950000002
 20
527.04829000000007
 11
1337.4689550000003
 21
527.04829000000007
  0
LINE
  8
_0-1_レイヤ___1
  6
CONTINUOUS
 62
    7
 10
1337.4689550000003
 20
527.04829000000007
 11
1337.0452050000004
 21
527.04829000000007
  0
LINE
  8
_0-1_レイヤ___1
  6
CONTINUOUS
 62
    7
 10
1337.0452050000004
 20
527.04829000000007
 11
1336.621455
 21
526.62454000000002
  0
LINE
  8
_0-1_レイヤ___1
  6
CONTINUOUS
 62
    7
 10
1336.621455
 20
526.62454000000002
 11
1336.199435
 21
526.62454000000002
  0
LINE
  8
_0-1_レイヤ___1
  6
CONTINUOUS
 62
    7
 10
1336.199435
 20
526.62454000000002
 11
1335.7756850000001
 21
526.62454000000002
  0
LINE
  8
_0-1_レイヤ___1
  6
CONTINUOUS
 62
    7
 10
1323.0753450000002
 20
519.85148000000004
 11
1323.4990850000004
 21
519.85148000000004
  0
LINE
  8
_0-1_レイヤ___1
  6
CONTINUOUS
 62
    7
 10
1323.4990850000004
 20
519.85148000000004
 11
1323.9228350000003
 21
519.85148000000004
  0
LINE
  8
_0-1_レイヤ___1
  6
CONTINUOUS
 62
    7
 10
1323.9228350000003
 20
519.85148000000004
 11
1323.9228350000003
 21
520.27522999999997
  0
LINE
  8
_0-1_レイヤ___1
  6
CONTINUOUS
 62
    7
 10
1323.9228350000003
 20
520.27522999999997
 11
1324.3448650000003
 21
520.27522999999997
  0
LINE
  8
_0-1_レイヤ___1
  6
CONTINUOUS
 62
    7
 10
1193.5363050000001
 20
520.27522999999997
 11
1193.958335
 21
520.27522999999997
  0
LINE
  8
_0-1_レイヤ___1
  6
CONTINUOUS
 62
    7
 10
1193.958335
 20
520.27522999999997
 11
1193.958335
 21
519.85148000000004
  0
LINE
  8
_0-1_レイヤ___1
  6
CONTINUOUS
 62
    7
 10
1193.958335
 20
519.85148000000004
 11
1194.3820750000002
 21
519.85148000000004
  0
LINE
  8
_0-1_レイヤ___1
  6
CONTINUOUS
 62
    7
 10
1194.3820750000002
 20
519.85148000000004
 11
1194.8058250000001
 21
519.85148000000004
  0
LINE
  8
_0-1_レイヤ___1
  6
CONTINUOUS
 62
    7
 10
1182.105485
 20
526.62454000000002
 11
1181.6817350000001
 21
526.62454000000002
  0
LINE
  8
_0-1_レイヤ___1
  6
CONTINUOUS
 62
    7
 10
1181.6817350000001
 20
526.62454000000002
 11
1181.2597050000002
 21
526.62454000000002
  0
LINE
  8
_0-1_レイヤ___1
  6
CONTINUOUS
 62
    7
 10
1181.2597050000002
 20
526.62454000000002
 11
1180.8359650000002
 21
526.62454000000002
  0
LINE
  8
_0-1_レイヤ___1
  6
CONTINUOUS
 62
    7
 10
1180.8359650000002
 20
526.62454000000002
 11
1180.8359650000002
 21
527.04829000000007
  0
LINE
  8
_0-1_レイヤ___1
  6
CONTINUOUS
 62
    7
 10
1180.8359650000002
 20
527.04829000000007
 11
1180.4122150000003
 21
527.04829000000007
  0
LINE
  8
_0-1_レイヤ___1
  6
CONTINUOUS
 62
    7
 10
1180.4122150000003
 20
527.04829000000007
 11
1179.9884650000001
 21
527.04829000000007
  0
LINE
  8
_0-1_レイヤ___1
  6
CONTINUOUS
 62
    7
 10
1179.9884650000001
 20
527.04829000000007
 11
1179.5664450000002
 21
527.04829000000007
  0
LINE
  8
_0-1_レイヤ___1
  6
CONTINUOUS
 62
    7
 10
1179.5664450000002
 20
527.04829000000007
 11
1179.1426950000002
 21
527.04829000000007
  0
LINE
  8
_0-1_レイヤ___1
  6
CONTINUOUS
 62
    7
 10
1179.1426950000002
 20
527.04829000000007
 11
1179.1426950000002
 21
527.47203999999999
  0
LINE
  8
_0-1_レイヤ___1
  6
CONTINUOUS
 62
    7
 10
1179.1426950000002
 20
527.47203999999999
 11
1178.7189550000003
 21
527.47203999999999
  0
LINE
  8
_0-1_レイヤ___1
  6
CONTINUOUS
 62
    7
 10
1178.7189550000003
 20
527.47203999999999
 11
1178.2952050000001
 21
527.47203999999999
  0
LINE
  8
_0-1_レイヤ___1
  6
CONTINUOUS
 62
    7
 10
1178.2952050000001
 20
527.47203999999999
 11
1177.8714550000002
 21
527.47203999999999
  0
LINE
  8
_0-1_レイヤ___1
  6
CONTINUOUS
 62
    7
 10
1177.8714550000002
 20
527.47203999999999
 11
1177.4494350000002
 21
527.47203999999999
  0
LINE
  8
_0-1_レイヤ___1
  6
CONTINUOUS
 62
    7
 10
1177.4494350000002
 20
527.47203999999999
 11
1177.0256850000001
 21
527.47203999999999
  0
LINE
  8
_0-1_レイヤ___1
  6
CONTINUOUS
 62
    7
 10
1177.0256850000001
 20
527.47203999999999
 11
1176.6019450000001
 21
527.47203999999999
  0
LINE
  8
_0-1_レイヤ___1
  6
CONTINUOUS
 62
    7
 10
1176.6019450000001
 20
527.47203999999999
 11
1176.1781950000002
 21
527.47203999999999
  0
LINE
  8
_0-1_レイヤ___1
  6
CONTINUOUS
 62
    7
 10
1176.1781950000002
 20
527.47203999999999
 11
1176.1781950000002
 21
527.89577999999995
  0
LINE
  8
_0-1_レイヤ___1
  6
CONTINUOUS
 62
    7
 10
1176.1781950000002
 20
527.89577999999995
 11
1175.756165
 21
527.89577999999995
  0
LINE
  8
_0-1_レイヤ___1
  6
CONTINUOUS
 62
    7
 10
1175.756165
 20
527.89577999999995
 11
1175.3324250000001
 21
527.89577999999995
  0
LINE
  8
_0-1_レイヤ___1
  6
CONTINUOUS
 62
    7
 10
1175.3324250000001
 20
527.89577999999995
 11
1174.9086750000001
 21
527.89577999999995
  0
LINE
  8
_0-1_レイヤ___1
  6
CONTINUOUS
 62
    7
 10
1174.9086750000001
 20
527.89577999999995
 11
1174.4849250000002
 21
527.89577999999995
  0
LINE
  8
_0-1_レイヤ___1
  6
CONTINUOUS
 62
    7
 10
1174.4849250000002
 20
527.89577999999995
 11
1174.0629050000002
 21
527.89577999999995
  0
LINE
  8
_0-1_レイヤ___1
  6
CONTINUOUS
 62
    7
 10
1193.5363050000001
 20
520.27522999999997
 11
1193.5363050000001
 21
520.69898000000001
  0
LINE
  8
_0-1_レイヤ___1
  6
CONTINUOUS
 62
    7
 10
1193.5363050000001
 20
520.69898000000001
 11
1193.1125650000001
 21
520.69898000000001
  0
LINE
  8
_0-1_レイヤ___1
  6
CONTINUOUS
 62
    7
 10
1193.1125650000001
 20
520.69898000000001
 11
1192.6888150000002
 21
520.69898000000001
  0
LINE
  8
_0-1_レイヤ___1
  6
CONTINUOUS
 62
    7
 10
1192.6888150000002
 20
520.69898000000001
 11
1192.6888150000002
 21
521.12273000000005
  0
LINE
  8
_0-1_レイヤ___1
  6
CONTINUOUS
 62
    7
 10
1192.6888150000002
 20
521.12273000000005
 11
1192.265065
 21
521.12273000000005
  0
LINE
  8
_0-1_レイヤ___1
  6
CONTINUOUS
 62
    7
 10
1192.265065
 20
521.12273000000005
 11
1192.265065
 21
521.54647
  0
LINE
  8
_0-1_レイヤ___1
  6
CONTINUOUS
 62
    7
 10
1192.265065
 20
521.54647
 11
1191.8430450000001
 21
521.54647
  0
LINE
  8
_0-1_レイヤ___1
  6
CONTINUOUS
 62
    7
 10
1191.8430450000001
 20
521.54647
 11
1191.8430450000001
 21
521.97021999999993
  0
LINE
  8
_0-1_レイヤ___1
  6
CONTINUOUS
 62
    7
 10
1191.8430450000001
 20
521.97021999999993
 11
1191.4192950000001
 21
521.97021999999993
  0
LINE
  8
_0-1_レイヤ___1
  6
CONTINUOUS
 62
    7
 10
1191.4192950000001
 20
521.97021999999993
 11
1190.9955450000002
 21
521.97021999999993
  0
LINE
  8
_0-1_レイヤ___1
  6
CONTINUOUS
 62
    7
 10
1190.9955450000002
 20
521.97021999999993
 11
1190.9955450000002
 21
522.39397000000008
  0
LINE
  8
_0-1_レイヤ___1
  6
CONTINUOUS
 62
    7
 10
1190.9955450000002
 20
522.39397000000008
 11
1190.571805
 21
522.39397000000008
  0
LINE
  8
_0-1_レイヤ___1
  6
CONTINUOUS
 62
    7
 10
1190.571805
 20
522.39397000000008
 11
1190.571805
 21
522.81771000000003
  0
LINE
  8
_0-1_レイヤ___1
  6
CONTINUOUS
 62
    7
 10
1190.571805
 20
522.81771000000003
 11
1190.1497750000001
 21
522.81771000000003
  0
LINE
  8
_0-1_レイヤ___1
  6
CONTINUOUS
 62
    7
 10
1190.1497750000001
 20
522.81771000000003
 11
1189.7260350000001
 21
522.81771000000003
  0
LINE
  8
_0-1_レイヤ___1
  6
CONTINUOUS
 62
    7
 10
1189.7260350000001
 20
522.81771000000003
 11
1189.7260350000001
 21
523.23801000000003
  0
LINE
  8
_0-1_レイヤ___1
  6
CONTINUOUS
 62
    7
 10
1189.7260350000001
 20
523.23801000000003
 11
1189.3022850000002
 21
523.23801000000003
  0
LINE
  8
_0-1_レイヤ___1
  6
CONTINUOUS
 62
    7
 10
1189.3022850000002
 20
523.23801000000003
 11
1189.3022850000002
 21
523.66176000000007
  0
LINE
  8
_0-1_レイヤ___1
  6
CONTINUOUS
 62
    7
 10
1189.3022850000002
 20
523.66176000000007
 11
1188.8785350000003
 21
523.66176000000007
  0
LINE
  8
_0-1_レイヤ___1
  6
CONTINUOUS
 62
    7
 10
1188.8785350000003
 20
523.66176000000007
 11
1188.4547950000001
 21
523.66176000000007
  0
LINE
  8
_0-1_レイヤ___1
  6
CONTINUOUS
 62
    7
 10
1188.4547950000001
 20
523.66176000000007
 11
1188.4547950000001
 21
524.08551
  0
LINE
  8
_0-1_レイヤ___1
  6
CONTINUOUS
 62
    7
 10
1188.4547950000001
 20
524.08551
 11
1188.0327650000002
 21
524.08551
  0
LINE
  8
_0-1_レイヤ___1
  6
CONTINUOUS
 62
    7
 10
1188.0327650000002
 20
524.08551
 11
1187.6090250000002
 21
524.08551
  0
LINE
  8
_0-1_レイヤ___1
  6
CONTINUOUS
 62
    7
 10
1187.6090250000002
 20
524.08551
 11
1187.6090250000002
 21
524.50924999999995
  0
LINE
  8
_0-1_レイヤ___1
  6
CONTINUOUS
 62
    7
 10
1187.6090250000002
 20
524.50924999999995
 11
1187.1852750000003
 21
524.50924999999995
  0
LINE
  8
_0-1_レイヤ___1
  6
CONTINUOUS
 62
    7
 10
1187.1852750000003
 20
524.50924999999995
 11
1186.7615250000001
 21
524.50924999999995
  0
LINE
  8
_0-1_レイヤ___1
  6
CONTINUOUS
 62
    7
 10
1186.7615250000001
 20
524.50924999999995
 11
1186.7615250000001
 21
524.93299999999999
  0
LINE
  8
_0-1_レイヤ___1
  6
CONTINUOUS
 62
    7
 10
1186.7615250000001
 20
524.93299999999999
 11
1186.3395050000001
 21
524.93299999999999
  0
LINE
  8
_0-1_レイヤ___1
  6
CONTINUOUS
 62
    7
 10
1186.3395050000001
 20
524.93299999999999
 11
1185.9157550000002
 21
524.93299999999999
  0
LINE
  8
_0-1_レイヤ___1
  6
CONTINUOUS
 62
    7
 10
1185.9157550000002
 20
524.93299999999999
 11
1185.9157550000002
 21
525.35674999999992
  0
LINE
  8
_0-1_レイヤ___1
  6
CONTINUOUS
 62
    7
 10
1185.9157550000002
 20
525.35674999999992
 11
1185.4920050000001
 21
525.35674999999992
  0
LINE
  8
_0-1_レイヤ___1
  6
CONTINUOUS
 62
    7
 10
1185.4920050000001
 20
525.35674999999992
 11
1185.0682650000001
 21
525.35674999999992
  0
LINE
  8
_0-1_レイヤ___1
  6
CONTINUOUS
 62
    7
 10
1185.0682650000001
 20
525.35674999999992
 11
1184.6462350000002
 21
525.78048999999999
  0
LINE
  8
_0-1_レイヤ___1
  6
CONTINUOUS
 62
    7
 10
1184.6462350000002
 20
525.78048999999999
 11
1184.2224950000002
 21
525.78048999999999
  0
LINE
  8
_0-1_レイヤ___1
  6
CONTINUOUS
 62
    7
 10
1184.2224950000002
 20
525.78048999999999
 11
1183.7987450000001
 21
525.78048999999999
  0
LINE
  8
_0-1_レイヤ___1
  6
CONTINUOUS
 62
    7
 10
1183.7987450000001
 20
525.78048999999999
 11
1183.7987450000001
 21
526.20424000000003
  0
LINE
  8
_0-1_レイヤ___1
  6
CONTINUOUS
 62
    7
 10
1183.7987450000001
 20
526.20424000000003
 11
1183.3749950000001
 21
526.20424000000003
  0
LINE
  8
_0-1_レイヤ___1
  6
CONTINUOUS
 62
    7
 10
1183.3749950000001
 20
526.20424000000003
 11
1182.9529750000002
 21
526.20424000000003
  0
LINE
  8
_0-1_レイヤ___1
  6
CONTINUOUS
 62
    7
 10
1182.9529750000002
 20
526.20424000000003
 11
1182.5292250000002
 21
526.20424000000003
  0
LINE
  8
_0-1_レイヤ___1
  6
CONTINUOUS
 62
    7
 10
1182.5292250000002
 20
526.20424000000003
 11
1182.5292250000002
 21
526.62454000000002
  0
LINE
  8
_0-1_レイヤ___1
  6
CONTINUOUS
 62
    7
 10
1182.5292250000002
 20
526.62454000000002
 11
1182.105485
 21
526.62454000000002
  0
LINE
  8
_0-1_レイヤ___1
  6
CONTINUOUS
 62
    7
 10
1368.3714550000002
 20
517.73620000000005
 11
1368.7952050000001
 21
517.73620000000005
  0
LINE
  8
_0-1_レイヤ___1
  6
CONTINUOUS
 62
    7
 10
1368.7952050000001
 20
517.73620000000005
 11
1369.2189550000001
 21
517.73620000000005
  0
LINE
  8
_0-1_レイヤ___1
  6
CONTINUOUS
 62
    7
 10
1369.2189550000001
 20
517.73620000000005
 11
1369.2189550000001
 21
518.15994000000001
  0
LINE
  8
_0-1_レイヤ___1
  6
CONTINUOUS
 62
    7
 10
1369.2189550000001
 20
518.15994000000001
 11
1369.6426950000002
 21
518.15994000000001
  0
LINE
  8
_0-1_レイヤ___1
  6
CONTINUOUS
 62
    7
 10
1369.6426950000002
 20
518.15994000000001
 11
1369.6426950000002
 21
518.58369000000005
  0
LINE
  8
_0-1_レイヤ___1
  6
CONTINUOUS
 62
    7
 10
1369.6426950000002
 20
518.58369000000005
 11
1370.0664450000002
 21
518.58369000000005
  0
LINE
  8
_0-1_レイヤ___1
  6
CONTINUOUS
 62
    7
 10
1370.0664450000002
 20
518.58369000000005
 11
1370.0664450000002
 21
519.00744000000009
  0
LINE
  8
_0-1_レイヤ___1
  6
CONTINUOUS
 62
    7
 10
1353.9795750000003
 20
519.00744000000009
 11
1353.9795750000003
 21
518.58369000000005
  0
LINE
  8
_0-1_レイヤ___1
  6
CONTINUOUS
 62
    7
 10
1353.9795750000003
 20
518.58369000000005
 11
1353.9795750000003
 21
518.15994000000001
  0
LINE
  8
_0-1_レイヤ___1
  6
CONTINUOUS
 62
    7
 10
1353.9795750000003
 20
518.15994000000001
 11
1354.4015950000003
 21
518.15994000000001
  0
LINE
  8
_0-1_レイヤ___1
  6
CONTINUOUS
 62
    7
 10
1354.4015950000003
 20
518.15994000000001
 11
1354.4015950000003
 21
517.73620000000005
  0
LINE
  8
_0-1_レイヤ___1
  6
CONTINUOUS
 62
    7
 10
1354.4015950000003
 20
517.73620000000005
 11
1354.8253450000002
 21
517.73620000000005
  0
LINE
  8
_0-1_レイヤ___1
  6
CONTINUOUS
 62
    7
 10
1354.8253450000002
 20
517.73620000000005
 11
1355.2490850000002
 21
517.73620000000005
  0
LINE
  8
_0-1_レイヤ___1
  6
CONTINUOUS
 62
    7
 10
1353.132075
 20
527.04829000000007
 11
1353.132075
 21
527.47203999999999
  0
LINE
  8
_0-1_レイヤ___1
  6
CONTINUOUS
 62
    7
 10
1353.132075
 20
527.47203999999999
 11
1353.132075
 21
527.89577999999995
  0
LINE
  8
_0-1_レイヤ___1
  6
CONTINUOUS
 62
    7
 10
1353.132075
 20
527.89577999999995
 11
1353.132075
 21
528.31952999999999
  0
LINE
  8
_0-1_レイヤ___1
  6
CONTINUOUS
 62
    7
 10
1353.132075
 20
528.31952999999999
 11
1353.132075
 21
528.74328000000003
  0
LINE
  8
_0-1_レイヤ___1
  6
CONTINUOUS
 62
    7
 10
1353.132075
 20
528.74328000000003
 11
1352.708335
 21
529.16701999999998
  0
LINE
  8
_0-1_レイヤ___1
  6
CONTINUOUS
 62
    7
 10
1352.708335
 20
529.16701999999998
 11
1352.708335
 21
529.59077000000002
  0
LINE
  8
_0-1_レイヤ___1
  6
CONTINUOUS
 62
    7
 10
1352.708335
 20
529.59077000000002
 11
1352.2863050000001
 21
530.01451999999995
  0
LINE
  8
_0-1_レイヤ___1
  6
CONTINUOUS
 62
    7
 10
1352.2863050000001
 20
530.01451999999995
 11
1352.2863050000001
 21
530.43481999999995
  0
LINE
  8
_0-1_レイヤ___1
  6
CONTINUOUS
 62
    7
 10
1352.2863050000001
 20
530.43481999999995
 11
1351.8625650000001
 21
530.43481999999995
  0
LINE
  8
_0-1_レイヤ___1
  6
CONTINUOUS
 62
    7
 10
1351.8625650000001
 20
530.43481999999995
 11
1351.8625650000001
 21
530.85856000000001
  0
LINE
  8
_0-1_レイヤ___1
  6
CONTINUOUS
 62
    7
 10
1351.8625650000001
 20
530.85856000000001
 11
1351.4388150000002
 21
530.85856000000001
  0
LINE
  8
_0-1_レイヤ___1
  6
CONTINUOUS
 62
    7
 10
1351.4388150000002
 20
530.85856000000001
 11
1351.4388150000002
 21
531.28231000000005
  0
LINE
  8
_0-1_レイヤ___1
  6
CONTINUOUS
 62
    7
 10
1351.4388150000002
 20
531.28231000000005
 11
1351.0150650000003
 21
531.28231000000005
  0
LINE
  8
_0-1_レイヤ___1
  6
CONTINUOUS
 62
    7
 10
1351.0150650000003
 20
531.28231000000005
 11
1351.0150650000003
 21
531.70605999999998
  0
LINE
  8
_0-1_レイヤ___1
  6
CONTINUOUS
 62
    7
 10
1351.0150650000003
 20
531.70605999999998
 11
1350.5930450000003
 21
531.70605999999998
  0
LINE
  8
_0-1_レイヤ___1
  6
CONTINUOUS
 62
    7
 10
1350.5930450000003
 20
531.70605999999998
 11
1350.5930450000003
 21
532.12981000000002
  0
LINE
  8
_0-1_レイヤ___1
  6
CONTINUOUS
 62
    7
 10
1350.5930450000003
 20
532.12981000000002
 11
1350.1692950000001
 21
532.12981000000002
  0
LINE
  8
_0-1_レイヤ___1
  6
CONTINUOUS
 62
    7
 10
1350.1692950000001
 20
532.12981000000002
 11
1349.7455450000002
 21
532.12981000000002
  0
LINE
  8
_0-1_レイヤ___1
  6
CONTINUOUS
 62
    7
 10
1370.0664450000002
 20
518.15994000000001
 11
1370.0664450000002
 21
518.58369000000005
  0
LINE
  8
_0-1_レイヤ___1
  6
CONTINUOUS
 62
    7
 10
1370.0664450000002
 20
518.58369000000005
 11
1370.0664450000002
 21
519.00744000000009
  0
LINE
  8
_0-1_レイヤ___1
  6
CONTINUOUS
 62
    7
 10
1368.3714550000002
 20
517.73620000000005
 11
1368.7952050000001
 21
517.73620000000005
  0
LINE
  8
_0-1_レイヤ___1
  6
CONTINUOUS
 62
    7
 10
1368.7952050000001
 20
517.73620000000005
 11
1369.2189550000001
 21
517.73620000000005
  0
LINE
  8
_0-1_レイヤ___1
  6
CONTINUOUS
 62
    7
 10
1369.2189550000001
 20
517.73620000000005
 11
1369.6426950000002
 21
517.73620000000005
  0
LINE
  8
_0-1_レイヤ___1
  6
CONTINUOUS
 62
    7
 10
1369.6426950000002
 20
517.73620000000005
 11
1369.6426950000002
 21
518.15994000000001
  0
LINE
  8
_0-1_レイヤ___1
  6
CONTINUOUS
 62
    7
 10
1369.6426950000002
 20
518.15994000000001
 11
1370.0664450000002
 21
518.15994000000001
  0
LINE
  8
_0-1_レイヤ___1
  6
CONTINUOUS
 62
    7
 10
1414.5150650000003
 20
750.14578000000006
 11
1414.5150650000003
 21
749.72204000000011
  0
LINE
  8
_0-1_レイヤ___1
  6
CONTINUOUS
 62
    7
 10
1414.5150650000003
 20
749.72204000000011
 11
1414.0930450000001
 21
749.72204000000011
  0
LINE
  8
_0-1_レイヤ___1
  6
CONTINUOUS
 62
    7
 10
1414.0930450000001
 20
749.72204000000011
 11
1414.0930450000001
 21
749.29828999999995
  0
LINE
  8
_0-1_レイヤ___1
  6
CONTINUOUS
 62
    7
 10
1414.0930450000001
 20
749.29828999999995
 11
1414.0930450000001
 21
748.87454000000002
  0
LINE
  8
_0-1_レイヤ___1
  6
CONTINUOUS
 62
    7
 10
1414.0930450000001
 20
748.87454000000002
 11
1413.6692950000001
 21
748.87454000000002
  0
LINE
  8
_0-1_レイヤ___1
  6
CONTINUOUS
 62
    7
 10
1413.6692950000001
 20
748.87454000000002
 11
1413.6692950000001
 21
748.45423999999991
  0
LINE
  8
_0-1_レイヤ___1
  6
CONTINUOUS
 62
    7
 10
1413.6692950000001
 20
748.45423999999991
 11
1413.6692950000001
 21
748.03048999999999
  0
LINE
  8
_0-1_レイヤ___1
  6
CONTINUOUS
 62
    7
 10
1413.6692950000001
 20
748.03048999999999
 11
1413.245545
 21
748.03048999999999
  0
LINE
  8
_0-1_レイヤ___1
  6
CONTINUOUS
 62
    7
 10
1413.245545
 20
748.03048999999999
 11
1413.245545
 21
747.60675000000003
  0
LINE
  8
_0-1_レイヤ___1
  6
CONTINUOUS
 62
    7
 10
1413.245545
 20
747.60675000000003
 11
1413.245545
 21
747.18299999999999
  0
LINE
  8
_0-1_レイヤ___1
  6
CONTINUOUS
 62
    7
 10
1413.245545
 20
747.18299999999999
 11
1412.821805
 21
747.18299999999999
  0
LINE
  8
_0-1_レイヤ___1
  6
CONTINUOUS
 62
    7
 10
1412.821805
 20
747.18299999999999
 11
1412.821805
 21
746.75925000000007
  0
LINE
  8
_0-1_レイヤ___1
  6
CONTINUOUS
 62
    7
 10
1412.821805
 20
746.75925000000007
 11
1412.821805
 21
746.33551
  0
LINE
  8
_0-1_レイヤ___1
  6
CONTINUOUS
 62
    7
 10
1412.821805
 20
746.33551
 11
1412.821805
 21
745.91176000000007
  0
LINE
  8
_0-1_レイヤ___1
  6
CONTINUOUS
 62
    7
 10
1412.821805
 20
745.91176000000007
 11
1412.821805
 21
745.48801000000003
  0
LINE
  8
_0-1_レイヤ___1
  6
CONTINUOUS
 62
    7
 10
1412.821805
 20
745.48801000000003
 11
1412.3997750000001
 21
745.48801000000003
  0
LINE
  8
_0-1_レイヤ___1
  6
CONTINUOUS
 62
    7
 10
1412.3997750000001
 20
745.48801000000003
 11
1412.3997750000001
 21
745.06771000000003
  0
LINE
  8
_0-1_レイヤ___1
  6
CONTINUOUS
 62
    7
 10
1412.3997750000001
 20
745.06771000000003
 11
1412.3997750000001
 21
744.64397000000008
  0
LINE
  8
_0-1_レイヤ___1
  6
CONTINUOUS
 62
    7
 10
1385.7295750000003
 20
538.05537000000004
 11
1386.151595
 21
538.05537000000004
  0
LINE
  8
_0-1_レイヤ___1
  6
CONTINUOUS
 62
    7
 10
1386.151595
 20
538.05537000000004
 11
1386.151595
 21
538.47911999999997
  0
LINE
  8
_0-1_レイヤ___1
  6
CONTINUOUS
 62
    7
 10
1386.151595
 20
538.47911999999997
 11
1386.5753450000002
 21
538.47911999999997
  0
LINE
  8
_0-1_レイヤ___1
  6
CONTINUOUS
 62
    7
 10
1386.5753450000002
 20
538.47911999999997
 11
1386.5753450000002
 21
538.90286000000003
  0
LINE
  8
_0-1_レイヤ___1
  6
CONTINUOUS
 62
    7
 10
1386.5753450000002
 20
538.90286000000003
 11
1386.9990850000002
 21
538.90286000000003
  0
LINE
  8
_0-1_レイヤ___1
  6
CONTINUOUS
 62
    7
 10
1386.9990850000002
 20
538.90286000000003
 11
1386.9990850000002
 21
539.32661000000007
  0
LINE
  8
_0-1_レイヤ___1
  6
CONTINUOUS
 62
    7
 10
1386.9990850000002
 20
539.32661000000007
 11
1387.4228350000001
 21
539.32661000000007
  0
LINE
  8
_0-1_レイヤ___1
  6
CONTINUOUS
 62
    7
 10
1387.4228350000001
 20
539.32661000000007
 11
1387.4228350000001
 21
539.75036
  0
LINE
  8
_0-1_レイヤ___1
  6
CONTINUOUS
 62
    7
 10
1387.4228350000001
 20
539.75036
 11
1387.844865
 21
539.75036
  0
LINE
  8
_0-1_レイヤ___1
  6
CONTINUOUS
 62
    7
 10
1387.844865
 20
539.75036
 11
1387.844865
 21
540.17409999999995
  0
LINE
  8
_0-1_レイヤ___1
  6
CONTINUOUS
 62
    7
 10
1387.844865
 20
540.17409999999995
 11
1388.2686050000002
 21
540.17409999999995
  0
LINE
  8
_0-1_レイヤ___1
  6
CONTINUOUS
 62
    7
 10
1388.2686050000002
 20
540.17409999999995
 11
1388.2686050000002
 21
540.59784999999999
  0
LINE
  8
_0-1_レイヤ___1
  6
CONTINUOUS
 62
    7
 10
1388.2686050000002
 20
540.59784999999999
 11
1388.6923550000001
 21
540.59784999999999
  0
LINE
  8
_0-1_レイヤ___1
  6
CONTINUOUS
 62
    7
 10
1388.6923550000001
 20
540.59784999999999
 11
1388.6923550000001
 21
541.01814999999999
  0
LINE
  8
_0-1_レイヤ___1
  6
CONTINUOUS
 62
    7
 10
1388.6923550000001
 20
541.01814999999999
 11
1389.1161050000003
 21
541.44190000000003
  0
LINE
  8
_0-1_レイヤ___1
  6
CONTINUOUS
 62
    7
 10
1389.1161050000003
 20
541.44190000000003
 11
1389.1161050000003
 21
541.86564999999996
  0
LINE
  8
_0-1_レイヤ___1
  6
CONTINUOUS
 62
    7
 10
1389.1161050000003
 20
541.86564999999996
 11
1389.5381250000003
 21
541.86564999999996
  0
LINE
  8
_0-1_レイヤ___1
  6
CONTINUOUS
 62
    7
 10
1389.5381250000003
 20
541.86564999999996
 11
1389.5381250000003
 21
542.28938999999991
  0
LINE
  8
_0-1_レイヤ___1
  6
CONTINUOUS
 62
    7
 10
1389.5381250000003
 20
542.28938999999991
 11
1389.9618750000002
 21
542.28938999999991
  0
LINE
  8
_0-1_レイヤ___1
  6
CONTINUOUS
 62
    7
 10
1389.9618750000002
 20
542.28938999999991
 11
1389.9618750000002
 21
542.71314000000007
  0
LINE
  8
_0-1_レイヤ___1
  6
CONTINUOUS
 62
    7
 10
1389.9618750000002
 20
542.71314000000007
 11
1390.3856150000001
 21
542.71314000000007
  0
LINE
  8
_0-1_レイヤ___1
  6
CONTINUOUS
 62
    7
 10
1390.3856150000001
 20
542.71314000000007
 11
1390.3856150000001
 21
543.13688999999999
  0
LINE
  8
_0-1_レイヤ___1
  6
CONTINUOUS
 62
    7
 10
1390.3856150000001
 20
543.13688999999999
 11
1390.8093650000001
 21
543.56062999999995
  0
LINE
  8
_0-1_レイヤ___1
  6
CONTINUOUS
 62
    7
 10
1390.8093650000001
 20
543.56062999999995
 11
1390.8093650000001
 21
543.98437999999999
  0
LINE
  8
_0-1_レイヤ___1
  6
CONTINUOUS
 62
    7
 10
1390.8093650000001
 20
543.98437999999999
 11
1391.2331150000002
 21
543.98437999999999
  0
LINE
  8
_0-1_レイヤ___1
  6
CONTINUOUS
 62
    7
 10
1391.2331150000002
 20
543.98437999999999
 11
1391.2331150000002
 21
544.40467999999998
  0
LINE
  8
_0-1_レイヤ___1
  6
CONTINUOUS
 62
    7
 10
1391.2331150000002
 20
544.40467999999998
 11
1391.655135
 21
544.40467999999998
  0
LINE
  8
_0-1_レイヤ___1
  6
CONTINUOUS
 62
    7
 10
1391.655135
 20
544.40467999999998
 11
1391.655135
 21
544.82843000000003
  0
LINE
  8
_0-1_レイヤ___1
  6
CONTINUOUS
 62
    7
 10
1391.655135
 20
544.82843000000003
 11
1391.655135
 21
545.25216999999998
  0
LINE
  8
_0-1_レイヤ___1
  6
CONTINUOUS
 62
    7
 10
1391.655135
 20
545.25216999999998
 11
1392.0788850000004
 21
545.25216999999998
  0
LINE
  8
_0-1_レイヤ___1
  6
CONTINUOUS
 62
    7
 10
1392.0788850000004
 20
545.25216999999998
 11
1392.0788850000004
 21
545.67592000000002
  0
LINE
  8
_0-1_レイヤ___1
  6
CONTINUOUS
 62
    7
 10
1392.0788850000004
 20
545.67592000000002
 11
1392.5026250000001
 21
546.09966999999995
  0
LINE
  8
_0-1_レイヤ___1
  6
CONTINUOUS
 62
    7
 10
1392.5026250000001
 20
546.09966999999995
 11
1392.5026250000001
 21
546.52341000000001
  0
LINE
  8
_0-1_レイヤ___1
  6
CONTINUOUS
 62
    7
 10
1392.5026250000001
 20
546.52341000000001
 11
1392.926375
 21
546.52341000000001
  0
LINE
  8
_0-1_レイヤ___1
  6
CONTINUOUS
 62
    7
 10
1392.926375
 20
546.52341000000001
 11
1392.926375
 21
546.94715999999994
  0
LINE
  8
_0-1_レイヤ___1
  6
CONTINUOUS
 62
    7
 10
1392.926375
 20
546.94715999999994
 11
1392.926375
 21
547.37090999999998
  0
LINE
  8
_0-1_レイヤ___1
  6
CONTINUOUS
 62
    7
 10
1392.926375
 20
547.37090999999998
 11
1393.3484050000002
 21
547.37090999999998
  0
LINE
  8
_0-1_レイヤ___1
  6
CONTINUOUS
 62
    7
 10
1393.3484050000002
 20
547.37090999999998
 11
1393.3484050000002
 21
547.79121000000009
  0
LINE
  8
_0-1_レイヤ___1
  6
CONTINUOUS
 62
    7
 10
1393.3484050000002
 20
547.79121000000009
 11
1393.3484050000002
 21
548.21496000000002
  0
LINE
  8
_0-1_レイヤ___1
  6
CONTINUOUS
 62
    7
 10
1393.3484050000002
 20
548.21496000000002
 11
1393.7721450000001
 21
548.21496000000002
  0
LINE
  8
_0-1_レイヤ___1
  6
CONTINUOUS
 62
    7
 10
1393.7721450000001
 20
548.21496000000002
 11
1393.7721450000001
 21
548.63869999999997
  0
LINE
  8
_0-1_レイヤ___1
  6
CONTINUOUS
 62
    7
 10
1393.7721450000001
 20
548.63869999999997
 11
1393.7721450000001
 21
549.06245000000001
  0
LINE
  8
_0-1_レイヤ___1
  6
CONTINUOUS
 62
    7
 10
1393.7721450000001
 20
549.06245000000001
 11
1394.1958950000003
 21
549.06245000000001
  0
LINE
  8
_0-1_レイヤ___1
  6
CONTINUOUS
 62
    7
 10
1394.1958950000003
 20
549.06245000000001
 11
1394.1958950000003
 21
549.48619999999994
  0
LINE
  8
_0-1_レイヤ___1
  6
CONTINUOUS
 62
    7
 10
1394.1958950000003
 20
549.48619999999994
 11
1394.1958950000003
 21
549.90994000000001
  0
LINE
  8
_0-1_レイヤ___1
  6
CONTINUOUS
 62
    7
 10
1394.1958950000003
 20
549.90994000000001
 11
1394.6196450000002
 21
549.90994000000001
  0
LINE
  8
_0-1_レイヤ___1
  6
CONTINUOUS
 62
    7
 10
1394.6196450000002
 20
549.90994000000001
 11
1394.6196450000002
 21
550.33369000000005
  0
LINE
  8
_0-1_レイヤ___1
  6
CONTINUOUS
 62
    7
 10
1394.6196450000002
 20
550.33369000000005
 11
1394.6196450000002
 21
550.75743999999997
  0
LINE
  8
_0-1_レイヤ___1
  6
CONTINUOUS
 62
    7
 10
1394.6196450000002
 20
550.75743999999997
 11
1394.6196450000002
 21
551.18118000000004
  0
LINE
  8
_0-1_レイヤ___1
  6
CONTINUOUS
 62
    7
 10
1394.6196450000002
 20
551.18118000000004
 11
1395.0416650000002
 21
551.18118000000004
  0
LINE
  8
_0-1_レイヤ___1
  6
CONTINUOUS
 62
    7
 10
1395.0416650000002
 20
551.18118000000004
 11
1395.0416650000002
 21
551.60148000000004
  0
LINE
  8
_0-1_レイヤ___1
  6
CONTINUOUS
 62
    7
 10
1395.0416650000002
 20
551.60148000000004
 11
1395.0416650000002
 21
552.02522999999997
  0
LINE
  8
_0-1_レイヤ___1
  6
CONTINUOUS
 62
    7
 10
1395.0416650000002
 20
552.02522999999997
 11
1395.4654150000001
 21
552.44898000000001
  0
LINE
  8
_0-1_レイヤ___1
  6
CONTINUOUS
 62
    7
 10
1395.4654150000001
 20
552.44898000000001
 11
1395.4654150000001
 21
552.87273000000005
  0
LINE
  8
_0-1_レイヤ___1
  6
CONTINUOUS
 62
    7
 10
1395.4654150000001
 20
552.87273000000005
 11
1395.4654150000001
 21
553.29647
  0
LINE
  8
_0-1_レイヤ___1
  6
CONTINUOUS
 62
    7
 10
1395.4654150000001
 20
553.29647
 11
1395.8891550000001
 21
553.29647
  0
LINE
  8
_0-1_レイヤ___1
  6
CONTINUOUS
 62
    7
 10
1395.8891550000001
 20
553.29647
 11
1395.8891550000001
 21
553.72022000000004
  0
LINE
  8
_0-1_レイヤ___1
  6
CONTINUOUS
 62
    7
 10
1395.8891550000001
 20
553.72022000000004
 11
1395.8891550000001
 21
554.14396999999997
  0
LINE
  8
_0-1_レイヤ___1
  6
CONTINUOUS
 62
    7
 10
1395.8891550000001
 20
554.14396999999997
 11
1395.8891550000001
 21
554.56771000000003
  0
LINE
  8
_0-1_レイヤ___1
  6
CONTINUOUS
 62
    7
 10
1395.8891550000001
 20
554.56771000000003
 11
1395.8891550000001
 21
554.98801000000003
  0
LINE
  8
_0-1_レイヤ___1
  6
CONTINUOUS
 62
    7
 10
1395.8891550000001
 20
554.98801000000003
 11
1396.312905
 21
554.98801000000003
  0
LINE
  8
_0-1_レイヤ___1
  6
CONTINUOUS
 62
    7
 10
1396.312905
 20
554.98801000000003
 11
1396.312905
 21
555.41175999999996
  0
LINE
  8
_0-1_レイヤ___1
  6
CONTINUOUS
 62
    7
 10
1396.312905
 20
555.41175999999996
 11
1396.312905
 21
555.83551
  0
LINE
  8
_0-1_レイヤ___1
  6
CONTINUOUS
 62
    7
 10
1396.312905
 20
555.83551
 11
1396.312905
 21
556.25925000000007
  0
LINE
  8
_0-1_レイヤ___1
  6
CONTINUOUS
 62
    7
 10
1396.312905
 20
556.25925000000007
 11
1396.312905
 21
556.68299999999999
  0
LINE
  8
_0-1_レイヤ___1
  6
CONTINUOUS
 62
    7
 10
1396.312905
 20
556.68299999999999
 11
1396.7349250000002
 21
556.68299999999999
  0
LINE
  8
_0-1_レイヤ___1
  6
CONTINUOUS
 62
    7
 10
1396.7349250000002
 20
556.68299999999999
 11
1396.7349250000002
 21
557.10675000000003
  0
LINE
  8
_0-1_レイヤ___1
  6
CONTINUOUS
 62
    7
 10
1396.7349250000002
 20
557.10675000000003
 11
1396.7349250000002
 21
557.53048999999999
  0
LINE
  8
_0-1_レイヤ___1
  6
CONTINUOUS
 62
    7
 10
1396.7349250000002
 20
557.53048999999999
 11
1396.7349250000002
 21
557.95424000000003
  0
LINE
  8
_0-1_レイヤ___1
  6
CONTINUOUS
 62
    7
 10
1396.7349250000002
 20
557.95424000000003
 11
1396.7349250000002
 21
558.37454000000002
  0
LINE
  8
_0-1_レイヤ___1
  6
CONTINUOUS
 62
    7
 10
1396.7349250000002
 20
558.37454000000002
 11
1396.7349250000002
 21
558.79828999999995
  0
LINE
  8
_0-1_レイヤ___1
  6
CONTINUOUS
 62
    7
 10
1396.7349250000002
 20
558.79828999999995
 11
1397.1586750000001
 21
559.22203999999999
  0
LINE
  8
_0-1_レイヤ___1
  6
CONTINUOUS
 62
    7
 10
1397.1586750000001
 20
559.22203999999999
 11
1397.1586750000001
 21
559.64578000000006
  0
LINE
  8
_0-1_レイヤ___1
  6
CONTINUOUS
 62
    7
 10
1397.1586750000001
 20
559.64578000000006
 11
1397.1586750000001
 21
560.06952999999999
  0
LINE
  8
_0-1_レイヤ___1
  6
CONTINUOUS
 62
    7
 10
1397.1586750000001
 20
560.06952999999999
 11
1397.1586750000001
 21
560.49328000000003
  0
LINE
  8
_0-1_レイヤ___1
  6
CONTINUOUS
 62
    7
 10
1397.1586750000001
 20
560.49328000000003
 11
1397.1586750000001
 21
560.91701999999998
  0
LINE
  8
_0-1_レイヤ___1
  6
CONTINUOUS
 62
    7
 10
646.58950500000014
 20
577.84967000000006
 11
646.58950500000014
 21
577.42592000000002
  0
LINE
  8
_0-1_レイヤ___1
  6
CONTINUOUS
 62
    7
 10
646.58950500000014
 20
577.42592000000002
 11
647.01152500000012
 21
577.42592000000002
  0
LINE
  8
_0-1_レイヤ___1
  6
CONTINUOUS
 62
    7
 10
647.01152500000012
 20
577.42592000000002
 11
647.01152500000012
 21
577.00216999999998
  0
LINE
  8
_0-1_レイヤ___1
  6
CONTINUOUS
 62
    7
 10
647.01152500000012
 20
577.00216999999998
 11
647.01152500000012
 21
576.57843000000003
  0
LINE
  8
_0-1_レイヤ___1
  6
CONTINUOUS
 62
    7
 10
647.01152500000012
 20
576.57843000000003
 11
647.01152500000012
 21
576.15467999999998
  0
LINE
  8
_0-1_レイヤ___1
  6
CONTINUOUS
 62
    7
 10
647.01152500000012
 20
576.15467999999998
 11
647.01152500000012
 21
575.73437999999999
  0
LINE
  8
_0-1_レイヤ___1
  6
CONTINUOUS
 62
    7
 10
647.01152500000012
 20
575.73437999999999
 11
647.01152500000012
 21
575.31063000000006
  0
LINE
  8
_0-1_レイヤ___1
  6
CONTINUOUS
 62
    7
 10
647.01152500000012
 20
575.31063000000006
 11
647.01152500000012
 21
574.88688999999999
  0
LINE
  8
_0-1_レイヤ___1
  6
CONTINUOUS
 62
    7
 10
647.01152500000012
 20
574.88688999999999
 11
647.01152500000012
 21
574.46314000000007
  0
LINE
  8
_0-1_レイヤ___1
  6
CONTINUOUS
 62
    7
 10
647.01152500000012
 20
574.46314000000007
 11
647.43527500000016
 21
574.46314000000007
  0
LINE
  8
_0-1_レイヤ___1
  6
CONTINUOUS
 62
    7
 10
647.43527500000016
 20
574.46314000000007
 11
647.43527500000016
 21
574.03939000000003
  0
LINE
  8
_0-1_レイヤ___1
  6
CONTINUOUS
 62
    7
 10
647.43527500000016
 20
574.03939000000003
 11
647.43527500000016
 21
573.61564999999996
  0
LINE
  8
_0-1_レイヤ___1
  6
CONTINUOUS
 62
    7
 10
647.43527500000016
 20
573.61564999999996
 11
647.43527500000016
 21
573.19190000000003
  0
LINE
  8
_0-1_レイヤ___1
  6
CONTINUOUS
 62
    7
 10
647.43527500000016
 20
573.19190000000003
 11
647.43527500000016
 21
572.76814999999999
  0
LINE
  8
_0-1_レイヤ___1
  6
CONTINUOUS
 62
    7
 10
647.43527500000016
 20
572.76814999999999
 11
647.43527500000016
 21
572.34784999999999
  0
LINE
  8
_0-1_レイヤ___1
  6
CONTINUOUS
 62
    7
 10
647.43527500000016
 20
572.34784999999999
 11
647.8590250000002
 21
572.34784999999999
  0
LINE
  8
_0-1_レイヤ___1
  6
CONTINUOUS
 62
    7
 10
647.8590250000002
 20
572.34784999999999
 11
647.8590250000002
 21
571.92410000000007
  0
LINE
  8
_0-1_レイヤ___1
  6
CONTINUOUS
 62
    7
 10
647.8590250000002
 20
571.92410000000007
 11
647.8590250000002
 21
571.50036
  0
LINE
  8
_0-1_レイヤ___1
  6
CONTINUOUS
 62
    7
 10
647.8590250000002
 20
571.50036
 11
647.8590250000002
 21
571.07660999999996
  0
LINE
  8
_0-1_レイヤ___1
  6
CONTINUOUS
 62
    7
 10
647.8590250000002
 20
571.07660999999996
 11
647.8590250000002
 21
570.65286000000003
  0
LINE
  8
_0-1_レイヤ___1
  6
CONTINUOUS
 62
    7
 10
647.8590250000002
 20
570.65286000000003
 11
648.28276500000015
 21
570.65286000000003
  0
LINE
  8
_0-1_レイヤ___1
  6
CONTINUOUS
 62
    7
 10
648.28276500000015
 20
570.65286000000003
 11
648.28276500000015
 21
570.22911999999997
  0
LINE
  8
_0-1_レイヤ___1
  6
CONTINUOUS
 62
    7
 10
648.28276500000015
 20
570.22911999999997
 11
648.28276500000015
 21
569.80537000000004
  0
LINE
  8
_0-1_レイヤ___1
  6
CONTINUOUS
 62
    7
 10
648.28276500000015
 20
569.80537000000004
 11
648.28276500000015
 21
569.38162
  0
LINE
  8
_0-1_レイヤ___1
  6
CONTINUOUS
 62
    7
 10
648.28276500000015
 20
569.38162
 11
648.7047950000001
 21
569.38162
  0
LINE
  8
_0-1_レイヤ___1
  6
CONTINUOUS
 62
    7
 10
648.7047950000001
 20
569.38162
 11
648.7047950000001
 21
568.95788000000005
  0
LINE
  8
_0-1_レイヤ___1
  6
CONTINUOUS
 62
    7
 10
648.7047950000001
 20
568.95788000000005
 11
648.7047950000001
 21
568.53756999999996
  0
LINE
  8
_0-1_レイヤ___1
  6
CONTINUOUS
 62
    7
 10
648.7047950000001
 20
568.53756999999996
 11
648.7047950000001
 21
568.11383000000001
  0
LINE
  8
_0-1_レイヤ___1
  6
CONTINUOUS
 62
    7
 10
648.7047950000001
 20
568.11383000000001
 11
649.12853500000006
 21
568.11383000000001
  0
LINE
  8
_0-1_レイヤ___1
  6
CONTINUOUS
 62
    7
 10
649.12853500000006
 20
568.11383000000001
 11
649.12853500000006
 21
567.69007999999997
  0
LINE
  8
_0-1_レイヤ___1
  6
CONTINUOUS
 62
    7
 10
649.12853500000006
 20
567.69007999999997
 11
649.12853500000006
 21
567.26633000000004
  0
LINE
  8
_0-1_レイヤ___1
  6
CONTINUOUS
 62
    7
 10
649.12853500000006
 20
567.26633000000004
 11
649.55228500000021
 21
567.26633000000004
  0
LINE
  8
_0-1_レイヤ___1
  6
CONTINUOUS
 62
    7
 10
649.55228500000021
 20
567.26633000000004
 11
649.55228500000021
 21
566.84258999999997
  0
LINE
  8
_0-1_レイヤ___1
  6
CONTINUOUS
 62
    7
 10
649.55228500000021
 20
566.84258999999997
 11
649.55228500000021
 21
566.41883999999993
  0
LINE
  8
_0-1_レイヤ___1
  6
CONTINUOUS
 62
    7
 10
649.55228500000021
 20
566.41883999999993
 11
649.55228500000021
 21
565.99509
  0
LINE
  8
_0-1_レイヤ___1
  6
CONTINUOUS
 62
    7
 10
649.55228500000021
 20
565.99509
 11
649.97603500000025
 21
565.99509
  0
LINE
  8
_0-1_レイヤ___1
  6
CONTINUOUS
 62
    7
 10
649.97603500000025
 20
565.99509
 11
649.97603500000025
 21
565.57135000000005
  0
LINE
  8
_0-1_レイヤ___1
  6
CONTINUOUS
 62
    7
 10
649.97603500000025
 20
565.57135000000005
 11
649.97603500000025
 21
565.15104999999994
  0
LINE
  8
_0-1_レイヤ___1
  6
CONTINUOUS
 62
    7
 10
649.97603500000025
 20
565.15104999999994
 11
650.3997750000002
 21
565.15104999999994
  0
LINE
  8
_0-1_レイヤ___1
  6
CONTINUOUS
 62
    7
 10
650.3997750000002
 20
565.15104999999994
 11
650.3997750000002
 21
564.72730000000001
  0
LINE
  8
_0-1_レイヤ___1
  6
CONTINUOUS
 62
    7
 10
650.3997750000002
 20
564.72730000000001
 11
650.3997750000002
 21
564.30354999999997
  0
LINE
  8
_0-1_レイヤ___1
  6
CONTINUOUS
 62
    7
 10
650.3997750000002
 20
564.30354999999997
 11
650.82180500000027
 21
564.30354999999997
  0
LINE
  8
_0-1_レイヤ___1
  6
CONTINUOUS
 62
    7
 10
650.82180500000027
 20
564.30354999999997
 11
650.82180500000027
 21
563.87981000000002
  0
LINE
  8
_0-1_レイヤ___1
  6
CONTINUOUS
 62
    7
 10
631.34840500000018
 20
744.64397000000008
 11
631.34840500000018
 21
745.06771000000003
  0
LINE
  8
_0-1_レイヤ___1
  6
CONTINUOUS
 62
    7
 10
631.34840500000018
 20
745.06771000000003
 11
631.34840500000018
 21
745.48801000000003
  0
LINE
  8
_0-1_レイヤ___1
  6
CONTINUOUS
 62
    7
 10
631.34840500000018
 20
745.48801000000003
 11
631.34840500000018
 21
745.91176000000007
  0
LINE
  8
_0-1_レイヤ___1
  6
CONTINUOUS
 62
    7
 10
631.34840500000018
 20
745.91176000000007
 11
630.92637500000023
 21
745.91176000000007
  0
LINE
  8
_0-1_レイヤ___1
  6
CONTINUOUS
 62
    7
 10
630.92637500000023
 20
745.91176000000007
 11
630.92637500000023
 21
746.33551
  0
LINE
  8
_0-1_レイヤ___1
  6
CONTINUOUS
 62
    7
 10
630.92637500000023
 20
746.33551
 11
630.92637500000023
 21
746.75925000000007
  0
LINE
  8
_0-1_レイヤ___1
  6
CONTINUOUS
 62
    7
 10
630.92637500000023
 20
746.75925000000007
 11
630.92637500000023
 21
747.18299999999999
  0
LINE
  8
_0-1_レイヤ___1
  6
CONTINUOUS
 62
    7
 10
630.92637500000023
 20
747.18299999999999
 11
630.50262500000019
 21
747.18299999999999
  0
LINE
  8
_0-1_レイヤ___1
  6
CONTINUOUS
 62
    7
 10
630.50262500000019
 20
747.18299999999999
 11
630.50262500000019
 21
747.60675000000003
  0
LINE
  8
_0-1_レイヤ___1
  6
CONTINUOUS
 62
    7
 10
630.50262500000019
 20
747.60675000000003
 11
630.50262500000019
 21
748.03048999999999
  0
LINE
  8
_0-1_レイヤ___1
  6
CONTINUOUS
 62
    7
 10
630.50262500000019
 20
748.03048999999999
 11
630.07888500000013
 21
748.45423999999991
  0
LINE
  8
_0-1_レイヤ___1
  6
CONTINUOUS
 62
    7
 10
630.07888500000013
 20
748.45423999999991
 11
630.07888500000013
 21
748.87454000000002
  0
LINE
  8
_0-1_レイヤ___1
  6
CONTINUOUS
 62
    7
 10
630.07888500000013
 20
748.87454000000002
 11
629.6551350000002
 21
748.87454000000002
  0
LINE
  8
_0-1_レイヤ___1
  6
CONTINUOUS
 62
    7
 10
629.6551350000002
 20
748.87454000000002
 11
629.6551350000002
 21
749.29828999999995
  0
LINE
  8
_0-1_レイヤ___1
  6
CONTINUOUS
 62
    7
 10
629.6551350000002
 20
749.29828999999995
 11
629.6551350000002
 21
749.72204000000011
  0
LINE
  8
_0-1_レイヤ___1
  6
CONTINUOUS
 62
    7
 10
629.6551350000002
 20
749.72204000000011
 11
629.23311500000011
 21
749.72204000000011
  0
LINE
  8
_0-1_レイヤ___1
  6
CONTINUOUS
 62
    7
 10
629.23311500000011
 20
749.72204000000011
 11
629.23311500000011
 21
750.14578000000006
  0
LINE
  8
_0-1_レイヤ___1
  6
CONTINUOUS
 62
    7
 10
689.76860500000021
 20
519.00744000000009
 11
691.03812500000015
 21
539.75036
  0
LINE
  8
_0-1_レイヤ___1
  6
CONTINUOUS
 62
    7
 10
674.95297500000015
 20
517.73620000000005
 11
688.0753450000002
 21
517.73620000000005
  0
LINE
  8
_0-1_レイヤ___1
  6
CONTINUOUS
 62
    7
 10
1348.4760350000001
 20
532.55354999999997
 11
1347.6285350000001
 21
532.97730000000001
  0
LINE
  8
_0-1_レイヤ___1
  6
CONTINUOUS
 62
    7
 10
1348.8997750000001
 20
532.55354999999997
 11
1348.4760350000001
 21
532.55354999999997
  0
LINE
  8
_0-1_レイヤ___1
  6
CONTINUOUS
 62
    7
 10
1353.5558250000004
 20
524.08551
 11
1353.5558250000004
 21
524.93299999999999
  0
LINE
  8
_0-1_レイヤ___1
  6
CONTINUOUS
 62
    7
 10
1194.8058250000001
 20
519.85148000000004
 11
1323.0753450000002
 21
519.85148000000004
  0
LINE
  8
_0-1_レイヤ___1
  6
CONTINUOUS
 62
    7
 10
1349.7455450000002
 20
532.12981000000002
 11
1348.8997750000001
 21
532.55354999999997
  0
LINE
  8
_0-1_レイヤ___1
  6
CONTINUOUS
 62
    7
 10
1372.1817350000001
 20
533.40105000000005
 11
1372.1817350000001
 21
533.82134999999994
  0
LINE
  8
_0-1_レイヤ___1
  6
CONTINUOUS
 62
    7
 10
1371.3359650000002
 20
529.59077000000002
 11
1371.7597049999999
 21
530.01451999999995
  0
LINE
  8
_0-1_レイヤ___1
  6
CONTINUOUS
 62
    7
 10
1355.2490850000002
 20
517.73620000000005
 11
1368.3714550000002
 21
517.73620000000005
  0
LINE
  8
_0-1_レイヤ___1
  6
CONTINUOUS
 62
    7
 10
1353.132075
 20
527.04829000000007
 11
1353.9795750000003
 21
519.00744000000009
  0
LINE
  8
_0-1_レイヤ___1
  6
CONTINUOUS
 62
    7
 10
1373.4529750000002
 20
535.09258999999997
 11
1373.0292250000002
 21
534.24509
  0
LINE
  8
_0-1_レイヤ___1
  6
CONTINUOUS
 62
    7
 10
1373.0292250000002
 20
534.24509
 11
1372.1817350000001
 21
533.82134999999994
  0
LINE
  8
_0-1_レイヤ___1
  6
CONTINUOUS
 62
    7
 10
1397.1586750000001
 20
560.91701999999998
 11
1412.3997750000001
 21
744.64397000000008
  0
LINE
  8
_0-1_レイヤ___1
  6
CONTINUOUS
 62
    7
 10
631.34840500000018
 20
744.64397000000008
 11
646.58950500000014
 21
577.84967000000006
  0
LINE
  8
_0-1_レイヤ___1
  6
CONTINUOUS
 62
    7
 10
668.17819500000019
 20
549.48619999999994
 11
668.17819500000019
 21
549.06245000000001
  0
LINE
  8
_0-1_レイヤ___1
  6
CONTINUOUS
 62
    7
 10
668.17819500000019
 20
549.06245000000001
 11
668.60194500000011
 21
549.06245000000001
  0
LINE
  8
_0-1_レイヤ___1
  6
CONTINUOUS
 62
    7
 10
668.60194500000011
 20
549.06245000000001
 11
669.02568500000018
 21
549.06245000000001
  0
LINE
  8
_0-1_レイヤ___1
  6
CONTINUOUS
 62
    7
 10
669.02568500000018
 20
549.06245000000001
 11
669.02568500000018
 21
548.63869999999997
  0
LINE
  8
_0-1_レイヤ___1
  6
CONTINUOUS
 62
    7
 10
669.02568500000018
 20
548.63869999999997
 11
669.44943500000022
 21
548.63869999999997
  0
LINE
  8
_0-1_レイヤ___1
  6
CONTINUOUS
 62
    7
 10
669.44943500000022
 20
548.63869999999997
 11
669.44943500000022
 21
548.21496000000002
  0
LINE
  8
_0-1_レイヤ___1
  6
CONTINUOUS
 62
    7
 10
669.44943500000022
 20
548.21496000000002
 11
669.8714550000002
 21
548.21496000000002
  0
LINE
  8
_0-1_レイヤ___1
  6
CONTINUOUS
 62
    7
 10
671.98846500000013
 20
543.98437999999999
 11
671.98846500000013
 21
541.86564999999996
  0
LINE
  8
_0-1_レイヤ___1
  6
CONTINUOUS
 62
    7
 10
671.98846500000013
 20
541.86564999999996
 11
673.25970500000017
 21
521.12273000000005
  0
LINE
  8
_0-1_レイヤ___1
  6
CONTINUOUS
 62
    7
 10
673.25970500000017
 20
521.12273000000005
 11
673.68173500000012
 21
519.00744000000009
  0
LINE
  8
_0-1_レイヤ___1
  6
CONTINUOUS
 62
    7
 10
695.69589500000018
 20
545.67592000000002
 11
695.27214500000014
 21
545.25216999999998
  0
LINE
  8
_0-1_レイヤ___1
  6
CONTINUOUS
 62
    7
 10
695.27214500000014
 20
545.25216999999998
 11
694.84840500000018
 21
545.25216999999998
  0
LINE
  8
_0-1_レイヤ___1
  6
CONTINUOUS
 62
    7
 10
697.81290500000011
 20
545.67592000000002
 11
696.96541500000012
 21
546.09966999999995
  0
LINE
  8
_0-1_レイヤ___1
  6
CONTINUOUS
 62
    7
 10
695.69589500000018
 20
545.67592000000002
 11
696.11964500000011
 21
545.67592000000002
  0
LINE
  8
_0-1_レイヤ___1
  6
CONTINUOUS
 62
    7
 10
696.11964500000011
 20
545.67592000000002
 11
696.54166500000019
 21
545.67592000000002
  0
LINE
  8
_0-1_レイヤ___1
  6
CONTINUOUS
 62
    7
 10
696.54166500000019
 20
545.67592000000002
 11
696.96541500000012
 21
545.67592000000002
  0
LINE
  8
_0-1_レイヤ___1
  6
CONTINUOUS
 62
    7
 10
696.96541500000012
 20
545.67592000000002
 11
697.38915500000019
 21
545.67592000000002
  0
LINE
  8
_0-1_レイヤ___1
  6
CONTINUOUS
 62
    7
 10
697.38915500000019
 20
545.67592000000002
 11
697.81290500000011
 21
545.67592000000002
  0
LINE
  8
_0-1_レイヤ___1
  6
CONTINUOUS
 62
    7
 10
1346.7827650000002
 20
532.97730000000001
 11
1347.2047950000001
 21
532.97730000000001
  0
LINE
  8
_0-1_レイヤ___1
  6
CONTINUOUS
 62
    7
 10
1347.2047950000001
 20
532.97730000000001
 11
1347.2047950000001
 21
533.40105000000005
  0
LINE
  8
_0-1_レイヤ___1
  6
CONTINUOUS
 62
    7
 10
1347.2047950000001
 20
533.40105000000005
 11
1347.6285350000001
 21
533.40105000000005
  0
LINE
  8
_0-1_レイヤ___1
  6
CONTINUOUS
 62
    7
 10
1347.6285350000001
 20
533.40105000000005
 11
1348.0522850000002
 21
533.40105000000005
  0
LINE
  8
_0-1_レイヤ___1
  6
CONTINUOUS
 62
    7
 10
1348.0522850000002
 20
533.40105000000005
 11
1348.4760350000001
 21
533.40105000000005
  0
LINE
  8
_0-1_レイヤ___1
  6
CONTINUOUS
 62
    7
 10
1348.4760350000001
 20
533.40105000000005
 11
1348.4760350000001
 21
533.82134999999994
  0
LINE
  8
_0-1_レイヤ___1
  6
CONTINUOUS
 62
    7
 10
1348.4760350000001
 20
533.82134999999994
 11
1348.8997750000001
 21
533.82134999999994
  0
LINE
  8
_0-1_レイヤ___1
  6
CONTINUOUS
 62
    7
 10
1348.8997750000001
 20
533.82134999999994
 11
1349.321805
 21
533.82134999999994
  0
LINE
  8
_0-1_レイヤ___1
  6
CONTINUOUS
 62
    7
 10
1349.321805
 20
533.82134999999994
 11
1349.7455450000002
 21
533.82134999999994
  0
LINE
  8
_0-1_レイヤ___1
  6
CONTINUOUS
 62
    7
 10
1349.7455450000002
 20
533.82134999999994
 11
1350.1692950000001
 21
533.82134999999994
  0
LINE
  8
_0-1_レイヤ___1
  6
CONTINUOUS
 62
    7
 10
1350.1692950000001
 20
533.82134999999994
 11
1350.1692950000001
 21
534.24509
  0
LINE
  8
_0-1_レイヤ___1
  6
CONTINUOUS
 62
    7
 10
1350.1692950000001
 20
534.24509
 11
1350.5930450000003
 21
534.24509
  0
LINE
  8
_0-1_レイヤ___1
  6
CONTINUOUS
 62
    7
 10
1350.5930450000003
 20
534.24509
 11
1351.0150650000003
 21
534.24509
  0
LINE
  8
_0-1_レイヤ___1
  6
CONTINUOUS
 62
    7
 10
1351.0150650000003
 20
534.24509
 11
1351.4388150000002
 21
534.24509
  0
LINE
  8
_0-1_レイヤ___1
  6
CONTINUOUS
 62
    7
 10
1351.4388150000002
 20
534.24509
 11
1351.8625650000001
 21
534.66884000000005
  0
LINE
  8
_0-1_レイヤ___1
  6
CONTINUOUS
 62
    7
 10
1351.8625650000001
 20
534.66884000000005
 11
1352.2863050000001
 21
534.66884000000005
  0
LINE
  8
_0-1_レイヤ___1
  6
CONTINUOUS
 62
    7
 10
1352.2863050000001
 20
534.66884000000005
 11
1352.708335
 21
534.66884000000005
  0
LINE
  8
_0-1_レイヤ___1
  6
CONTINUOUS
 62
    7
 10
1352.708335
 20
534.66884000000005
 11
1353.132075
 21
534.66884000000005
  0
LINE
  8
_0-1_レイヤ___1
  6
CONTINUOUS
 62
    7
 10
1353.132075
 20
534.66884000000005
 11
1353.5558250000004
 21
534.66884000000005
  0
LINE
  8
_0-1_レイヤ___1
  6
CONTINUOUS
 62
    7
 10
1353.5558250000004
 20
534.66884000000005
 11
1353.5558250000004
 21
535.09258999999997
  0
LINE
  8
_0-1_レイヤ___1
  6
CONTINUOUS
 62
    7
 10
1353.5558250000004
 20
535.09258999999997
 11
1353.9795750000003
 21
535.09258999999997
  0
LINE
  8
_0-1_レイヤ___1
  6
CONTINUOUS
 62
    7
 10
1353.9795750000003
 20
535.09258999999997
 11
1354.4015950000003
 21
535.09258999999997
  0
LINE
  8
_0-1_レイヤ___1
  6
CONTINUOUS
 62
    7
 10
1354.4015950000003
 20
535.09258999999997
 11
1354.8253450000002
 21
535.09258999999997
  0
LINE
  8
_0-1_レイヤ___1
  6
CONTINUOUS
 62
    7
 10
1354.8253450000002
 20
535.09258999999997
 11
1355.2490850000002
 21
535.09258999999997
  0
LINE
  8
_0-1_レイヤ___1
  6
CONTINUOUS
 62
    7
 10
1355.2490850000002
 20
535.09258999999997
 11
1355.6728350000001
 21
535.09258999999997
  0
LINE
  8
_0-1_レイヤ___1
  6
CONTINUOUS
 62
    7
 10
1355.6728350000001
 20
535.09258999999997
 11
1356.094865
 21
535.51633000000004
  0
LINE
  8
_0-1_レイヤ___1
  6
CONTINUOUS
 62
    7
 10
1356.094865
 20
535.51633000000004
 11
1356.5186050000002
 21
535.51633000000004
  0
LINE
  8
_0-1_レイヤ___1
  6
CONTINUOUS
 62
    7
 10
1374.722495
 20
535.51633000000004
 11
1374.2987450000001
 21
535.51633000000004
  0
LINE
  8
_0-1_レイヤ___1
  6
CONTINUOUS
 62
    7
 10
1374.2987450000001
 20
535.51633000000004
 11
1374.2987450000001
 21
535.94008000000008
  0
LINE
  8
_0-1_レイヤ___1
  6
CONTINUOUS
 62
    7
 10
1374.2987450000001
 20
535.94008000000008
 11
1373.8749950000001
 21
535.94008000000008
  0
LINE
  8
_0-1_レイヤ___1
  6
CONTINUOUS
 62
    7
 10
1373.8749950000001
 20
535.94008000000008
 11
1373.4529750000002
 21
535.94008000000008
  0
LINE
  8
_0-1_レイヤ___1
  6
CONTINUOUS
 62
    7
 10
1373.4529750000002
 20
535.94008000000008
 11
1373.0292250000002
 21
535.94008000000008
  0
LINE
  8
_0-1_レイヤ___1
  6
CONTINUOUS
 62
    7
 10
1373.0292250000002
 20
535.94008000000008
 11
1372.1817350000001
 21
535.94008000000008
  0
LINE
  8
_0-1_レイヤ___1
  6
CONTINUOUS
 62
    7
 10
1372.1817350000001
 20
535.94008000000008
 11
1370.0664450000002
 21
535.94008000000008
  0
LINE
  8
_0-1_レイヤ___1
  6
CONTINUOUS
 62
    7
 10
1370.0664450000002
 20
535.94008000000008
 11
1364.9849250000002
 21
535.94008000000008
  0
LINE
  8
_0-1_レイヤ___1
  6
CONTINUOUS
 62
    7
 10
1364.9849250000002
 20
535.94008000000008
 11
1362.8696450000002
 21
535.94008000000008
  0
LINE
  8
_0-1_レイヤ___1
  6
CONTINUOUS
 62
    7
 10
1362.8696450000002
 20
535.94008000000008
 11
1362.4458950000003
 21
535.94008000000008
  0
LINE
  8
_0-1_レイヤ___1
  6
CONTINUOUS
 62
    7
 10
1362.4458950000003
 20
535.94008000000008
 11
1362.0221450000004
 21
535.94008000000008
  0
LINE
  8
_0-1_レイヤ___1
  6
CONTINUOUS
 62
    7
 10
1362.0221450000004
 20
535.94008000000008
 11
1361.598405
 21
535.94008000000008
  0
LINE
  8
_0-1_レイヤ___1
  6
CONTINUOUS
 62
    7
 10
1361.598405
 20
535.94008000000008
 11
1361.1763750000002
 21
535.94008000000008
  0
LINE
  8
_0-1_レイヤ___1
  6
CONTINUOUS
 62
    7
 10
1361.1763750000002
 20
535.94008000000008
 11
1360.7526250000001
 21
535.94008000000008
  0
LINE
  8
_0-1_レイヤ___1
  6
CONTINUOUS
 62
    7
 10
1360.7526250000001
 20
535.94008000000008
 11
1360.3288850000001
 21
535.94008000000008
  0
LINE
  8
_0-1_レイヤ___1
  6
CONTINUOUS
 62
    7
 10
1360.3288850000001
 20
535.94008000000008
 11
1359.9051350000002
 21
535.94008000000008
  0
LINE
  8
_0-1_レイヤ___1
  6
CONTINUOUS
 62
    7
 10
1359.9051350000002
 20
535.94008000000008
 11
1359.4831150000002
 21
535.94008000000008
  0
LINE
  8
_0-1_レイヤ___1
  6
CONTINUOUS
 62
    7
 10
1359.4831150000002
 20
535.94008000000008
 11
1359.4831150000002
 21
535.51633000000004
  0
LINE
  8
_0-1_レイヤ___1
  6
CONTINUOUS
 62
    7
 10
1359.4831150000002
 20
535.51633000000004
 11
1359.0593650000003
 21
535.51633000000004
  0
LINE
  8
_0-1_レイヤ___1
  6
CONTINUOUS
 62
    7
 10
1359.0593650000003
 20
535.51633000000004
 11
1358.6356150000001
 21
535.51633000000004
  0
LINE
  8
_0-1_レイヤ___1
  6
CONTINUOUS
 62
    7
 10
1358.6356150000001
 20
535.51633000000004
 11
1358.211875
 21
535.51633000000004
  0
LINE
  8
_0-1_レイヤ___1
  6
CONTINUOUS
 62
    7
 10
1358.211875
 20
535.51633000000004
 11
1357.788125
 21
535.51633000000004
  0
LINE
  8
_0-1_レイヤ___1
  6
CONTINUOUS
 62
    7
 10
1357.788125
 20
535.51633000000004
 11
1357.3661050000001
 21
535.51633000000004
  0
LINE
  8
_0-1_レイヤ___1
  6
CONTINUOUS
 62
    7
 10
1357.3661050000001
 20
535.51633000000004
 11
1356.9423550000001
 21
535.51633000000004
  0
LINE
  8
_0-1_レイヤ___1
  6
CONTINUOUS
 62
    7
 10
1356.9423550000001
 20
535.51633000000004
 11
1356.5186050000002
 21
535.51633000000004
  0
LINE
  8
_0-1_レイヤ___1
  6
CONTINUOUS
 62
    7
 10
668.17819500000019
 20
549.48619999999994
 11
668.60194500000011
 21
549.06245000000001
  0
LINE
  8
_0-1_レイヤ___1
  6
CONTINUOUS
 62
    7
 10
696.96541500000012
 20
546.09966999999995
 11
696.54166500000019
 21
546.09966999999995
  0
LINE
  8
_0-1_レイヤ___1
  6
CONTINUOUS
 62
    7
 10
696.54166500000019
 20
546.09966999999995
 11
696.54166500000019
 21
546.52341000000001
  0
LINE
  8
_0-1_レイヤ___1
  6
CONTINUOUS
 62
    7
 10
696.54166500000019
 20
546.52341000000001
 11
696.11964500000011
 21
546.52341000000001
  0
LINE
  8
_0-1_レイヤ___1
  6
CONTINUOUS
 62
    7
 10
696.11964500000011
 20
546.52341000000001
 11
695.69589500000018
 21
546.52341000000001
  0
LINE
  8
_0-1_レイヤ___1
  6
CONTINUOUS
 62
    7
 10
695.69589500000018
 20
546.52341000000001
 11
695.27214500000014
 21
546.52341000000001
  0
LINE
  8
_0-1_レイヤ___1
  6
CONTINUOUS
 62
    7
 10
695.27214500000014
 20
546.52341000000001
 11
694.84840500000018
 21
546.94715999999994
  0
LINE
  8
_0-1_レイヤ___1
  6
CONTINUOUS
 62
    7
 10
694.84840500000018
 20
546.94715999999994
 11
694.42637500000023
 21
546.94715999999994
  0
LINE
  8
_0-1_レイヤ___1
  6
CONTINUOUS
 62
    7
 10
694.42637500000023
 20
546.94715999999994
 11
694.00262500000008
 21
546.94715999999994
  0
LINE
  8
_0-1_レイヤ___1
  6
CONTINUOUS
 62
    7
 10
694.00262500000008
 20
546.94715999999994
 11
693.57888500000013
 21
546.94715999999994
  0
LINE
  8
_0-1_レイヤ___1
  6
CONTINUOUS
 62
    7
 10
693.57888500000013
 20
546.94715999999994
 11
693.57888500000013
 21
547.37090999999998
  0
LINE
  8
_0-1_レイヤ___1
  6
CONTINUOUS
 62
    7
 10
693.57888500000013
 20
547.37090999999998
 11
693.15513500000009
 21
547.37090999999998
  0
LINE
  8
_0-1_レイヤ___1
  6
CONTINUOUS
 62
    7
 10
693.15513500000009
 20
547.37090999999998
 11
692.73311500000023
 21
547.37090999999998
  0
LINE
  8
_0-1_レイヤ___1
  6
CONTINUOUS
 62
    7
 10
692.73311500000023
 20
547.37090999999998
 11
692.30936500000007
 21
547.37090999999998
  0
LINE
  8
_0-1_レイヤ___1
  6
CONTINUOUS
 62
    7
 10
692.30936500000007
 20
547.37090999999998
 11
691.88561500000014
 21
547.37090999999998
  0
LINE
  8
_0-1_レイヤ___1
  6
CONTINUOUS
 62
    7
 10
691.88561500000014
 20
547.37090999999998
 11
691.88561500000014
 21
547.79121000000009
  0
LINE
  8
_0-1_レイヤ___1
  6
CONTINUOUS
 62
    7
 10
691.88561500000014
 20
547.79121000000009
 11
691.46187500000008
 21
547.79121000000009
  0
LINE
  8
_0-1_レイヤ___1
  6
CONTINUOUS
 62
    7
 10
691.46187500000008
 20
547.79121000000009
 11
691.03812500000015
 21
547.79121000000009
  0
LINE
  8
_0-1_レイヤ___1
  6
CONTINUOUS
 62
    7
 10
691.03812500000015
 20
547.79121000000009
 11
690.61610500000018
 21
547.79121000000009
  0
LINE
  8
_0-1_レイヤ___1
  6
CONTINUOUS
 62
    7
 10
690.61610500000018
 20
547.79121000000009
 11
690.19235500000025
 21
547.79121000000009
  0
LINE
  8
_0-1_レイヤ___1
  6
CONTINUOUS
 62
    7
 10
690.19235500000025
 20
547.79121000000009
 11
690.19235500000025
 21
548.21496000000002
  0
LINE
  8
_0-1_レイヤ___1
  6
CONTINUOUS
 62
    7
 10
690.19235500000025
 20
548.21496000000002
 11
689.76860500000021
 21
548.21496000000002
  0
LINE
  8
_0-1_レイヤ___1
  6
CONTINUOUS
 62
    7
 10
689.76860500000021
 20
548.21496000000002
 11
689.34486500000025
 21
548.21496000000002
  0
LINE
  8
_0-1_レイヤ___1
  6
CONTINUOUS
 62
    7
 10
689.34486500000025
 20
548.21496000000002
 11
688.92283500000019
 21
548.21496000000002
  0
LINE
  8
_0-1_レイヤ___1
  6
CONTINUOUS
 62
    7
 10
688.92283500000019
 20
548.21496000000002
 11
688.49908500000015
 21
548.21496000000002
  0
LINE
  8
_0-1_レイヤ___1
  6
CONTINUOUS
 62
    7
 10
688.49908500000015
 20
548.21496000000002
 11
688.0753450000002
 21
548.21496000000002
  0
LINE
  8
_0-1_レイヤ___1
  6
CONTINUOUS
 62
    7
 10
688.0753450000002
 20
548.21496000000002
 11
688.0753450000002
 21
548.63869999999997
  0
LINE
  8
_0-1_レイヤ___1
  6
CONTINUOUS
 62
    7
 10
688.0753450000002
 20
548.63869999999997
 11
687.65159500000004
 21
548.63869999999997
  0
LINE
  8
_0-1_レイヤ___1
  6
CONTINUOUS
 62
    7
 10
687.65159500000004
 20
548.63869999999997
 11
687.22957500000018
 21
548.63869999999997
  0
LINE
  8
_0-1_レイヤ___1
  6
CONTINUOUS
 62
    7
 10
687.22957500000018
 20
548.63869999999997
 11
686.80582500000014
 21
548.63869999999997
  0
LINE
  8
_0-1_レイヤ___1
  6
CONTINUOUS
 62
    7
 10
686.80582500000014
 20
548.63869999999997
 11
686.38207500000021
 21
548.63869999999997
  0
LINE
  8
_0-1_レイヤ___1
  6
CONTINUOUS
 62
    7
 10
686.38207500000021
 20
548.63869999999997
 11
685.95833500000015
 21
548.63869999999997
  0
LINE
  8
_0-1_レイヤ___1
  6
CONTINUOUS
 62
    7
 10
685.95833500000015
 20
548.63869999999997
 11
685.53630500000031
 21
548.63869999999997
  0
LINE
  8
_0-1_レイヤ___1
  6
CONTINUOUS
 62
    7
 10
685.53630500000031
 20
548.63869999999997
 11
685.11256500000013
 21
548.63869999999997
  0
LINE
  8
_0-1_レイヤ___1
  6
CONTINUOUS
 62
    7
 10
685.11256500000013
 20
548.63869999999997
 11
685.11256500000013
 21
549.06245000000001
  0
LINE
  8
_0-1_レイヤ___1
  6
CONTINUOUS
 62
    7
 10
685.11256500000013
 20
549.06245000000001
 11
684.68881500000009
 21
549.06245000000001
  0
LINE
  8
_0-1_レイヤ___1
  6
CONTINUOUS
 62
    7
 10
684.68881500000009
 20
549.06245000000001
 11
684.26506500000016
 21
549.06245000000001
  0
LINE
  8
_0-1_レイヤ___1
  6
CONTINUOUS
 62
    7
 10
684.26506500000016
 20
549.06245000000001
 11
683.84304500000007
 21
549.06245000000001
  0
LINE
  8
_0-1_レイヤ___1
  6
CONTINUOUS
 62
    7
 10
683.84304500000007
 20
549.06245000000001
 11
683.41929500000015
 21
549.06245000000001
  0
LINE
  8
_0-1_レイヤ___1
  6
CONTINUOUS
 62
    7
 10
683.41929500000015
 20
549.06245000000001
 11
682.99554500000011
 21
549.06245000000001
  0
LINE
  8
_0-1_レイヤ___1
  6
CONTINUOUS
 62
    7
 10
682.99554500000011
 20
549.06245000000001
 11
682.57180500000015
 21
549.06245000000001
  0
LINE
  8
_0-1_レイヤ___1
  6
CONTINUOUS
 62
    7
 10
682.57180500000015
 20
549.06245000000001
 11
682.1497750000002
 21
549.06245000000001
  0
LINE
  8
_0-1_レイヤ___1
  6
CONTINUOUS
 62
    7
 10
682.1497750000002
 20
549.06245000000001
 11
681.72603500000014
 21
549.06245000000001
  0
LINE
  8
_0-1_レイヤ___1
  6
CONTINUOUS
 62
    7
 10
681.72603500000014
 20
549.06245000000001
 11
681.30228500000021
 21
549.06245000000001
  0
LINE
  8
_0-1_レイヤ___1
  6
CONTINUOUS
 62
    7
 10
681.30228500000021
 20
549.06245000000001
 11
680.87853500000028
 21
549.06245000000001
  0
LINE
  8
_0-1_レイヤ___1
  6
CONTINUOUS
 62
    7
 10
680.87853500000028
 20
549.06245000000001
 11
680.4547950000001
 21
549.06245000000001
  0
LINE
  8
_0-1_レイヤ___1
  6
CONTINUOUS
 62
    7
 10
680.4547950000001
 20
549.06245000000001
 11
680.03276500000015
 21
549.06245000000001
  0
LINE
  8
_0-1_レイヤ___1
  6
CONTINUOUS
 62
    7
 10
680.03276500000015
 20
549.06245000000001
 11
679.6090250000002
 21
549.06245000000001
  0
LINE
  8
_0-1_レイヤ___1
  6
CONTINUOUS
 62
    7
 10
679.6090250000002
 20
549.06245000000001
 11
679.18527500000005
 21
549.06245000000001
  0
LINE
  8
_0-1_レイヤ___1
  6
CONTINUOUS
 62
    7
 10
679.18527500000005
 20
549.06245000000001
 11
678.76152500000012
 21
549.06245000000001
  0
LINE
  8
_0-1_レイヤ___1
  6
CONTINUOUS
 62
    7
 10
678.76152500000012
 20
549.06245000000001
 11
678.33950500000014
 21
549.06245000000001
  0
LINE
  8
_0-1_レイヤ___1
  6
CONTINUOUS
 62
    7
 10
678.33950500000014
 20
549.06245000000001
 11
677.91575500000022
 21
549.06245000000001
  0
LINE
  8
_0-1_レイヤ___1
  6
CONTINUOUS
 62
    7
 10
677.91575500000022
 20
549.06245000000001
 11
677.49200500000018
 21
549.06245000000001
  0
LINE
  8
_0-1_レイヤ___1
  6
CONTINUOUS
 62
    7
 10
677.49200500000018
 20
549.06245000000001
 11
677.06826500000011
 21
549.06245000000001
  0
LINE
  8
_0-1_レイヤ___1
  6
CONTINUOUS
 62
    7
 10
677.06826500000011
 20
549.06245000000001
 11
676.64623500000016
 21
549.06245000000001
  0
LINE
  8
_0-1_レイヤ___1
  6
CONTINUOUS
 62
    7
 10
676.64623500000016
 20
549.06245000000001
 11
676.22249500000009
 21
549.06245000000001
  0
LINE
  8
_0-1_レイヤ___1
  6
CONTINUOUS
 62
    7
 10
676.22249500000009
 20
549.06245000000001
 11
675.79874500000017
 21
549.06245000000001
  0
LINE
  8
_0-1_レイヤ___1
  6
CONTINUOUS
 62
    7
 10
675.79874500000017
 20
549.06245000000001
 11
675.37499500000024
 21
549.06245000000001
  0
LINE
  8
_0-1_レイヤ___1
  6
CONTINUOUS
 62
    7
 10
675.37499500000024
 20
549.06245000000001
 11
674.95297500000015
 21
549.06245000000001
  0
LINE
  8
_0-1_レイヤ___1
  6
CONTINUOUS
 62
    7
 10
674.95297500000015
 20
549.06245000000001
 11
674.52922500000011
 21
549.06245000000001
  0
LINE
  8
_0-1_レイヤ___1
  6
CONTINUOUS
 62
    7
 10
674.52922500000011
 20
549.06245000000001
 11
674.10548500000016
 21
549.06245000000001
  0
LINE
  8
_0-1_レイヤ___1
  6
CONTINUOUS
 62
    7
 10
674.10548500000016
 20
549.06245000000001
 11
674.10548500000016
 21
549.48619999999994
  0
LINE
  8
_0-1_レイヤ___1
  6
CONTINUOUS
 62
    7
 10
674.10548500000016
 20
549.48619999999994
 11
673.68173500000012
 21
549.48619999999994
  0
LINE
  8
_0-1_レイヤ___1
  6
CONTINUOUS
 62
    7
 10
673.68173500000012
 20
549.48619999999994
 11
673.25970500000017
 21
549.48619999999994
  0
LINE
  8
_0-1_レイヤ___1
  6
CONTINUOUS
 62
    7
 10
673.25970500000017
 20
549.48619999999994
 11
672.83596500000021
 21
549.48619999999994
  0
LINE
  8
_0-1_レイヤ___1
  6
CONTINUOUS
 62
    7
 10
672.83596500000021
 20
549.48619999999994
 11
672.41221500000029
 21
549.48619999999994
  0
LINE
  8
_0-1_レイヤ___1
  6
CONTINUOUS
 62
    7
 10
672.41221500000029
 20
549.48619999999994
 11
671.98846500000013
 21
549.48619999999994
  0
LINE
  8
_0-1_レイヤ___1
  6
CONTINUOUS
 62
    7
 10
671.98846500000013
 20
549.48619999999994
 11
671.56644500000016
 21
549.48619999999994
  0
LINE
  8
_0-1_レイヤ___1
  6
CONTINUOUS
 62
    7
 10
671.56644500000016
 20
549.48619999999994
 11
671.142695
 21
549.48619999999994
  0
LINE
  8
_0-1_レイヤ___1
  6
CONTINUOUS
 62
    7
 10
671.142695
 20
549.48619999999994
 11
670.71895500000005
 21
549.48619999999994
  0
LINE
  8
_0-1_レイヤ___1
  6
CONTINUOUS
 62
    7
 10
670.71895500000005
 20
549.48619999999994
 11
670.29520500000012
 21
549.48619999999994
  0
LINE
  8
_0-1_レイヤ___1
  6
CONTINUOUS
 62
    7
 10
670.29520500000012
 20
549.48619999999994
 11
669.8714550000002
 21
549.48619999999994
  0
LINE
  8
_0-1_レイヤ___1
  6
CONTINUOUS
 62
    7
 10
669.8714550000002
 20
549.48619999999994
 11
669.44943500000022
 21
549.48619999999994
  0
LINE
  8
_0-1_レイヤ___1
  6
CONTINUOUS
 62
    7
 10
669.44943500000022
 20
549.48619999999994
 11
669.02568500000018
 21
549.48619999999994
  0
LINE
  8
_0-1_レイヤ___1
  6
CONTINUOUS
 62
    7
 10
669.02568500000018
 20
549.48619999999994
 11
668.60194500000011
 21
549.48619999999994
  0
LINE
  8
_0-1_レイヤ___1
  6
CONTINUOUS
 62
    7
 10
668.60194500000011
 20
549.48619999999994
 11
668.17819500000019
 21
549.48619999999994
  0
LINE
  8
_0-1_レイヤ___1
  6
CONTINUOUS
 62
    7
 10
1351.4388150000002
 20
527.89577999999995
 11
1351.0150650000003
 21
527.89577999999995
  0
LINE
  8
_0-1_レイヤ___1
  6
CONTINUOUS
 62
    7
 10
1351.0150650000003
 20
527.89577999999995
 11
1350.5930450000003
 21
527.89577999999995
  0
LINE
  8
_0-1_レイヤ___1
  6
CONTINUOUS
 62
    7
 10
1350.5930450000003
 20
527.89577999999995
 11
1350.1692950000001
 21
527.89577999999995
  0
LINE
  8
_0-1_レイヤ___1
  6
CONTINUOUS
 62
    7
 10
1350.1692950000001
 20
527.89577999999995
 11
1349.7455450000002
 21
527.89577999999995
  0
LINE
  8
_0-1_レイヤ___1
  6
CONTINUOUS
 62
    7
 10
1349.7455450000002
 20
527.89577999999995
 11
1349.321805
 21
527.89577999999995
  0
LINE
  8
_0-1_レイヤ___1
  6
CONTINUOUS
 62
    7
 10
1349.321805
 20
527.89577999999995
 11
1348.8997750000001
 21
527.89577999999995
  0
LINE
  8
_0-1_レイヤ___1
  6
CONTINUOUS
 62
    7
 10
1348.8997750000001
 20
527.89577999999995
 11
1348.4760350000001
 21
527.89577999999995
  0
LINE
  8
_0-1_レイヤ___1
  6
CONTINUOUS
 62
    7
 10
1348.4760350000001
 20
527.89577999999995
 11
1348.0522850000002
 21
527.89577999999995
  0
LINE
  8
_0-1_レイヤ___1
  6
CONTINUOUS
 62
    7
 10
1348.0522850000002
 20
527.89577999999995
 11
1347.6285350000001
 21
527.89577999999995
  0
LINE
  8
_0-1_レイヤ___1
  6
CONTINUOUS
 62
    7
 10
1347.6285350000001
 20
527.89577999999995
 11
1347.2047950000001
 21
527.89577999999995
  0
LINE
  8
_0-1_レイヤ___1
  6
CONTINUOUS
 62
    7
 10
1347.2047950000001
 20
527.89577999999995
 11
1346.7827650000002
 21
527.89577999999995
  0
LINE
  8
_0-1_レイヤ___1
  6
CONTINUOUS
 62
    7
 10
1346.7827650000002
 20
527.89577999999995
 11
1346.3590250000002
 21
527.89577999999995
  0
LINE
  8
_0-1_レイヤ___1
  6
CONTINUOUS
 62
    7
 10
1346.3590250000002
 20
527.89577999999995
 11
1345.9352750000003
 21
527.89577999999995
  0
LINE
  8
_0-1_レイヤ___1
  6
CONTINUOUS
 62
    7
 10
1345.9352750000003
 20
527.89577999999995
 11
1345.5115250000003
 21
527.89577999999995
  0
LINE
  8
_0-1_レイヤ___1
  6
CONTINUOUS
 62
    7
 10
1345.5115250000003
 20
527.89577999999995
 11
1345.0895050000004
 21
527.89577999999995
  0
LINE
  8
_0-1_レイヤ___1
  6
CONTINUOUS
 62
    7
 10
1345.0895050000004
 20
527.89577999999995
 11
1344.665755
 21
527.89577999999995
  0
LINE
  8
_0-1_レイヤ___1
  6
CONTINUOUS
 62
    7
 10
1344.665755
 20
527.89577999999995
 11
1344.2420050000001
 21
527.89577999999995
  0
LINE
  8
_0-1_レイヤ___1
  6
CONTINUOUS
 62
    7
 10
1344.2420050000001
 20
527.89577999999995
 11
1343.8182650000001
 21
527.89577999999995
  0
LINE
  8
_0-1_レイヤ___1
  6
CONTINUOUS
 62
    7
 10
1343.8182650000001
 20
527.89577999999995
 11
1343.3962350000002
 21
527.89577999999995
  0
LINE
  8
_0-1_レイヤ___1
  6
CONTINUOUS
 62
    7
 10
1370.0664450000002
 20
519.00744000000009
 11
1370.0664450000002
 21
521.12273000000005
  0
LINE
  8
_0-1_レイヤ___1
  6
CONTINUOUS
 62
    7
 10
1370.0664450000002
 20
521.12273000000005
 11
1370.9122150000003
 21
528.31952999999999
  0
LINE
  8
_0-1_レイヤ___1
  6
CONTINUOUS
 62
    7
 10
1370.9122150000003
 20
528.31952999999999
 11
1370.9122150000003
 21
528.74328000000003
  0
LINE
  8
_0-1_レイヤ___1
  6
CONTINUOUS
 62
    7
 10
1370.9122150000003
 20
528.74328000000003
 11
1370.9122150000003
 21
529.16701999999998
  0
LINE
  8
_0-1_レイヤ___1
  6
CONTINUOUS
 62
    7
 10
1370.9122150000003
 20
529.16701999999998
 11
1370.9122150000003
 21
529.59077000000002
  0
LINE
  8
_0-1_レイヤ___1
  6
CONTINUOUS
 62
    7
 10
1370.9122150000003
 20
529.59077000000002
 11
1370.9122150000003
 21
530.01451999999995
  0
LINE
  8
_0-1_レイヤ___1
  6
CONTINUOUS
 62
    7
 10
1370.9122150000003
 20
530.01451999999995
 11
1370.9122150000003
 21
530.43481999999995
  0
LINE
  8
_0-1_レイヤ___1
  6
CONTINUOUS
 62
    7
 10
1370.9122150000003
 20
530.43481999999995
 11
1370.9122150000003
 21
530.85856000000001
  0
LINE
  8
_0-1_レイヤ___1
  6
CONTINUOUS
 62
    7
 10
1370.9122150000003
 20
530.85856000000001
 11
1370.9122150000003
 21
531.28231000000005
  0
LINE
  8
_0-1_レイヤ___1
  6
CONTINUOUS
 62
    7
 10
1370.9122150000003
 20
531.28231000000005
 11
1370.9122150000003
 21
531.70605999999998
  0
LINE
  8
_0-1_レイヤ___1
  6
CONTINUOUS
 62
    7
 10
1370.9122150000003
 20
531.70605999999998
 11
1371.3359650000002
 21
531.70605999999998
  0
LINE
  8
_0-1_レイヤ___1
  6
CONTINUOUS
 62
    7
 10
1371.3359650000002
 20
531.70605999999998
 11
1371.3359650000002
 21
532.12981000000002
  0
LINE
  8
_0-1_レイヤ___1
  6
CONTINUOUS
 62
    7
 10
1371.3359650000002
 20
532.12981000000002
 11
1371.3359650000002
 21
532.55354999999997
  0
LINE
  8
_0-1_レイヤ___1
  6
CONTINUOUS
 62
    7
 10
1371.3359650000002
 20
532.55354999999997
 11
1372.1817350000001
 21
533.40105000000005
  0
LINE
  8
_0-1_レイヤ___1
  6
CONTINUOUS
 62
    7
 10
1373.4529750000002
 20
535.09258999999997
 11
1374.2987450000001
 21
535.09258999999997
  0
LINE
  8
_0-1_レイヤ___1
  6
CONTINUOUS
 62
    7
 10
1374.2987450000001
 20
535.09258999999997
 11
1374.2987450000001
 21
535.51633000000004
  0
LINE
  8
_0-1_レイヤ___1
  6
CONTINUOUS
 62
    7
 10
1370.0664450000002
 20
519.00744000000009
 11
1370.4884650000004
 21
521.12273000000005
  0
LINE
  8
_0-1_レイヤ___1
  6
CONTINUOUS
 62
    7
 10
1370.4884650000004
 20
521.12273000000005
 11
1370.4884650000004
 21
524.93299999999999
  0
LINE
  8
_0-1_レイヤ___1
  6
CONTINUOUS
 62
    7
 10
1370.4884650000004
 20
524.93299999999999
 11
1370.4884650000004
 21
525.35674999999992
  0
LINE
  8
_0-1_レイヤ___1
  6
CONTINUOUS
 62
    7
 10
1370.4884650000004
 20
525.35674999999992
 11
1370.4884650000004
 21
525.78048999999999
  0
LINE
  8
_0-1_レイヤ___1
  6
CONTINUOUS
 62
    7
 10
1370.4884650000004
 20
525.78048999999999
 11
1370.4884650000004
 21
526.20424000000003
  0
LINE
  8
_0-1_レイヤ___1
  6
CONTINUOUS
 62
    7
 10
1370.4884650000004
 20
526.20424000000003
 11
1370.4884650000004
 21
526.62454000000002
  0
LINE
  8
_0-1_レイヤ___1
  6
CONTINUOUS
 62
    7
 10
1370.4884650000004
 20
526.62454000000002
 11
1370.9122150000003
 21
527.04829000000007
  0
LINE
  8
_0-1_レイヤ___1
  6
CONTINUOUS
 62
    7
 10
1370.9122150000003
 20
527.04829000000007
 11
1370.9122150000003
 21
527.47203999999999
  0
LINE
  8
_0-1_レイヤ___1
  6
CONTINUOUS
 62
    7
 10
1370.9122150000003
 20
527.47203999999999
 11
1370.9122150000003
 21
527.89577999999995
  0
LINE
  8
_0-1_レイヤ___1
  6
CONTINUOUS
 62
    7
 10
1370.9122150000003
 20
527.89577999999995
 11
1370.9122150000003
 21
528.31952999999999
  0
LINE
  8
_0-1_レイヤ___1
  6
CONTINUOUS
 62
    7
 10
1341.7029750000002
 20
527.89577999999995
 11
1176.1781950000002
 21
527.89577999999995
  0
LINE
  8
_0-1_レイヤ___1
  6
CONTINUOUS
 62
    7
 10
1176.1781950000002
 20
527.89577999999995
 11
1172.3696450000002
 21
527.89577999999995
  0
LINE
  8
_0-1_レイヤ___1
  6
CONTINUOUS
 62
    7
 10
1172.3696450000002
 20
527.89577999999995
 11
695.69589500000018
 21
544.40467999999998
  0
LINE
  8
_0-1_レイヤ___1
  6
CONTINUOUS
 62
    7
 10
1371.3359650000002
 20
529.59077000000002
 11
1370.9122150000003
 21
528.31952999999999
  0
LINE
  8
_0-1_レイヤ___1
  6
CONTINUOUS
 62
    7
 10
1374.2987450000001
 20
535.51633000000004
 11
1374.722495
 21
535.51633000000004
  0
LINE
  8
_0-1_レイヤ___1
  6
CONTINUOUS
 62
    7
 10
695.27214500000014
 20
544.40467999999998
 11
695.69589500000018
 21
544.40467999999998
  0
LINE
  8
_0-1_レイヤ___1
  6
CONTINUOUS
 62
    7
 10
632.19589500000006
 20
750.14578000000006
 11
630.92637500000023
 21
750.14578000000006
  0
LINE
  8
_0-1_レイヤ___1
  6
CONTINUOUS
 62
    7
 10
630.92637500000023
 20
750.14578000000006
 11
630.92637500000023
 21
744.64397000000008
  0
LINE
  8
_0-1_レイヤ___1
  6
CONTINUOUS
 62
    7
 10
630.92637500000023
 20
744.64397000000008
 11
632.19589500000006
 21
744.64397000000008
  0
LINE
  8
_0-1_レイヤ___1
  6
CONTINUOUS
 62
    7
 10
632.19589500000006
 20
744.64397000000008
 11
632.19589500000006
 21
750.14578000000006
  0
LINE
  8
_0-1_レイヤ___1
  6
CONTINUOUS
 62
    7
 10
1123.685275
 20
731.51814999999999
 11
1123.685275
 21
744.22021999999993
  0
LINE
  8
_0-1_レイヤ___1
  6
CONTINUOUS
 62
    7
 10
1123.685275
 20
748.45423999999991
 11
1123.685275
 21
749.72204000000011
  0
LINE
  8
_0-1_レイヤ___1
  6
CONTINUOUS
 62
    7
 10
1123.685275
 20
752.68482000000006
 11
1123.685275
 21
753.95605999999998
  0
LINE
  8
_0-1_レイヤ___1
  6
CONTINUOUS
 62
    7
 10
1123.685275
 20
756.91884000000005
 11
1123.685275
 21
769.62090999999998
  0
LINE
  8
_0-1_レイヤ___1
  6
CONTINUOUS
 62
    7
 10
1123.685275
 20
773.85148000000004
 11
1123.685275
 21
775.12272999999993
  0
LINE
  8
_0-1_レイヤ___1
  6
CONTINUOUS
 62
    7
 10
1123.685275
 20
778.08550999999989
 11
1123.685275
 21
779.35675000000003
  0
LINE
  8
_0-1_レイヤ___1
  6
CONTINUOUS
 62
    7
 10
1123.685275
 20
782.31952999999999
 11
1123.685275
 21
795.01814999999988
  0
LINE
  8
_0-1_レイヤ___1
  6
CONTINUOUS
 62
    7
 10
1123.685275
 20
795.44190000000003
 11
1123.685275
 21
796.28939000000003
  0
LINE
  8
_0-1_レイヤ___1
  6
CONTINUOUS
 62
    7
 10
920.06290500000023
 20
731.51814999999999
 11
920.06290500000023
 21
744.22021999999993
  0
LINE
  8
_0-1_レイヤ___1
  6
CONTINUOUS
 62
    7
 10
920.06290500000023
 20
748.45423999999991
 11
920.06290500000023
 21
749.72204000000011
  0
LINE
  8
_0-1_レイヤ___1
  6
CONTINUOUS
 62
    7
 10
920.06290500000023
 20
752.68482000000006
 11
920.06290500000023
 21
753.95605999999998
  0
LINE
  8
_0-1_レイヤ___1
  6
CONTINUOUS
 62
    7
 10
920.06290500000023
 20
756.91884000000005
 11
920.06290500000023
 21
769.62090999999998
  0
LINE
  8
_0-1_レイヤ___1
  6
CONTINUOUS
 62
    7
 10
920.06290500000023
 20
773.85148000000004
 11
920.06290500000023
 21
775.12272999999993
  0
LINE
  8
_0-1_レイヤ___1
  6
CONTINUOUS
 62
    7
 10
920.06290500000023
 20
778.08550999999989
 11
920.06290500000023
 21
779.35675000000003
  0
LINE
  8
_0-1_レイヤ___1
  6
CONTINUOUS
 62
    7
 10
920.06290500000023
 20
782.31952999999999
 11
920.06290500000023
 21
795.01814999999988
  0
LINE
  8
_0-1_レイヤ___1
  6
CONTINUOUS
 62
    7
 10
920.06290500000023
 20
795.44190000000003
 11
920.06290500000023
 21
796.28939000000003
  0
LINE
  8
_0-1_レイヤ___1
  6
CONTINUOUS
 62
    7
 10
716.86256500000013
 20
731.51814999999999
 11
716.86256500000013
 21
744.22021999999993
  0
LINE
  8
_0-1_レイヤ___1
  6
CONTINUOUS
 62
    7
 10
716.86256500000013
 20
748.45423999999991
 11
716.86256500000013
 21
749.72204000000011
  0
LINE
  8
_0-1_レイヤ___1
  6
CONTINUOUS
 62
    7
 10
716.86256500000013
 20
752.68482000000006
 11
716.86256500000013
 21
753.95605999999998
  0
LINE
  8
_0-1_レイヤ___1
  6
CONTINUOUS
 62
    7
 10
716.86256500000013
 20
756.91884000000005
 11
716.86256500000013
 21
769.62090999999998
  0
LINE
  8
_0-1_レイヤ___1
  6
CONTINUOUS
 62
    7
 10
716.86256500000013
 20
773.85148000000004
 11
716.86256500000013
 21
775.12272999999993
  0
LINE
  8
_0-1_レイヤ___1
  6
CONTINUOUS
 62
    7
 10
716.86256500000013
 20
778.08550999999989
 11
716.86256500000013
 21
779.35675000000003
  0
LINE
  8
_0-1_レイヤ___1
  6
CONTINUOUS
 62
    7
 10
716.86256500000013
 20
782.31952999999999
 11
716.86256500000013
 21
795.01814999999988
  0
LINE
  8
_0-1_レイヤ___1
  6
CONTINUOUS
 62
    7
 10
716.86256500000013
 20
795.44190000000003
 11
716.86256500000013
 21
796.28939000000003
  0
LINE
  8
_0-1_レイヤ___1
  6
CONTINUOUS
 62
    7
 10
1326.8856150000001
 20
731.51814999999999
 11
1326.8856150000001
 21
744.22021999999993
  0
LINE
  8
_0-1_レイヤ___1
  6
CONTINUOUS
 62
    7
 10
1326.8856150000001
 20
748.45423999999991
 11
1326.8856150000001
 21
749.72204000000011
  0
LINE
  8
_0-1_レイヤ___1
  6
CONTINUOUS
 62
    7
 10
1326.8856150000001
 20
752.68482000000006
 11
1326.8856150000001
 21
753.95605999999998
  0
LINE
  8
_0-1_レイヤ___1
  6
CONTINUOUS
 62
    7
 10
1326.8856150000001
 20
756.91884000000005
 11
1326.8856150000001
 21
769.62090999999998
  0
LINE
  8
_0-1_レイヤ___1
  6
CONTINUOUS
 62
    7
 10
1326.8856150000001
 20
773.85148000000004
 11
1326.8856150000001
 21
775.12272999999993
  0
LINE
  8
_0-1_レイヤ___1
  6
CONTINUOUS
 62
    7
 10
1326.8856150000001
 20
778.08550999999989
 11
1326.8856150000001
 21
779.35675000000003
  0
LINE
  8
_0-1_レイヤ___1
  6
CONTINUOUS
 62
    7
 10
1326.8856150000001
 20
782.31952999999999
 11
1326.8856150000001
 21
795.01814999999988
  0
LINE
  8
_0-1_レイヤ___1
  6
CONTINUOUS
 62
    7
 10
1326.8856150000001
 20
795.44190000000003
 11
1326.8856150000001
 21
796.28939000000003
  0
LINE
  8
_0-1_レイヤ___1
  6
CONTINUOUS
 62
    7
 10
2295.8945150000004
 20
333.16175999999996
 11
2295.8945150000004
 21
364.91175999999996
  0
LINE
  8
_0-1_レイヤ___1
  6
CONTINUOUS
 62
    7
 10
2295.8945150000004
 20
375.49509
 11
2295.8945150000004
 21
378.88161999999994
  0
LINE
  8
_0-1_レイヤ___1
  6
CONTINUOUS
 62
    7
 10
2295.8945150000004
 20
386.07843000000003
 11
2295.8945150000004
 21
417.82843000000003
  0
LINE
  8
_0-1_レイヤ___1
  6
CONTINUOUS
 62
    7
 10
2295.8945150000004
 20
428.41175999999996
 11
2295.8945150000004
 21
431.79828999999995
  0
LINE
  8
_0-1_レイヤ___1
  6
CONTINUOUS
 62
    7
 10
2295.8945150000004
 20
438.99509
 11
2295.8945150000004
 21
470.74509
  0
LINE
  8
_0-1_レイヤ___1
  6
CONTINUOUS
 62
    7
 10
2295.8945150000004
 20
481.32843000000003
 11
2295.8945150000004
 21
484.71496000000002
  0
LINE
  8
_0-1_レイヤ___1
  6
CONTINUOUS
 62
    7
 10
2295.8945150000004
 20
491.91175999999996
 11
2295.8945150000004
 21
523.66176000000007
  0
LINE
  8
_0-1_レイヤ___1
  6
CONTINUOUS
 62
    7
 10
2295.8945150000004
 20
534.24509
 11
2295.8945150000004
 21
537.63162
  0
LINE
  8
_0-1_レイヤ___1
  6
CONTINUOUS
 62
    7
 10
2295.8945150000004
 20
544.82843000000003
 11
2295.8945150000004
 21
576.57843000000003
  0
LINE
  8
_0-1_レイヤ___1
  6
CONTINUOUS
 62
    7
 10
2295.8945150000004
 20
582.08368999999993
 11
2295.8945150000004
 21
582.93118000000004
  0
LINE
  8
_0-1_レイヤ___1
  6
CONTINUOUS
 62
    7
 10
2497.8253450000002
 20
731.51814999999999
 11
2497.8253450000002
 21
744.22021999999993
  0
LINE
  8
_0-1_レイヤ___1
  6
CONTINUOUS
 62
    7
 10
2497.8253450000002
 20
748.45423999999991
 11
2497.8253450000002
 21
749.72204000000011
  0
LINE
  8
_0-1_レイヤ___1
  6
CONTINUOUS
 62
    7
 10
2497.8253450000002
 20
752.68482000000006
 11
2497.8253450000002
 21
753.95605999999998
  0
LINE
  8
_0-1_レイヤ___1
  6
CONTINUOUS
 62
    7
 10
2497.8253450000002
 20
756.91884000000005
 11
2497.8253450000002
 21
769.62090999999998
  0
LINE
  8
_0-1_レイヤ___1
  6
CONTINUOUS
 62
    7
 10
2497.8253450000002
 20
773.85148000000004
 11
2497.8253450000002
 21
775.12272999999993
  0
LINE
  8
_0-1_レイヤ___1
  6
CONTINUOUS
 62
    7
 10
2497.8253450000002
 20
778.08550999999989
 11
2497.8253450000002
 21
779.35675000000003
  0
LINE
  8
_0-1_レイヤ___1
  6
CONTINUOUS
 62
    7
 10
2497.8253450000002
 20
782.31952999999999
 11
2497.8253450000002
 21
795.01814999999988
  0
LINE
  8
_0-1_レイヤ___1
  6
CONTINUOUS
 62
    7
 10
2497.8253450000002
 20
795.44190000000003
 11
2497.8253450000002
 21
796.28939000000003
  0
LINE
  8
_0-1_レイヤ___1
  6
CONTINUOUS
 62
    7
 10
1991.5203250000002
 20
753.53230999999994
 11
1991.9406350000004
 21
755.65105000000005
  0
LINE
  8
_0-1_レイヤ___1
  6
CONTINUOUS
 62
    7
 10
1991.9406350000004
 20
755.65105000000005
 11
1992.788125
 21
757.76633000000004
  0
LINE
  8
_0-1_レイヤ___1
  6
CONTINUOUS
 62
    7
 10
1992.788125
 20
757.76633000000004
 11
1994.0593650000003
 21
759.45788000000005
  0
LINE
  8
_0-1_レイヤ___1
  6
CONTINUOUS
 62
    7
 10
1994.0593650000003
 20
759.45788000000005
 11
1995.7509050000001
 21
761.15285999999992
  0
LINE
  8
_0-1_レイヤ___1
  6
CONTINUOUS
 62
    7
 10
1995.7509050000001
 20
761.15285999999992
 11
1997.4458950000003
 21
762.42410000000007
  0
LINE
  8
_0-1_レイヤ___1
  6
CONTINUOUS
 62
    7
 10
1997.4458950000003
 20
762.42410000000007
 11
1999.561185
 21
763.26814999999999
  0
LINE
  8
_0-1_レイヤ___1
  6
CONTINUOUS
 62
    7
 10
1999.561185
 20
763.26814999999999
 11
2001.6799150000002
 21
763.69190000000003
  0
LINE
  8
_0-1_レイヤ___1
  6
CONTINUOUS
 62
    7
 10
2001.6799150000002
 20
763.69190000000003
 11
2003.7952050000001
 21
764.11564999999996
  0
LINE
  8
_0-1_レイヤ___1
  6
CONTINUOUS
 62
    7
 10
2003.7952050000001
 20
764.11564999999996
 11
2537.1958950000003
 21
764.11564999999996
  0
LINE
  8
_0-1_レイヤ___1
  6
CONTINUOUS
 62
    7
 10
2537.1958950000003
 20
764.11564999999996
 11
2539.3111850000005
 21
763.69190000000003
  0
LINE
  8
_0-1_レイヤ___1
  6
CONTINUOUS
 62
    7
 10
2539.3111850000005
 20
763.69190000000003
 11
2541.4299150000002
 21
763.26814999999999
  0
LINE
  8
_0-1_レイヤ___1
  6
CONTINUOUS
 62
    7
 10
2541.4299150000002
 20
763.26814999999999
 11
2543.121455
 21
762.42410000000007
  0
LINE
  8
_0-1_レイヤ___1
  6
CONTINUOUS
 62
    7
 10
2543.121455
 20
762.42410000000007
 11
2545.2401950000003
 21
761.15285999999992
  0
LINE
  8
_0-1_レイヤ___1
  6
CONTINUOUS
 62
    7
 10
2545.2401950000003
 20
761.15285999999992
 11
2546.5079850000002
 21
759.45788000000005
  0
LINE
  8
_0-1_レイヤ___1
  6
CONTINUOUS
 62
    7
 10
2546.5079850000002
 20
759.45788000000005
 11
2547.7792250000002
 21
757.76633000000004
  0
LINE
  8
_0-1_レイヤ___1
  6
CONTINUOUS
 62
    7
 10
2547.7792250000002
 20
757.76633000000004
 11
2548.6267250000001
 21
755.65105000000005
  0
LINE
  8
_0-1_レイヤ___1
  6
CONTINUOUS
 62
    7
 10
2548.6267250000001
 20
755.65105000000005
 11
2549.470765
 21
753.53230999999994
  0
LINE
  8
_0-1_レイヤ___1
  6
CONTINUOUS
 62
    7
 10
2549.470765
 20
753.53230999999994
 11
2549.894515
 21
750.5695300000001
  0
LINE
  8
_0-1_レイヤ___1
  6
CONTINUOUS
 62
    7
 10
2549.894515
 20
750.5695300000001
 11
2549.894515
 21
750.14578000000006
  0
LINE
  8
_0-1_レイヤ___1
  6
CONTINUOUS
 62
    7
 10
2549.894515
 20
750.14578000000006
 11
2549.470765
 21
750.14578000000006
  0
LINE
  8
_0-1_レイヤ___1
  6
CONTINUOUS
 62
    7
 10
2549.470765
 20
750.14578000000006
 11
2270.4972750000002
 21
750.14578000000006
  0
LINE
  8
_0-1_レイヤ___1
  6
CONTINUOUS
 62
    7
 10
2270.4972750000002
 20
750.14578000000006
 11
1991.5203250000002
 21
750.14578000000006
  0
LINE
  8
_0-1_レイヤ___1
  6
CONTINUOUS
 62
    7
 10
1991.5203250000002
 20
750.14578000000006
 11
1991.0965850000002
 21
750.14578000000006
  0
LINE
  8
_0-1_レイヤ___1
  6
CONTINUOUS
 62
    7
 10
1991.0965850000002
 20
750.14578000000006
 11
1991.0965850000002
 21
750.5695300000001
  0
LINE
  8
_0-1_レイヤ___1
  6
CONTINUOUS
 62
    7
 10
1991.0965850000002
 20
750.5695300000001
 11
1991.5203250000002
 21
753.53230999999994
  0
LINE
  8
_0-1_レイヤ___1
  6
CONTINUOUS
 62
    7
 10
2071.5292250000002
 20
519.00744000000009
 11
2071.5292250000002
 21
518.58369000000005
  0
LINE
  8
_0-1_レイヤ___1
  6
CONTINUOUS
 62
    7
 10
2071.5292250000002
 20
518.58369000000005
 11
2071.9529750000002
 21
518.58369000000005
  0
LINE
  8
_0-1_レイヤ___1
  6
CONTINUOUS
 62
    7
 10
2071.9529750000002
 20
518.58369000000005
 11
2071.9529750000002
 21
518.15994000000001
  0
LINE
  8
_0-1_レイヤ___1
  6
CONTINUOUS
 62
    7
 10
2071.9529750000002
 20
518.15994000000001
 11
2072.3767250000001
 21
518.15994000000001
  0
LINE
  8
_0-1_レイヤ___1
  6
CONTINUOUS
 62
    7
 10
2072.3767250000001
 20
518.15994000000001
 11
2072.3767250000001
 21
517.73620000000005
  0
LINE
  8
_0-1_レイヤ___1
  6
CONTINUOUS
 62
    7
 10
2072.3767250000001
 20
517.73620000000005
 11
2072.8004650000003
 21
517.73620000000005
  0
LINE
  8
_0-1_レイヤ___1
  6
CONTINUOUS
 62
    7
 10
2072.8004650000003
 20
517.73620000000005
 11
2073.220765
 21
517.73620000000005
  0
LINE
  8
_0-1_レイヤ___1
  6
CONTINUOUS
 62
    7
 10
2071.105485
 20
519.00744000000009
 11
2071.105485
 21
518.58369000000005
  0
LINE
  8
_0-1_レイヤ___1
  6
CONTINUOUS
 62
    7
 10
2071.105485
 20
518.58369000000005
 11
2071.5292250000002
 21
518.58369000000005
  0
LINE
  8
_0-1_レイヤ___1
  6
CONTINUOUS
 62
    7
 10
2071.5292250000002
 20
518.58369000000005
 11
2071.5292250000002
 21
518.15994000000001
  0
LINE
  8
_0-1_レイヤ___1
  6
CONTINUOUS
 62
    7
 10
2071.5292250000002
 20
518.15994000000001
 11
2071.9529750000002
 21
518.15994000000001
  0
LINE
  8
_0-1_レイヤ___1
  6
CONTINUOUS
 62
    7
 10
2071.9529750000002
 20
518.15994000000001
 11
2071.9529750000002
 21
517.73620000000005
  0
LINE
  8
_0-1_レイヤ___1
  6
CONTINUOUS
 62
    7
 10
2071.9529750000002
 20
517.73620000000005
 11
2072.3767250000001
 21
517.73620000000005
  0
LINE
  8
_0-1_レイヤ___1
  6
CONTINUOUS
 62
    7
 10
2072.3767250000001
 20
517.73620000000005
 11
2072.8004650000003
 21
517.73620000000005
  0
LINE
  8
_0-1_レイヤ___1
  6
CONTINUOUS
 62
    7
 10
2086.3465850000002
 20
517.73620000000005
 11
2086.7703250000004
 21
517.73620000000005
  0
LINE
  8
_0-1_レイヤ___1
  6
CONTINUOUS
 62
    7
 10
2086.7703250000004
 20
517.73620000000005
 11
2087.1906349999999
 21
517.73620000000005
  0
LINE
  8
_0-1_レイヤ___1
  6
CONTINUOUS
 62
    7
 10
2087.1906349999999
 20
517.73620000000005
 11
2087.1906349999999
 21
518.15994000000001
  0
LINE
  8
_0-1_レイヤ___1
  6
CONTINUOUS
 62
    7
 10
2087.1906349999999
 20
518.15994000000001
 11
2087.6143750000001
 21
518.15994000000001
  0
LINE
  8
_0-1_レイヤ___1
  6
CONTINUOUS
 62
    7
 10
2087.6143750000001
 20
518.15994000000001
 11
2087.6143750000001
 21
518.58369000000005
  0
LINE
  8
_0-1_レイヤ___1
  6
CONTINUOUS
 62
    7
 10
2087.6143750000001
 20
518.58369000000005
 11
2087.6143750000001
 21
519.00744000000009
  0
LINE
  8
_0-1_レイヤ___1
  6
CONTINUOUS
 62
    7
 10
2087.6143750000001
 20
519.00744000000009
 11
2088.038125
 21
519.00744000000009
  0
LINE
  8
_0-1_レイヤ___1
  6
CONTINUOUS
 62
    7
 10
2091.8484050000002
 20
532.12981000000002
 11
2091.4246550000003
 21
531.70605999999998
  0
LINE
  8
_0-1_レイヤ___1
  6
CONTINUOUS
 62
    7
 10
2091.4246550000003
 20
531.70605999999998
 11
2091.0009050000003
 21
531.70605999999998
  0
LINE
  8
_0-1_レイヤ___1
  6
CONTINUOUS
 62
    7
 10
2091.0009050000003
 20
531.70605999999998
 11
2091.0009050000003
 21
531.28231000000005
  0
LINE
  8
_0-1_レイヤ___1
  6
CONTINUOUS
 62
    7
 10
2091.0009050000003
 20
531.28231000000005
 11
2090.5806050000001
 21
531.28231000000005
  0
LINE
  8
_0-1_レイヤ___1
  6
CONTINUOUS
 62
    7
 10
2090.5806050000001
 20
531.28231000000005
 11
2090.5806050000001
 21
530.85856000000001
  0
LINE
  8
_0-1_レイヤ___1
  6
CONTINUOUS
 62
    7
 10
2090.5806050000001
 20
530.85856000000001
 11
2090.1568550000002
 21
530.85856000000001
  0
LINE
  8
_0-1_レイヤ___1
  6
CONTINUOUS
 62
    7
 10
2090.1568550000002
 20
530.85856000000001
 11
2090.1568550000002
 21
530.43481999999995
  0
LINE
  8
_0-1_レイヤ___1
  6
CONTINUOUS
 62
    7
 10
2090.1568550000002
 20
530.43481999999995
 11
2089.733115
 21
530.43481999999995
  0
LINE
  8
_0-1_レイヤ___1
  6
CONTINUOUS
 62
    7
 10
2089.733115
 20
530.43481999999995
 11
2089.733115
 21
530.01451999999995
  0
LINE
  8
_0-1_レイヤ___1
  6
CONTINUOUS
 62
    7
 10
2089.733115
 20
530.01451999999995
 11
2089.3093650000001
 21
530.01451999999995
  0
LINE
  8
_0-1_レイヤ___1
  6
CONTINUOUS
 62
    7
 10
2089.3093650000001
 20
530.01451999999995
 11
2089.3093650000001
 21
529.59077000000002
  0
LINE
  8
_0-1_レイヤ___1
  6
CONTINUOUS
 62
    7
 10
2089.3093650000001
 20
529.59077000000002
 11
2089.3093650000001
 21
529.16701999999998
  0
LINE
  8
_0-1_レイヤ___1
  6
CONTINUOUS
 62
    7
 10
2089.3093650000001
 20
529.16701999999998
 11
2088.8856150000001
 21
529.16701999999998
  0
LINE
  8
_0-1_レイヤ___1
  6
CONTINUOUS
 62
    7
 10
2088.8856150000001
 20
529.16701999999998
 11
2088.8856150000001
 21
528.74328000000003
  0
LINE
  8
_0-1_レイヤ___1
  6
CONTINUOUS
 62
    7
 10
2088.8856150000001
 20
528.74328000000003
 11
2088.8856150000001
 21
528.31952999999999
  0
LINE
  8
_0-1_レイヤ___1
  6
CONTINUOUS
 62
    7
 10
2088.8856150000001
 20
528.31952999999999
 11
2088.461875
 21
528.31952999999999
  0
LINE
  8
_0-1_レイヤ___1
  6
CONTINUOUS
 62
    7
 10
2088.461875
 20
528.31952999999999
 11
2088.461875
 21
527.89577999999995
  0
LINE
  8
_0-1_レイヤ___1
  6
CONTINUOUS
 62
    7
 10
2088.461875
 20
527.89577999999995
 11
2088.461875
 21
527.47203999999999
  0
LINE
  8
_0-1_レイヤ___1
  6
CONTINUOUS
 62
    7
 10
2088.461875
 20
527.47203999999999
 11
2088.461875
 21
527.04829000000007
  0
LINE
  8
_0-1_レイヤ___1
  6
CONTINUOUS
 62
    7
 10
2088.461875
 20
527.04829000000007
 11
2088.461875
 21
526.62454000000002
  0
LINE
  8
_0-1_レイヤ___1
  6
CONTINUOUS
 62
    7
 10
2093.5433849999999
 20
532.55354999999997
 11
2093.1196450000002
 21
532.55354999999997
  0
LINE
  8
_0-1_レイヤ___1
  6
CONTINUOUS
 62
    7
 10
2093.1196450000002
 20
532.55354999999997
 11
2092.6958950000003
 21
532.55354999999997
  0
LINE
  8
_0-1_レイヤ___1
  6
CONTINUOUS
 62
    7
 10
2092.6958950000003
 20
532.55354999999997
 11
2092.6958950000003
 21
532.12981000000002
  0
LINE
  8
_0-1_レイヤ___1
  6
CONTINUOUS
 62
    7
 10
2092.6958950000003
 20
532.12981000000002
 11
2092.2721449999999
 21
532.12981000000002
  0
LINE
  8
_0-1_レイヤ___1
  6
CONTINUOUS
 62
    7
 10
2092.2721449999999
 20
532.12981000000002
 11
2091.8484050000002
 21
532.12981000000002
  0
LINE
  8
_0-1_レイヤ___1
  6
CONTINUOUS
 62
    7
 10
2429.6675750000004
 20
551.60148000000004
 11
2429.6675750000004
 21
552.02522999999997
  0
LINE
  8
_0-1_レイヤ___1
  6
CONTINUOUS
 62
    7
 10
2429.6675750000004
 20
552.02522999999997
 11
2429.6675750000004
 21
552.44898000000001
  0
LINE
  8
_0-1_レイヤ___1
  6
CONTINUOUS
 62
    7
 10
2429.6675750000004
 20
552.44898000000001
 11
2430.0913250000003
 21
552.44898000000001
  0
LINE
  8
_0-1_レイヤ___1
  6
CONTINUOUS
 62
    7
 10
2430.0913250000003
 20
552.44898000000001
 11
2430.0913250000003
 21
552.87273000000005
  0
LINE
  8
_0-1_レイヤ___1
  6
CONTINUOUS
 62
    7
 10
2430.0913250000003
 20
552.87273000000005
 11
2430.0913250000003
 21
553.29647
  0
LINE
  8
_0-1_レイヤ___1
  6
CONTINUOUS
 62
    7
 10
2430.0913250000003
 20
553.29647
 11
2430.0913250000003
 21
553.72022000000004
  0
LINE
  8
_0-1_レイヤ___1
  6
CONTINUOUS
 62
    7
 10
2430.0913250000003
 20
553.72022000000004
 11
2430.515065
 21
553.72022000000004
  0
LINE
  8
_0-1_レイヤ___1
  6
CONTINUOUS
 62
    7
 10
2430.515065
 20
553.72022000000004
 11
2430.515065
 21
554.14396999999997
  0
LINE
  8
_0-1_レイヤ___1
  6
CONTINUOUS
 62
    7
 10
2430.515065
 20
554.14396999999997
 11
2430.515065
 21
554.56771000000003
  0
LINE
  8
_0-1_レイヤ___1
  6
CONTINUOUS
 62
    7
 10
2430.515065
 20
554.56771000000003
 11
2430.515065
 21
554.98801000000003
  0
LINE
  8
_0-1_レイヤ___1
  6
CONTINUOUS
 62
    7
 10
2430.515065
 20
554.98801000000003
 11
2430.938815
 21
554.98801000000003
  0
LINE
  8
_0-1_レイヤ___1
  6
CONTINUOUS
 62
    7
 10
2430.938815
 20
554.98801000000003
 11
2430.938815
 21
555.41175999999996
  0
LINE
  8
_0-1_レイヤ___1
  6
CONTINUOUS
 62
    7
 10
2430.938815
 20
555.41175999999996
 11
2430.938815
 21
555.83551
  0
LINE
  8
_0-1_レイヤ___1
  6
CONTINUOUS
 62
    7
 10
2430.938815
 20
555.83551
 11
2430.938815
 21
556.25925000000007
  0
LINE
  8
_0-1_レイヤ___1
  6
CONTINUOUS
 62
    7
 10
2430.938815
 20
556.25925000000007
 11
2430.938815
 21
556.68299999999999
  0
LINE
  8
_0-1_レイヤ___1
  6
CONTINUOUS
 62
    7
 10
2430.938815
 20
556.68299999999999
 11
2431.3625649999999
 21
557.10675000000003
  0
LINE
  8
_0-1_レイヤ___1
  6
CONTINUOUS
 62
    7
 10
2431.3625649999999
 20
557.10675000000003
 11
2431.3625649999999
 21
557.53048999999999
  0
LINE
  8
_0-1_レイヤ___1
  6
CONTINUOUS
 62
    7
 10
2431.3625649999999
 20
557.53048999999999
 11
2431.3625649999999
 21
557.95424000000003
  0
LINE
  8
_0-1_レイヤ___1
  6
CONTINUOUS
 62
    7
 10
2431.3625649999999
 20
557.95424000000003
 11
2431.3625649999999
 21
558.37454000000002
  0
LINE
  8
_0-1_レイヤ___1
  6
CONTINUOUS
 62
    7
 10
2431.3625649999999
 20
558.37454000000002
 11
2431.3625649999999
 21
558.79828999999995
  0
LINE
  8
_0-1_レイヤ___1
  6
CONTINUOUS
 62
    7
 10
2431.3625649999999
 20
558.79828999999995
 11
2431.3625649999999
 21
559.22203999999999
  0
LINE
  8
_0-1_レイヤ___1
  6
CONTINUOUS
 62
    7
 10
2431.3625649999999
 20
559.22203999999999
 11
2431.7863050000001
 21
559.22203999999999
  0
LINE
  8
_0-1_レイヤ___1
  6
CONTINUOUS
 62
    7
 10
2431.7863050000001
 20
559.22203999999999
 11
2431.7863050000001
 21
559.64578000000006
  0
LINE
  8
_0-1_レイヤ___1
  6
CONTINUOUS
 62
    7
 10
2431.7863050000001
 20
559.64578000000006
 11
2431.7863050000001
 21
560.06952999999999
  0
LINE
  8
_0-1_レイヤ___1
  6
CONTINUOUS
 62
    7
 10
2431.7863050000001
 20
560.06952999999999
 11
2431.7863050000001
 21
560.49328000000003
  0
LINE
  8
_0-1_レイヤ___1
  6
CONTINUOUS
 62
    7
 10
2431.7863050000001
 20
560.49328000000003
 11
2431.7863050000001
 21
560.91701999999998
  0
LINE
  8
_0-1_レイヤ___1
  6
CONTINUOUS
 62
    7
 10
2426.2810450000002
 20
545.25216999999998
 11
2426.7047950000001
 21
545.25216999999998
  0
LINE
  8
_0-1_レイヤ___1
  6
CONTINUOUS
 62
    7
 10
2426.7047950000001
 20
545.25216999999998
 11
2426.7047950000001
 21
545.67592000000002
  0
LINE
  8
_0-1_レイヤ___1
  6
CONTINUOUS
 62
    7
 10
2426.7047950000001
 20
545.67592000000002
 11
2426.7047950000001
 21
546.09966999999995
  0
LINE
  8
_0-1_レイヤ___1
  6
CONTINUOUS
 62
    7
 10
2426.7047950000001
 20
546.09966999999995
 11
2427.1285350000003
 21
546.09966999999995
  0
LINE
  8
_0-1_レイヤ___1
  6
CONTINUOUS
 62
    7
 10
2427.1285350000003
 20
546.09966999999995
 11
2427.1285350000003
 21
546.52341000000001
  0
LINE
  8
_0-1_レイヤ___1
  6
CONTINUOUS
 62
    7
 10
2427.1285350000003
 20
546.52341000000001
 11
2427.5522850000002
 21
546.94715999999994
  0
LINE
  8
_0-1_レイヤ___1
  6
CONTINUOUS
 62
    7
 10
2427.5522850000002
 20
546.94715999999994
 11
2427.5522850000002
 21
547.37090999999998
  0
LINE
  8
_0-1_レイヤ___1
  6
CONTINUOUS
 62
    7
 10
2427.5522850000002
 20
547.37090999999998
 11
2427.9760350000001
 21
547.37090999999998
  0
LINE
  8
_0-1_レイヤ___1
  6
CONTINUOUS
 62
    7
 10
2427.9760350000001
 20
547.37090999999998
 11
2427.9760350000001
 21
547.79121000000009
  0
LINE
  8
_0-1_レイヤ___1
  6
CONTINUOUS
 62
    7
 10
2427.9760350000001
 20
547.79121000000009
 11
2427.9760350000001
 21
548.21496000000002
  0
LINE
  8
_0-1_レイヤ___1
  6
CONTINUOUS
 62
    7
 10
2427.9760350000001
 20
548.21496000000002
 11
2428.3997749999999
 21
548.21496000000002
  0
LINE
  8
_0-1_レイヤ___1
  6
CONTINUOUS
 62
    7
 10
2428.3997749999999
 20
548.21496000000002
 11
2428.3997749999999
 21
548.63869999999997
  0
LINE
  8
_0-1_レイヤ___1
  6
CONTINUOUS
 62
    7
 10
2428.3997749999999
 20
548.63869999999997
 11
2428.3997749999999
 21
549.06245000000001
  0
LINE
  8
_0-1_レイヤ___1
  6
CONTINUOUS
 62
    7
 10
2428.3997749999999
 20
549.06245000000001
 11
2428.8235250000002
 21
549.06245000000001
  0
LINE
  8
_0-1_レイヤ___1
  6
CONTINUOUS
 62
    7
 10
2428.8235250000002
 20
549.06245000000001
 11
2428.8235250000002
 21
549.48619999999994
  0
LINE
  8
_0-1_レイヤ___1
  6
CONTINUOUS
 62
    7
 10
2428.8235250000002
 20
549.48619999999994
 11
2428.8235250000002
 21
549.90994000000001
  0
LINE
  8
_0-1_レイヤ___1
  6
CONTINUOUS
 62
    7
 10
2428.8235250000002
 20
549.90994000000001
 11
2428.8235250000002
 21
550.33369000000005
  0
LINE
  8
_0-1_レイヤ___1
  6
CONTINUOUS
 62
    7
 10
2428.8235250000002
 20
550.33369000000005
 11
2429.2472750000002
 21
550.33369000000005
  0
LINE
  8
_0-1_レイヤ___1
  6
CONTINUOUS
 62
    7
 10
2429.2472750000002
 20
550.33369000000005
 11
2429.2472750000002
 21
550.75743999999997
  0
LINE
  8
_0-1_レイヤ___1
  6
CONTINUOUS
 62
    7
 10
2429.2472750000002
 20
550.75743999999997
 11
2429.2472750000002
 21
551.18118000000004
  0
LINE
  8
_0-1_レイヤ___1
  6
CONTINUOUS
 62
    7
 10
2429.2472750000002
 20
551.18118000000004
 11
2429.6675750000004
 21
551.18118000000004
  0
LINE
  8
_0-1_レイヤ___1
  6
CONTINUOUS
 62
    7
 10
2429.6675750000004
 20
551.18118000000004
 11
2429.6675750000004
 21
551.60148000000004
  0
LINE
  8
_0-1_レイヤ___1
  6
CONTINUOUS
 62
    7
 10
2406.3856150000001
 20
530.01451999999995
 11
2406.8093650000001
 21
530.01451999999995
  0
LINE
  8
_0-1_レイヤ___1
  6
CONTINUOUS
 62
    7
 10
2406.8093650000001
 20
530.01451999999995
 11
2407.233115
 21
530.01451999999995
  0
LINE
  8
_0-1_レイヤ___1
  6
CONTINUOUS
 62
    7
 10
2407.233115
 20
530.01451999999995
 11
2407.6568550000002
 21
530.43481999999995
  0
LINE
  8
_0-1_レイヤ___1
  6
CONTINUOUS
 62
    7
 10
2407.6568550000002
 20
530.43481999999995
 11
2408.0806050000001
 21
530.43481999999995
  0
LINE
  8
_0-1_レイヤ___1
  6
CONTINUOUS
 62
    7
 10
2408.0806050000001
 20
530.43481999999995
 11
2408.5009050000003
 21
530.43481999999995
  0
LINE
  8
_0-1_レイヤ___1
  6
CONTINUOUS
 62
    7
 10
2408.5009050000003
 20
530.43481999999995
 11
2408.9246550000003
 21
530.85856000000001
  0
LINE
  8
_0-1_レイヤ___1
  6
CONTINUOUS
 62
    7
 10
2408.9246550000003
 20
530.85856000000001
 11
2409.3484050000002
 21
530.85856000000001
  0
LINE
  8
_0-1_レイヤ___1
  6
CONTINUOUS
 62
    7
 10
2409.3484050000002
 20
530.85856000000001
 11
2409.7721449999999
 21
530.85856000000001
  0
LINE
  8
_0-1_レイヤ___1
  6
CONTINUOUS
 62
    7
 10
2409.7721449999999
 20
530.85856000000001
 11
2409.7721449999999
 21
531.28231000000005
  0
LINE
  8
_0-1_レイヤ___1
  6
CONTINUOUS
 62
    7
 10
2409.7721449999999
 20
531.28231000000005
 11
2410.1958950000003
 21
531.28231000000005
  0
LINE
  8
_0-1_レイヤ___1
  6
CONTINUOUS
 62
    7
 10
2410.1958950000003
 20
531.28231000000005
 11
2410.6196450000002
 21
531.28231000000005
  0
LINE
  8
_0-1_レイヤ___1
  6
CONTINUOUS
 62
    7
 10
2410.6196450000002
 20
531.28231000000005
 11
2410.6196450000002
 21
531.70605999999998
  0
LINE
  8
_0-1_レイヤ___1
  6
CONTINUOUS
 62
    7
 10
2410.6196450000002
 20
531.70605999999998
 11
2411.0433849999999
 21
531.70605999999998
  0
LINE
  8
_0-1_レイヤ___1
  6
CONTINUOUS
 62
    7
 10
2411.0433849999999
 20
531.70605999999998
 11
2411.4671349999999
 21
531.70605999999998
  0
LINE
  8
_0-1_レイヤ___1
  6
CONTINUOUS
 62
    7
 10
2411.4671349999999
 20
531.70605999999998
 11
2411.8874350000001
 21
532.12981000000002
  0
LINE
  8
_0-1_レイヤ___1
  6
CONTINUOUS
 62
    7
 10
2411.8874350000001
 20
532.12981000000002
 11
2412.311185
 21
532.12981000000002
  0
LINE
  8
_0-1_レイヤ___1
  6
CONTINUOUS
 62
    7
 10
2412.311185
 20
532.12981000000002
 11
2412.7349250000002
 21
532.55354999999997
  0
LINE
  8
_0-1_レイヤ___1
  6
CONTINUOUS
 62
    7
 10
2412.7349250000002
 20
532.55354999999997
 11
2413.1586750000001
 21
532.55354999999997
  0
LINE
  8
_0-1_レイヤ___1
  6
CONTINUOUS
 62
    7
 10
2413.1586750000001
 20
532.55354999999997
 11
2413.1586750000001
 21
532.97730000000001
  0
LINE
  8
_0-1_レイヤ___1
  6
CONTINUOUS
 62
    7
 10
2413.1586750000001
 20
532.97730000000001
 11
2413.5824250000001
 21
532.97730000000001
  0
LINE
  8
_0-1_レイヤ___1
  6
CONTINUOUS
 62
    7
 10
2413.5824250000001
 20
532.97730000000001
 11
2414.0061650000002
 21
532.97730000000001
  0
LINE
  8
_0-1_レイヤ___1
  6
CONTINUOUS
 62
    7
 10
2414.0061650000002
 20
532.97730000000001
 11
2414.0061650000002
 21
533.40105000000005
  0
LINE
  8
_0-1_レイヤ___1
  6
CONTINUOUS
 62
    7
 10
2414.0061650000002
 20
533.40105000000005
 11
2414.4299150000002
 21
533.40105000000005
  0
LINE
  8
_0-1_レイヤ___1
  6
CONTINUOUS
 62
    7
 10
2414.4299150000002
 20
533.40105000000005
 11
2414.8536650000001
 21
533.40105000000005
  0
LINE
  8
_0-1_レイヤ___1
  6
CONTINUOUS
 62
    7
 10
2414.8536650000001
 20
533.40105000000005
 11
2414.8536650000001
 21
533.82134999999994
  0
LINE
  8
_0-1_レイヤ___1
  6
CONTINUOUS
 62
    7
 10
2414.8536650000001
 20
533.82134999999994
 11
2415.2739650000003
 21
533.82134999999994
  0
LINE
  8
_0-1_レイヤ___1
  6
CONTINUOUS
 62
    7
 10
2415.2739650000003
 20
533.82134999999994
 11
2415.6977150000002
 21
534.24509
  0
LINE
  8
_0-1_レイヤ___1
  6
CONTINUOUS
 62
    7
 10
2415.6977150000002
 20
534.24509
 11
2416.1214550000004
 21
534.24509
  0
LINE
  8
_0-1_レイヤ___1
  6
CONTINUOUS
 62
    7
 10
2416.1214550000004
 20
534.24509
 11
2416.1214550000004
 21
534.66884000000005
  0
LINE
  8
_0-1_レイヤ___1
  6
CONTINUOUS
 62
    7
 10
2416.1214550000004
 20
534.66884000000005
 11
2416.5452050000004
 21
534.66884000000005
  0
LINE
  8
_0-1_レイヤ___1
  6
CONTINUOUS
 62
    7
 10
2416.5452050000004
 20
534.66884000000005
 11
2416.5452050000004
 21
535.09258999999997
  0
LINE
  8
_0-1_レイヤ___1
  6
CONTINUOUS
 62
    7
 10
2416.5452050000004
 20
535.09258999999997
 11
2416.9689550000003
 21
535.09258999999997
  0
LINE
  8
_0-1_レイヤ___1
  6
CONTINUOUS
 62
    7
 10
2416.9689550000003
 20
535.09258999999997
 11
2417.392695
 21
535.09258999999997
  0
LINE
  8
_0-1_レイヤ___1
  6
CONTINUOUS
 62
    7
 10
2417.392695
 20
535.09258999999997
 11
2417.392695
 21
535.51633000000004
  0
LINE
  8
_0-1_レイヤ___1
  6
CONTINUOUS
 62
    7
 10
2417.392695
 20
535.51633000000004
 11
2417.8164450000004
 21
535.51633000000004
  0
LINE
  8
_0-1_レイヤ___1
  6
CONTINUOUS
 62
    7
 10
2417.8164450000004
 20
535.51633000000004
 11
2417.8164450000004
 21
535.94008000000008
  0
LINE
  8
_0-1_レイヤ___1
  6
CONTINUOUS
 62
    7
 10
2417.8164450000004
 20
535.94008000000008
 11
2418.2401950000003
 21
535.94008000000008
  0
LINE
  8
_0-1_レイヤ___1
  6
CONTINUOUS
 62
    7
 10
2418.2401950000003
 20
535.94008000000008
 11
2418.2401950000003
 21
536.36383000000001
  0
LINE
  8
_0-1_レイヤ___1
  6
CONTINUOUS
 62
    7
 10
2418.2401950000003
 20
536.36383000000001
 11
2418.663935
 21
536.36383000000001
  0
LINE
  8
_0-1_レイヤ___1
  6
CONTINUOUS
 62
    7
 10
2418.663935
 20
536.36383000000001
 11
2419.084245
 21
536.78756999999996
  0
LINE
  8
_0-1_レイヤ___1
  6
CONTINUOUS
 62
    7
 10
2419.084245
 20
536.78756999999996
 11
2419.5079850000002
 21
536.78756999999996
  0
LINE
  8
_0-1_レイヤ___1
  6
CONTINUOUS
 62
    7
 10
2419.5079850000002
 20
536.78756999999996
 11
2419.5079850000002
 21
537.20787999999993
  0
LINE
  8
_0-1_レイヤ___1
  6
CONTINUOUS
 62
    7
 10
2419.5079850000002
 20
537.20787999999993
 11
2419.9317350000001
 21
537.20787999999993
  0
LINE
  8
_0-1_レイヤ___1
  6
CONTINUOUS
 62
    7
 10
2419.9317350000001
 20
537.20787999999993
 11
2419.9317350000001
 21
537.63162
  0
LINE
  8
_0-1_レイヤ___1
  6
CONTINUOUS
 62
    7
 10
2419.9317350000001
 20
537.63162
 11
2420.355485
 21
537.63162
  0
LINE
  8
_0-1_レイヤ___1
  6
CONTINUOUS
 62
    7
 10
2420.355485
 20
537.63162
 11
2420.355485
 21
538.05537000000004
  0
LINE
  8
_0-1_レイヤ___1
  6
CONTINUOUS
 62
    7
 10
2420.355485
 20
538.05537000000004
 11
2420.7792250000002
 21
538.05537000000004
  0
LINE
  8
_0-1_レイヤ___1
  6
CONTINUOUS
 62
    7
 10
2420.7792250000002
 20
538.05537000000004
 11
2420.7792250000002
 21
538.47911999999997
  0
LINE
  8
_0-1_レイヤ___1
  6
CONTINUOUS
 62
    7
 10
2420.7792250000002
 20
538.47911999999997
 11
2421.2029750000002
 21
538.47911999999997
  0
LINE
  8
_0-1_レイヤ___1
  6
CONTINUOUS
 62
    7
 10
2421.2029750000002
 20
538.47911999999997
 11
2421.2029750000002
 21
538.90286000000003
  0
LINE
  8
_0-1_レイヤ___1
  6
CONTINUOUS
 62
    7
 10
2421.2029750000002
 20
538.90286000000003
 11
2421.6267250000001
 21
538.90286000000003
  0
LINE
  8
_0-1_レイヤ___1
  6
CONTINUOUS
 62
    7
 10
2421.6267250000001
 20
538.90286000000003
 11
2421.6267250000001
 21
539.32661000000007
  0
LINE
  8
_0-1_レイヤ___1
  6
CONTINUOUS
 62
    7
 10
2421.6267250000001
 20
539.32661000000007
 11
2422.0504650000003
 21
539.32661000000007
  0
LINE
  8
_0-1_レイヤ___1
  6
CONTINUOUS
 62
    7
 10
2422.0504650000003
 20
539.32661000000007
 11
2422.0504650000003
 21
539.75036
  0
LINE
  8
_0-1_レイヤ___1
  6
CONTINUOUS
 62
    7
 10
2402.9990850000004
 20
517.73620000000005
 11
2403.4228350000003
 21
517.73620000000005
  0
LINE
  8
_0-1_レイヤ___1
  6
CONTINUOUS
 62
    7
 10
2403.4228350000003
 20
517.73620000000005
 11
2403.8465850000002
 21
517.73620000000005
  0
LINE
  8
_0-1_レイヤ___1
  6
CONTINUOUS
 62
    7
 10
2403.8465850000002
 20
517.73620000000005
 11
2403.8465850000002
 21
518.15994000000001
  0
LINE
  8
_0-1_レイヤ___1
  6
CONTINUOUS
 62
    7
 10
2403.8465850000002
 20
518.15994000000001
 11
2404.2703250000004
 21
518.15994000000001
  0
LINE
  8
_0-1_レイヤ___1
  6
CONTINUOUS
 62
    7
 10
2404.2703250000004
 20
518.15994000000001
 11
2404.2703250000004
 21
518.58369000000005
  0
LINE
  8
_0-1_レイヤ___1
  6
CONTINUOUS
 62
    7
 10
2404.2703250000004
 20
518.58369000000005
 11
2404.6906349999999
 21
518.58369000000005
  0
LINE
  8
_0-1_レイヤ___1
  6
CONTINUOUS
 62
    7
 10
2404.6906349999999
 20
518.58369000000005
 11
2404.6906349999999
 21
519.00744000000009
  0
LINE
  8
_0-1_レイヤ___1
  6
CONTINUOUS
 62
    7
 10
2387.7579850000002
 20
525.78048999999999
 11
2387.334245
 21
525.78048999999999
  0
LINE
  8
_0-1_レイヤ___1
  6
CONTINUOUS
 62
    7
 10
2387.334245
 20
525.78048999999999
 11
2387.334245
 21
526.20424000000003
  0
LINE
  8
_0-1_レイヤ___1
  6
CONTINUOUS
 62
    7
 10
2387.334245
 20
526.20424000000003
 11
2387.334245
 21
526.62454000000002
  0
LINE
  8
_0-1_レイヤ___1
  6
CONTINUOUS
 62
    7
 10
2387.334245
 20
526.62454000000002
 11
2386.913935
 21
526.62454000000002
  0
LINE
  8
_0-1_レイヤ___1
  6
CONTINUOUS
 62
    7
 10
2386.913935
 20
526.62454000000002
 11
2386.913935
 21
527.04829000000007
  0
LINE
  8
_0-1_レイヤ___1
  6
CONTINUOUS
 62
    7
 10
2386.913935
 20
527.04829000000007
 11
2386.4901950000003
 21
527.04829000000007
  0
LINE
  8
_0-1_レイヤ___1
  6
CONTINUOUS
 62
    7
 10
2386.4901950000003
 20
527.04829000000007
 11
2386.4901950000003
 21
527.47203999999999
  0
LINE
  8
_0-1_レイヤ___1
  6
CONTINUOUS
 62
    7
 10
2386.4901950000003
 20
527.47203999999999
 11
2386.0664450000004
 21
527.47203999999999
  0
LINE
  8
_0-1_レイヤ___1
  6
CONTINUOUS
 62
    7
 10
2386.0664450000004
 20
527.47203999999999
 11
2386.0664450000004
 21
527.89577999999995
  0
LINE
  8
_0-1_レイヤ___1
  6
CONTINUOUS
 62
    7
 10
2386.0664450000004
 20
527.89577999999995
 11
2385.6426950000005
 21
527.89577999999995
  0
LINE
  8
_0-1_レイヤ___1
  6
CONTINUOUS
 62
    7
 10
2385.6426950000005
 20
527.89577999999995
 11
2385.6426950000005
 21
528.31952999999999
  0
LINE
  8
_0-1_レイヤ___1
  6
CONTINUOUS
 62
    7
 10
2385.6426950000005
 20
528.31952999999999
 11
2385.2189550000003
 21
528.31952999999999
  0
LINE
  8
_0-1_レイヤ___1
  6
CONTINUOUS
 62
    7
 10
2388.605485
 20
519.00744000000009
 11
2388.605485
 21
518.58369000000005
  0
LINE
  8
_0-1_レイヤ___1
  6
CONTINUOUS
 62
    7
 10
2388.605485
 20
518.58369000000005
 11
2388.605485
 21
518.15994000000001
  0
LINE
  8
_0-1_レイヤ___1
  6
CONTINUOUS
 62
    7
 10
2388.605485
 20
518.15994000000001
 11
2389.0292250000002
 21
518.15994000000001
  0
LINE
  8
_0-1_レイヤ___1
  6
CONTINUOUS
 62
    7
 10
2389.0292250000002
 20
518.15994000000001
 11
2389.0292250000002
 21
517.73620000000005
  0
LINE
  8
_0-1_レイヤ___1
  6
CONTINUOUS
 62
    7
 10
2389.0292250000002
 20
517.73620000000005
 11
2389.4529750000002
 21
517.73620000000005
  0
LINE
  8
_0-1_レイヤ___1
  6
CONTINUOUS
 62
    7
 10
2389.4529750000002
 20
517.73620000000005
 11
2389.8767250000001
 21
517.73620000000005
  0
LINE
  8
_0-1_レイヤ___1
  6
CONTINUOUS
 62
    7
 10
2403.8465850000002
 20
517.73620000000005
 11
2404.2703250000004
 21
517.73620000000005
  0
LINE
  8
_0-1_レイヤ___1
  6
CONTINUOUS
 62
    7
 10
2404.2703250000004
 20
517.73620000000005
 11
2404.6906349999999
 21
517.73620000000005
  0
LINE
  8
_0-1_レイヤ___1
  6
CONTINUOUS
 62
    7
 10
2404.6906349999999
 20
517.73620000000005
 11
2404.6906349999999
 21
518.15994000000001
  0
LINE
  8
_0-1_レイヤ___1
  6
CONTINUOUS
 62
    7
 10
2404.6906349999999
 20
518.15994000000001
 11
2405.1143750000001
 21
518.15994000000001
  0
LINE
  8
_0-1_レイヤ___1
  6
CONTINUOUS
 62
    7
 10
2405.1143750000001
 20
518.15994000000001
 11
2405.1143750000001
 21
518.58369000000005
  0
LINE
  8
_0-1_レイヤ___1
  6
CONTINUOUS
 62
    7
 10
2405.1143750000001
 20
518.58369000000005
 11
2405.1143750000001
 21
519.00744000000009
  0
LINE
  8
_0-1_レイヤ___1
  6
CONTINUOUS
 62
    7
 10
2405.1143750000001
 20
519.00744000000009
 11
2405.538125
 21
519.00744000000009
  0
LINE
  8
_0-1_レイヤ___1
  6
CONTINUOUS
 62
    7
 10
2218.8484050000002
 20
526.62454000000002
 11
2218.4246549999998
 21
526.62454000000002
  0
LINE
  8
_0-1_レイヤ___1
  6
CONTINUOUS
 62
    7
 10
2218.4246549999998
 20
526.62454000000002
 11
2218.0009049999999
 21
526.62454000000002
  0
LINE
  8
_0-1_レイヤ___1
  6
CONTINUOUS
 62
    7
 10
2218.0009049999999
 20
526.62454000000002
 11
2218.0009049999999
 21
527.04829000000007
  0
LINE
  8
_0-1_レイヤ___1
  6
CONTINUOUS
 62
    7
 10
2218.0009049999999
 20
527.04829000000007
 11
2217.5806050000001
 21
527.04829000000007
  0
LINE
  8
_0-1_レイヤ___1
  6
CONTINUOUS
 62
    7
 10
2217.5806050000001
 20
527.04829000000007
 11
2217.1568550000002
 21
527.04829000000007
  0
LINE
  8
_0-1_レイヤ___1
  6
CONTINUOUS
 62
    7
 10
2217.1568550000002
 20
527.04829000000007
 11
2216.733115
 21
527.04829000000007
  0
LINE
  8
_0-1_レイヤ___1
  6
CONTINUOUS
 62
    7
 10
2216.733115
 20
527.04829000000007
 11
2216.3093650000001
 21
527.04829000000007
  0
LINE
  8
_0-1_レイヤ___1
  6
CONTINUOUS
 62
    7
 10
2216.3093650000001
 20
527.04829000000007
 11
2215.8856150000001
 21
527.04829000000007
  0
LINE
  8
_0-1_レイヤ___1
  6
CONTINUOUS
 62
    7
 10
2215.8856150000001
 20
527.04829000000007
 11
2215.8856150000001
 21
527.47203999999999
  0
LINE
  8
_0-1_レイヤ___1
  6
CONTINUOUS
 62
    7
 10
2215.8856150000001
 20
527.47203999999999
 11
2215.461875
 21
527.47203999999999
  0
LINE
  8
_0-1_レイヤ___1
  6
CONTINUOUS
 62
    7
 10
2215.461875
 20
527.47203999999999
 11
2215.038125
 21
527.47203999999999
  0
LINE
  8
_0-1_レイヤ___1
  6
CONTINUOUS
 62
    7
 10
2215.038125
 20
527.47203999999999
 11
2214.6143750000001
 21
527.47203999999999
  0
LINE
  8
_0-1_レイヤ___1
  6
CONTINUOUS
 62
    7
 10
2214.6143750000001
 20
527.47203999999999
 11
2214.1906350000004
 21
527.47203999999999
  0
LINE
  8
_0-1_レイヤ___1
  6
CONTINUOUS
 62
    7
 10
2214.1906350000004
 20
527.47203999999999
 11
2213.770325
 21
527.47203999999999
  0
LINE
  8
_0-1_レイヤ___1
  6
CONTINUOUS
 62
    7
 10
2213.770325
 20
527.47203999999999
 11
2213.3465850000002
 21
527.47203999999999
  0
LINE
  8
_0-1_レイヤ___1
  6
CONTINUOUS
 62
    7
 10
2213.3465850000002
 20
527.47203999999999
 11
2212.9228350000003
 21
527.47203999999999
  0
LINE
  8
_0-1_レイヤ___1
  6
CONTINUOUS
 62
    7
 10
2212.9228350000003
 20
527.47203999999999
 11
2212.9228350000003
 21
527.89577999999995
  0
LINE
  8
_0-1_レイヤ___1
  6
CONTINUOUS
 62
    7
 10
2212.9228350000003
 20
527.89577999999995
 11
2212.4990849999999
 21
527.89577999999995
  0
LINE
  8
_0-1_レイヤ___1
  6
CONTINUOUS
 62
    7
 10
2212.4990849999999
 20
527.89577999999995
 11
2212.0753450000002
 21
527.89577999999995
  0
LINE
  8
_0-1_レイヤ___1
  6
CONTINUOUS
 62
    7
 10
2212.0753450000002
 20
527.89577999999995
 11
2211.6515950000003
 21
527.89577999999995
  0
LINE
  8
_0-1_レイヤ___1
  6
CONTINUOUS
 62
    7
 10
2211.6515950000003
 20
527.89577999999995
 11
2211.2278450000003
 21
527.89577999999995
  0
LINE
  8
_0-1_レイヤ___1
  6
CONTINUOUS
 62
    7
 10
2230.7029750000002
 20
520.27522999999997
 11
2230.2792250000002
 21
520.27522999999997
  0
LINE
  8
_0-1_レイヤ___1
  6
CONTINUOUS
 62
    7
 10
2230.2792250000002
 20
520.27522999999997
 11
2230.2792250000002
 21
520.69898000000001
  0
LINE
  8
_0-1_レイヤ___1
  6
CONTINUOUS
 62
    7
 10
2230.2792250000002
 20
520.69898000000001
 11
2229.855485
 21
520.69898000000001
  0
LINE
  8
_0-1_レイヤ___1
  6
CONTINUOUS
 62
    7
 10
2229.855485
 20
520.69898000000001
 11
2229.855485
 21
521.12273000000005
  0
LINE
  8
_0-1_レイヤ___1
  6
CONTINUOUS
 62
    7
 10
2229.855485
 20
521.12273000000005
 11
2229.4317350000001
 21
521.12273000000005
  0
LINE
  8
_0-1_レイヤ___1
  6
CONTINUOUS
 62
    7
 10
2229.4317350000001
 20
521.12273000000005
 11
2229.0079850000002
 21
521.54647
  0
LINE
  8
_0-1_レイヤ___1
  6
CONTINUOUS
 62
    7
 10
2229.0079850000002
 20
521.54647
 11
2228.584245
 21
521.54647
  0
LINE
  8
_0-1_レイヤ___1
  6
CONTINUOUS
 62
    7
 10
2228.584245
 20
521.54647
 11
2228.584245
 21
521.97021999999993
  0
LINE
  8
_0-1_レイヤ___1
  6
CONTINUOUS
 62
    7
 10
2228.584245
 20
521.97021999999993
 11
2228.163935
 21
521.97021999999993
  0
LINE
  8
_0-1_レイヤ___1
  6
CONTINUOUS
 62
    7
 10
2228.163935
 20
521.97021999999993
 11
2228.163935
 21
522.39397000000008
  0
LINE
  8
_0-1_レイヤ___1
  6
CONTINUOUS
 62
    7
 10
2228.163935
 20
522.39397000000008
 11
2227.7401950000003
 21
522.39397000000008
  0
LINE
  8
_0-1_レイヤ___1
  6
CONTINUOUS
 62
    7
 10
2227.7401950000003
 20
522.39397000000008
 11
2227.3164450000004
 21
522.39397000000008
  0
LINE
  8
_0-1_レイヤ___1
  6
CONTINUOUS
 62
    7
 10
2227.3164450000004
 20
522.39397000000008
 11
2227.3164450000004
 21
522.81771000000003
  0
LINE
  8
_0-1_レイヤ___1
  6
CONTINUOUS
 62
    7
 10
2227.3164450000004
 20
522.81771000000003
 11
2226.8926950000005
 21
522.81771000000003
  0
LINE
  8
_0-1_レイヤ___1
  6
CONTINUOUS
 62
    7
 10
2226.8926950000005
 20
522.81771000000003
 11
2226.8926950000005
 21
523.23801000000003
  0
LINE
  8
_0-1_レイヤ___1
  6
CONTINUOUS
 62
    7
 10
2226.8926950000005
 20
523.23801000000003
 11
2226.4689550000003
 21
523.23801000000003
  0
LINE
  8
_0-1_レイヤ___1
  6
CONTINUOUS
 62
    7
 10
2226.4689550000003
 20
523.23801000000003
 11
2226.0452049999999
 21
523.23801000000003
  0
LINE
  8
_0-1_レイヤ___1
  6
CONTINUOUS
 62
    7
 10
2226.0452049999999
 20
523.23801000000003
 11
2226.0452049999999
 21
523.66176000000007
  0
LINE
  8
_0-1_レイヤ___1
  6
CONTINUOUS
 62
    7
 10
2226.0452049999999
 20
523.66176000000007
 11
2225.621455
 21
523.66176000000007
  0
LINE
  8
_0-1_レイヤ___1
  6
CONTINUOUS
 62
    7
 10
2225.621455
 20
523.66176000000007
 11
2225.1977150000002
 21
523.66176000000007
  0
LINE
  8
_0-1_レイヤ___1
  6
CONTINUOUS
 62
    7
 10
2225.1977150000002
 20
523.66176000000007
 11
2225.1977150000002
 21
524.08551
  0
LINE
  8
_0-1_レイヤ___1
  6
CONTINUOUS
 62
    7
 10
2225.1977150000002
 20
524.08551
 11
2224.7739650000003
 21
524.08551
  0
LINE
  8
_0-1_レイヤ___1
  6
CONTINUOUS
 62
    7
 10
2224.7739650000003
 20
524.08551
 11
2224.3536650000001
 21
524.50924999999995
  0
LINE
  8
_0-1_レイヤ___1
  6
CONTINUOUS
 62
    7
 10
2224.3536650000001
 20
524.50924999999995
 11
2223.9299150000002
 21
524.50924999999995
  0
LINE
  8
_0-1_レイヤ___1
  6
CONTINUOUS
 62
    7
 10
2223.9299150000002
 20
524.50924999999995
 11
2223.5061650000002
 21
524.93299999999999
  0
LINE
  8
_0-1_レイヤ___1
  6
CONTINUOUS
 62
    7
 10
2223.5061650000002
 20
524.93299999999999
 11
2223.0824250000001
 21
524.93299999999999
  0
LINE
  8
_0-1_レイヤ___1
  6
CONTINUOUS
 62
    7
 10
2223.0824250000001
 20
524.93299999999999
 11
2222.6586750000001
 21
525.35674999999992
  0
LINE
  8
_0-1_レイヤ___1
  6
CONTINUOUS
 62
    7
 10
2222.6586750000001
 20
525.35674999999992
 11
2222.2349250000002
 21
525.35674999999992
  0
LINE
  8
_0-1_レイヤ___1
  6
CONTINUOUS
 62
    7
 10
2222.2349250000002
 20
525.35674999999992
 11
2221.8111850000005
 21
525.35674999999992
  0
LINE
  8
_0-1_レイヤ___1
  6
CONTINUOUS
 62
    7
 10
2221.8111850000005
 20
525.35674999999992
 11
2221.8111850000005
 21
525.78048999999999
  0
LINE
  8
_0-1_レイヤ___1
  6
CONTINUOUS
 62
    7
 10
2221.8111850000005
 20
525.78048999999999
 11
2221.3874350000001
 21
525.78048999999999
  0
LINE
  8
_0-1_レイヤ___1
  6
CONTINUOUS
 62
    7
 10
2221.3874350000001
 20
525.78048999999999
 11
2220.9671350000003
 21
525.78048999999999
  0
LINE
  8
_0-1_レイヤ___1
  6
CONTINUOUS
 62
    7
 10
2220.9671350000003
 20
525.78048999999999
 11
2220.5433850000004
 21
525.78048999999999
  0
LINE
  8
_0-1_レイヤ___1
  6
CONTINUOUS
 62
    7
 10
2220.5433850000004
 20
525.78048999999999
 11
2220.5433850000004
 21
526.20424000000003
  0
LINE
  8
_0-1_レイヤ___1
  6
CONTINUOUS
 62
    7
 10
2220.5433850000004
 20
526.20424000000003
 11
2220.1196450000002
 21
526.20424000000003
  0
LINE
  8
_0-1_レイヤ___1
  6
CONTINUOUS
 62
    7
 10
2220.1196450000002
 20
526.20424000000003
 11
2219.6958950000003
 21
526.20424000000003
  0
LINE
  8
_0-1_レイヤ___1
  6
CONTINUOUS
 62
    7
 10
2219.6958950000003
 20
526.20424000000003
 11
2219.2721450000004
 21
526.20424000000003
  0
LINE
  8
_0-1_レイヤ___1
  6
CONTINUOUS
 62
    7
 10
2219.2721450000004
 20
526.20424000000003
 11
2219.2721450000004
 21
526.62454000000002
  0
LINE
  8
_0-1_レイヤ___1
  6
CONTINUOUS
 62
    7
 10
2219.2721450000004
 20
526.62454000000002
 11
2218.8484050000002
 21
526.62454000000002
  0
LINE
  8
_0-1_レイヤ___1
  6
CONTINUOUS
 62
    7
 10
2230.7029750000002
 20
520.27522999999997
 11
2231.1267250000001
 21
519.85148000000004
  0
LINE
  8
_0-1_レイヤ___1
  6
CONTINUOUS
 62
    7
 10
2231.1267250000001
 20
519.85148000000004
 11
2231.5504650000003
 21
519.85148000000004
  0
LINE
  8
_0-1_レイヤ___1
  6
CONTINUOUS
 62
    7
 10
2360.2420050000001
 20
519.85148000000004
 11
2360.6657550000004
 21
519.85148000000004
  0
LINE
  8
_0-1_レイヤ___1
  6
CONTINUOUS
 62
    7
 10
2360.6657550000004
 20
519.85148000000004
 11
2361.0895050000004
 21
520.27522999999997
  0
LINE
  8
_0-1_レイヤ___1
  6
CONTINUOUS
 62
    7
 10
2372.9406350000004
 20
526.62454000000002
 11
2372.520325
 21
526.62454000000002
  0
LINE
  8
_0-1_レイヤ___1
  6
CONTINUOUS
 62
    7
 10
2372.520325
 20
526.62454000000002
 11
2372.520325
 21
526.20424000000003
  0
LINE
  8
_0-1_レイヤ___1
  6
CONTINUOUS
 62
    7
 10
2372.520325
 20
526.20424000000003
 11
2372.0965850000002
 21
526.20424000000003
  0
LINE
  8
_0-1_レイヤ___1
  6
CONTINUOUS
 62
    7
 10
2372.0965850000002
 20
526.20424000000003
 11
2371.6728350000003
 21
526.20424000000003
  0
LINE
  8
_0-1_レイヤ___1
  6
CONTINUOUS
 62
    7
 10
2371.6728350000003
 20
526.20424000000003
 11
2371.2490849999999
 21
526.20424000000003
  0
LINE
  8
_0-1_レイヤ___1
  6
CONTINUOUS
 62
    7
 10
2371.2490849999999
 20
526.20424000000003
 11
2371.2490849999999
 21
525.78048999999999
  0
LINE
  8
_0-1_レイヤ___1
  6
CONTINUOUS
 62
    7
 10
2371.2490849999999
 20
525.78048999999999
 11
2370.8253450000002
 21
525.78048999999999
  0
LINE
  8
_0-1_レイヤ___1
  6
CONTINUOUS
 62
    7
 10
2370.8253450000002
 20
525.78048999999999
 11
2370.4015950000003
 21
525.78048999999999
  0
LINE
  8
_0-1_レイヤ___1
  6
CONTINUOUS
 62
    7
 10
2370.4015950000003
 20
525.78048999999999
 11
2369.9778450000003
 21
525.78048999999999
  0
LINE
  8
_0-1_レイヤ___1
  6
CONTINUOUS
 62
    7
 10
2369.9778450000003
 20
525.78048999999999
 11
2369.9778450000003
 21
525.35674999999992
  0
LINE
  8
_0-1_レイヤ___1
  6
CONTINUOUS
 62
    7
 10
2369.9778450000003
 20
525.35674999999992
 11
2369.5541050000002
 21
525.35674999999992
  0
LINE
  8
_0-1_レイヤ___1
  6
CONTINUOUS
 62
    7
 10
2369.5541050000002
 20
525.35674999999992
 11
2369.1338050000004
 21
525.35674999999992
  0
LINE
  8
_0-1_レイヤ___1
  6
CONTINUOUS
 62
    7
 10
2369.1338050000004
 20
525.35674999999992
 11
2369.1338050000004
 21
524.93299999999999
  0
LINE
  8
_0-1_レイヤ___1
  6
CONTINUOUS
 62
    7
 10
2369.1338050000004
 20
524.93299999999999
 11
2368.7100550000005
 21
524.93299999999999
  0
LINE
  8
_0-1_レイヤ___1
  6
CONTINUOUS
 62
    7
 10
2368.7100550000005
 20
524.93299999999999
 11
2368.2863050000001
 21
524.93299999999999
  0
LINE
  8
_0-1_レイヤ___1
  6
CONTINUOUS
 62
    7
 10
2368.2863050000001
 20
524.93299999999999
 11
2368.2863050000001
 21
524.50924999999995
  0
LINE
  8
_0-1_レイヤ___1
  6
CONTINUOUS
 62
    7
 10
2368.2863050000001
 20
524.50924999999995
 11
2367.8625649999999
 21
524.50924999999995
  0
LINE
  8
_0-1_レイヤ___1
  6
CONTINUOUS
 62
    7
 10
2367.8625649999999
 20
524.50924999999995
 11
2367.438815
 21
524.50924999999995
  0
LINE
  8
_0-1_レイヤ___1
  6
CONTINUOUS
 62
    7
 10
2367.438815
 20
524.50924999999995
 11
2367.438815
 21
524.08551
  0
LINE
  8
_0-1_レイヤ___1
  6
CONTINUOUS
 62
    7
 10
2367.438815
 20
524.08551
 11
2367.015065
 21
524.08551
  0
LINE
  8
_0-1_レイヤ___1
  6
CONTINUOUS
 62
    7
 10
2367.015065
 20
524.08551
 11
2366.5913250000003
 21
524.08551
  0
LINE
  8
_0-1_レイヤ___1
  6
CONTINUOUS
 62
    7
 10
2366.5913250000003
 20
524.08551
 11
2366.1675749999999
 21
523.66176000000007
  0
LINE
  8
_0-1_レイヤ___1
  6
CONTINUOUS
 62
    7
 10
2366.1675749999999
 20
523.66176000000007
 11
2365.7472750000002
 21
523.66176000000007
  0
LINE
  8
_0-1_レイヤ___1
  6
CONTINUOUS
 62
    7
 10
2365.7472750000002
 20
523.66176000000007
 11
2365.7472750000002
 21
523.23801000000003
  0
LINE
  8
_0-1_レイヤ___1
  6
CONTINUOUS
 62
    7
 10
2365.7472750000002
 20
523.23801000000003
 11
2365.3235249999998
 21
523.23801000000003
  0
LINE
  8
_0-1_レイヤ___1
  6
CONTINUOUS
 62
    7
 10
2365.3235249999998
 20
523.23801000000003
 11
2364.8997749999999
 21
523.23801000000003
  0
LINE
  8
_0-1_レイヤ___1
  6
CONTINUOUS
 62
    7
 10
2364.8997749999999
 20
523.23801000000003
 11
2364.8997749999999
 21
522.81771000000003
  0
LINE
  8
_0-1_レイヤ___1
  6
CONTINUOUS
 62
    7
 10
2364.8997749999999
 20
522.81771000000003
 11
2364.4760350000001
 21
522.81771000000003
  0
LINE
  8
_0-1_レイヤ___1
  6
CONTINUOUS
 62
    7
 10
2364.4760350000001
 20
522.81771000000003
 11
2364.4760350000001
 21
522.39397000000008
  0
LINE
  8
_0-1_レイヤ___1
  6
CONTINUOUS
 62
    7
 10
2364.4760350000001
 20
522.39397000000008
 11
2364.0522850000002
 21
522.39397000000008
  0
LINE
  8
_0-1_レイヤ___1
  6
CONTINUOUS
 62
    7
 10
2364.0522850000002
 20
522.39397000000008
 11
2363.6285350000003
 21
522.39397000000008
  0
LINE
  8
_0-1_レイヤ___1
  6
CONTINUOUS
 62
    7
 10
2363.6285350000003
 20
522.39397000000008
 11
2363.6285350000003
 21
521.97021999999993
  0
LINE
  8
_0-1_レイヤ___1
  6
CONTINUOUS
 62
    7
 10
2363.6285350000003
 20
521.97021999999993
 11
2363.2047950000001
 21
521.97021999999993
  0
LINE
  8
_0-1_レイヤ___1
  6
CONTINUOUS
 62
    7
 10
2363.2047950000001
 20
521.97021999999993
 11
2363.2047950000001
 21
521.54647
  0
LINE
  8
_0-1_レイヤ___1
  6
CONTINUOUS
 62
    7
 10
2363.2047950000001
 20
521.54647
 11
2362.7810450000002
 21
521.54647
  0
LINE
  8
_0-1_レイヤ___1
  6
CONTINUOUS
 62
    7
 10
2362.7810450000002
 20
521.54647
 11
2362.3572950000002
 21
521.12273000000005
  0
LINE
  8
_0-1_レイヤ___1
  6
CONTINUOUS
 62
    7
 10
2362.3572950000002
 20
521.12273000000005
 11
2361.936995
 21
521.12273000000005
  0
LINE
  8
_0-1_レイヤ___1
  6
CONTINUOUS
 62
    7
 10
2361.936995
 20
521.12273000000005
 11
2361.936995
 21
520.69898000000001
  0
LINE
  8
_0-1_レイヤ___1
  6
CONTINUOUS
 62
    7
 10
2361.936995
 20
520.69898000000001
 11
2361.5132450000001
 21
520.69898000000001
  0
LINE
  8
_0-1_レイヤ___1
  6
CONTINUOUS
 62
    7
 10
2361.5132450000001
 20
520.69898000000001
 11
2361.5132450000001
 21
520.27522999999997
  0
LINE
  8
_0-1_レイヤ___1
  6
CONTINUOUS
 62
    7
 10
2361.5132450000001
 20
520.27522999999997
 11
2361.0895050000004
 21
520.27522999999997
  0
LINE
  8
_0-1_レイヤ___1
  6
CONTINUOUS
 62
    7
 10
2380.5611850000005
 20
527.89577999999995
 11
2380.1374350000001
 21
527.89577999999995
  0
LINE
  8
_0-1_レイヤ___1
  6
CONTINUOUS
 62
    7
 10
2380.1374350000001
 20
527.89577999999995
 11
2379.7171350000003
 21
527.89577999999995
  0
LINE
  8
_0-1_レイヤ___1
  6
CONTINUOUS
 62
    7
 10
2379.7171350000003
 20
527.89577999999995
 11
2379.2933850000004
 21
527.89577999999995
  0
LINE
  8
_0-1_レイヤ___1
  6
CONTINUOUS
 62
    7
 10
2379.2933850000004
 20
527.89577999999995
 11
2378.8696450000002
 21
527.89577999999995
  0
LINE
  8
_0-1_レイヤ___1
  6
CONTINUOUS
 62
    7
 10
2378.8696450000002
 20
527.89577999999995
 11
2378.8696450000002
 21
527.47203999999999
  0
LINE
  8
_0-1_レイヤ___1
  6
CONTINUOUS
 62
    7
 10
2378.8696450000002
 20
527.47203999999999
 11
2378.4458950000003
 21
527.47203999999999
  0
LINE
  8
_0-1_レイヤ___1
  6
CONTINUOUS
 62
    7
 10
2378.4458950000003
 20
527.47203999999999
 11
2378.0221450000004
 21
527.47203999999999
  0
LINE
  8
_0-1_レイヤ___1
  6
CONTINUOUS
 62
    7
 10
2378.0221450000004
 20
527.47203999999999
 11
2377.5984050000002
 21
527.47203999999999
  0
LINE
  8
_0-1_レイヤ___1
  6
CONTINUOUS
 62
    7
 10
2377.5984050000002
 20
527.47203999999999
 11
2377.1746549999998
 21
527.47203999999999
  0
LINE
  8
_0-1_レイヤ___1
  6
CONTINUOUS
 62
    7
 10
2377.1746549999998
 20
527.47203999999999
 11
2376.7509049999999
 21
527.47203999999999
  0
LINE
  8
_0-1_レイヤ___1
  6
CONTINUOUS
 62
    7
 10
2376.7509049999999
 20
527.47203999999999
 11
2376.3306050000001
 21
527.47203999999999
  0
LINE
  8
_0-1_レイヤ___1
  6
CONTINUOUS
 62
    7
 10
2376.3306050000001
 20
527.47203999999999
 11
2375.9068550000002
 21
527.47203999999999
  0
LINE
  8
_0-1_レイヤ___1
  6
CONTINUOUS
 62
    7
 10
2375.9068550000002
 20
527.47203999999999
 11
2375.9068550000002
 21
527.04829000000007
  0
LINE
  8
_0-1_レイヤ___1
  6
CONTINUOUS
 62
    7
 10
2375.9068550000002
 20
527.04829000000007
 11
2375.483115
 21
527.04829000000007
  0
LINE
  8
_0-1_レイヤ___1
  6
CONTINUOUS
 62
    7
 10
2375.483115
 20
527.04829000000007
 11
2375.0593650000001
 21
527.04829000000007
  0
LINE
  8
_0-1_レイヤ___1
  6
CONTINUOUS
 62
    7
 10
2375.0593650000001
 20
527.04829000000007
 11
2374.6356150000001
 21
527.04829000000007
  0
LINE
  8
_0-1_レイヤ___1
  6
CONTINUOUS
 62
    7
 10
2374.6356150000001
 20
527.04829000000007
 11
2374.211875
 21
527.04829000000007
  0
LINE
  8
_0-1_レイヤ___1
  6
CONTINUOUS
 62
    7
 10
2374.211875
 20
527.04829000000007
 11
2373.788125
 21
527.04829000000007
  0
LINE
  8
_0-1_レイヤ___1
  6
CONTINUOUS
 62
    7
 10
2373.788125
 20
527.04829000000007
 11
2373.788125
 21
526.62454000000002
  0
LINE
  8
_0-1_レイヤ___1
  6
CONTINUOUS
 62
    7
 10
2373.788125
 20
526.62454000000002
 11
2373.3643750000001
 21
526.62454000000002
  0
LINE
  8
_0-1_レイヤ___1
  6
CONTINUOUS
 62
    7
 10
2373.3643750000001
 20
526.62454000000002
 11
2372.9406350000004
 21
526.62454000000002
  0
LINE
  8
_0-1_レイヤ___1
  6
CONTINUOUS
 62
    7
 10
2449.142695
 20
744.64397000000008
 11
2448.7189550000003
 21
744.64397000000008
  0
LINE
  8
_0-1_レイヤ___1
  6
CONTINUOUS
 62
    7
 10
2448.7189550000003
 20
744.64397000000008
 11
2448.7189550000003
 21
744.22021999999993
  0
LINE
  8
_0-1_レイヤ___1
  6
CONTINUOUS
 62
    7
 10
2448.7189550000003
 20
744.22021999999993
 11
2448.7189550000003
 21
743.79647
  0
LINE
  8
_0-1_レイヤ___1
  6
CONTINUOUS
 62
    7
 10
2448.7189550000003
 20
743.79647
 11
2448.2952050000004
 21
743.79647
  0
LINE
  8
_0-1_レイヤ___1
  6
CONTINUOUS
 62
    7
 10
2448.2952050000004
 20
743.79647
 11
2448.2952050000004
 21
743.37272999999993
  0
LINE
  8
_0-1_レイヤ___1
  6
CONTINUOUS
 62
    7
 10
2448.2952050000004
 20
743.37272999999993
 11
2447.871455
 21
743.37272999999993
  0
LINE
  8
_0-1_レイヤ___1
  6
CONTINUOUS
 62
    7
 10
2447.871455
 20
743.37272999999993
 11
2447.871455
 21
742.94898000000001
  0
LINE
  8
_0-1_レイヤ___1
  6
CONTINUOUS
 62
    7
 10
2092.6958950000003
 20
532.55354999999997
 11
2092.6958950000003
 21
532.12981000000002
  0
LINE
  8
_0-1_レイヤ___1
  6
CONTINUOUS
 62
    7
 10
2092.6958950000003
 20
532.12981000000002
 11
2092.2721449999999
 21
532.12981000000002
  0
LINE
  8
_0-1_レイヤ___1
  6
CONTINUOUS
 62
    7
 10
2092.2721449999999
 20
532.12981000000002
 11
2091.8484050000002
 21
532.12981000000002
  0
LINE
  8
_0-1_レイヤ___1
  6
CONTINUOUS
 62
    7
 10
2091.8484050000002
 20
532.12981000000002
 11
2091.4246550000003
 21
532.12981000000002
  0
LINE
  8
_0-1_レイヤ___1
  6
CONTINUOUS
 62
    7
 10
2091.4246550000003
 20
532.12981000000002
 11
2091.4246550000003
 21
531.70605999999998
  0
LINE
  8
_0-1_レイヤ___1
  6
CONTINUOUS
 62
    7
 10
2091.4246550000003
 20
531.70605999999998
 11
2091.0009050000003
 21
531.70605999999998
  0
LINE
  8
_0-1_レイヤ___1
  6
CONTINUOUS
 62
    7
 10
2091.0009050000003
 20
531.70605999999998
 11
2091.0009050000003
 21
531.28231000000005
  0
LINE
  8
_0-1_レイヤ___1
  6
CONTINUOUS
 62
    7
 10
2091.0009050000003
 20
531.28231000000005
 11
2090.5806050000001
 21
531.28231000000005
  0
LINE
  8
_0-1_レイヤ___1
  6
CONTINUOUS
 62
    7
 10
2094.811185
 20
532.55354999999997
 11
2094.3874350000001
 21
532.55354999999997
  0
LINE
  8
_0-1_レイヤ___1
  6
CONTINUOUS
 62
    7
 10
2094.3874350000001
 20
532.55354999999997
 11
2093.9671349999999
 21
532.55354999999997
  0
LINE
  8
_0-1_レイヤ___1
  6
CONTINUOUS
 62
    7
 10
2093.9671349999999
 20
532.55354999999997
 11
2093.5433849999999
 21
532.55354999999997
  0
LINE
  8
_0-1_レイヤ___1
  6
CONTINUOUS
 62
    7
 10
2093.5433849999999
 20
532.55354999999997
 11
2093.1196450000002
 21
532.55354999999997
  0
LINE
  8
_0-1_レイヤ___1
  6
CONTINUOUS
 62
    7
 10
2093.1196450000002
 20
532.55354999999997
 11
2092.6958950000003
 21
532.55354999999997
  0
LINE
  8
_0-1_レイヤ___1
  6
CONTINUOUS
 62
    7
 10
2028.3484050000002
 20
743.79647
 11
2028.3484050000002
 21
744.22021999999993
  0
LINE
  8
_0-1_レイヤ___1
  6
CONTINUOUS
 62
    7
 10
2028.3484050000002
 20
744.22021999999993
 11
2027.9246550000003
 21
744.22021999999993
  0
LINE
  8
_0-1_レイヤ___1
  6
CONTINUOUS
 62
    7
 10
2093.5433849999999
 20
532.55354999999997
 11
2094.811185
 21
532.55354999999997
  0
LINE
  8
_0-1_レイヤ___1
  6
CONTINUOUS
 62
    7
 10
2067.7189550000003
 20
535.51633000000004
 11
2068.1426950000005
 21
535.09258999999997
  0
LINE
  8
_0-1_レイヤ___1
  6
CONTINUOUS
 62
    7
 10
2071.105485
 20
519.00744000000009
 11
2070.2579850000002
 21
532.55354999999997
  0
LINE
  8
_0-1_レイヤ___1
  6
CONTINUOUS
 62
    7
 10
2086.3465850000002
 20
517.73620000000005
 11
2072.8004650000003
 21
517.73620000000005
  0
LINE
  8
_0-1_レイヤ___1
  6
CONTINUOUS
 62
    7
 10
2088.461875
 20
526.62454000000002
 11
2088.038125
 21
519.00744000000009
  0
LINE
  8
_0-1_レイヤ___1
  6
CONTINUOUS
 62
    7
 10
2454.6445150000004
 20
750.14578000000006
 11
2449.142695
 21
744.64397000000008
  0
LINE
  8
_0-1_レイヤ___1
  6
CONTINUOUS
 62
    7
 10
2422.0504650000003
 20
539.75036
 11
2426.2810450000002
 21
545.25216999999998
  0
LINE
  8
_0-1_レイヤ___1
  6
CONTINUOUS
 62
    7
 10
2431.7863050000001
 20
560.91701999999998
 11
2431.7863050000001
 21
561.76451999999995
  0
LINE
  8
_0-1_レイヤ___1
  6
CONTINUOUS
 62
    7
 10
2383.9477150000002
 20
529.16701999999998
 11
2383.1036650000001
 21
529.16701999999998
  0
LINE
  8
_0-1_レイヤ___1
  6
CONTINUOUS
 62
    7
 10
2381.8324250000001
 20
529.59077000000002
 11
2383.1036650000001
 21
529.16701999999998
  0
LINE
  8
_0-1_レイヤ___1
  6
CONTINUOUS
 62
    7
 10
2403.8465850000002
 20
517.73620000000005
 11
2389.8767250000001
 21
517.73620000000005
  0
LINE
  8
_0-1_レイヤ___1
  6
CONTINUOUS
 62
    7
 10
2405.961875
 20
529.59077000000002
 11
2405.538125
 21
519.00744000000009
  0
LINE
  8
_0-1_レイヤ___1
  6
CONTINUOUS
 62
    7
 10
2360.2420050000001
 20
519.85148000000004
 11
2231.5504650000003
 21
519.85148000000004
  0
LINE
  8
_0-1_レイヤ___1
  6
CONTINUOUS
 62
    7
 10
2027.9246550000003
 20
744.22021999999993
 11
2022.4228350000001
 21
750.14578000000006
  0
LINE
  8
_0-1_レイヤ___1
  6
CONTINUOUS
 62
    7
 10
2028.3484050000002
 20
743.37272999999993
 11
2028.3484050000002
 21
743.79647
  0
LINE
  8
_0-1_レイヤ___1
  6
CONTINUOUS
 62
    7
 10
2069.834245
 20
533.40105000000005
 11
2069.834245
 21
533.82134999999994
  0
LINE
  8
_0-1_レイヤ___1
  6
CONTINUOUS
 62
    7
 10
2069.834245
 20
533.82134999999994
 11
2069.413935
 21
533.82134999999994
  0
LINE
  8
_0-1_レイヤ___1
  6
CONTINUOUS
 62
    7
 10
2069.413935
 20
533.82134999999994
 11
2069.413935
 21
534.24509
  0
LINE
  8
_0-1_レイヤ___1
  6
CONTINUOUS
 62
    7
 10
2069.413935
 20
534.24509
 11
2068.9901950000003
 21
534.24509
  0
LINE
  8
_0-1_レイヤ___1
  6
CONTINUOUS
 62
    7
 10
2068.9901950000003
 20
534.24509
 11
2068.9901950000003
 21
534.66884000000005
  0
LINE
  8
_0-1_レイヤ___1
  6
CONTINUOUS
 62
    7
 10
2068.9901950000003
 20
534.66884000000005
 11
2068.5664450000004
 21
534.66884000000005
  0
LINE
  8
_0-1_レイヤ___1
  6
CONTINUOUS
 62
    7
 10
2068.5664450000004
 20
534.66884000000005
 11
2068.5664450000004
 21
535.09258999999997
  0
LINE
  8
_0-1_レイヤ___1
  6
CONTINUOUS
 62
    7
 10
2068.5664450000004
 20
535.09258999999997
 11
2068.1426950000005
 21
535.09258999999997
  0
LINE
  8
_0-1_レイヤ___1
  6
CONTINUOUS
 62
    7
 10
2065.6036650000001
 20
536.36383000000001
 11
2067.7189550000003
 21
535.51633000000004
  0
LINE
  8
_0-1_レイヤ___1
  6
CONTINUOUS
 62
    7
 10
2069.834245
 20
533.40105000000005
 11
2070.2579850000002
 21
532.55354999999997
  0
LINE
  8
_0-1_レイヤ___1
  6
CONTINUOUS
 62
    7
 10
2070.2579850000002
 20
532.55354999999997
 11
2070.2579850000002
 21
532.12981000000002
  0
LINE
  8
_0-1_レイヤ___1
  6
CONTINUOUS
 62
    7
 10
2070.2579850000002
 20
532.12981000000002
 11
2070.6817350000001
 21
532.12981000000002
  0
LINE
  8
_0-1_レイヤ___1
  6
CONTINUOUS
 62
    7
 10
2070.6817350000001
 20
532.12981000000002
 11
2070.6817350000001
 21
531.70605999999998
  0
LINE
  8
_0-1_レイヤ___1
  6
CONTINUOUS
 62
    7
 10
2070.6817350000001
 20
531.70605999999998
 11
2070.6817350000001
 21
531.28231000000005
  0
LINE
  8
_0-1_レイヤ___1
  6
CONTINUOUS
 62
    7
 10
2070.6817350000001
 20
531.28231000000005
 11
2070.6817350000001
 21
530.85856000000001
  0
LINE
  8
_0-1_レイヤ___1
  6
CONTINUOUS
 62
    7
 10
2070.6817350000001
 20
530.85856000000001
 11
2070.6817350000001
 21
530.43481999999995
  0
LINE
  8
_0-1_レイヤ___1
  6
CONTINUOUS
 62
    7
 10
2070.6817350000001
 20
530.43481999999995
 11
2070.6817350000001
 21
530.01451999999995
  0
LINE
  8
_0-1_レイヤ___1
  6
CONTINUOUS
 62
    7
 10
2070.6817350000001
 20
530.01451999999995
 11
2071.105485
 21
529.59077000000002
  0
LINE
  8
_0-1_レイヤ___1
  6
CONTINUOUS
 62
    7
 10
2071.105485
 20
529.59077000000002
 11
2071.105485
 21
529.16701999999998
  0
LINE
  8
_0-1_レイヤ___1
  6
CONTINUOUS
 62
    7
 10
2071.105485
 20
529.16701999999998
 11
2071.105485
 21
528.74328000000003
  0
LINE
  8
_0-1_レイヤ___1
  6
CONTINUOUS
 62
    7
 10
2071.105485
 20
528.74328000000003
 11
2071.105485
 21
528.31952999999999
  0
LINE
  8
_0-1_レイヤ___1
  6
CONTINUOUS
 62
    7
 10
2071.105485
 20
528.31952999999999
 11
2071.5292250000002
 21
521.12273000000005
  0
LINE
  8
_0-1_レイヤ___1
  6
CONTINUOUS
 62
    7
 10
2071.5292250000002
 20
521.12273000000005
 11
2071.5292250000002
 21
519.00744000000009
  0
LINE
  8
_0-1_レイヤ___1
  6
CONTINUOUS
 62
    7
 10
2447.871455
 20
742.94898000000001
 11
2447.871455
 21
742.52522999999997
  0
LINE
  8
_0-1_レイヤ___1
  6
CONTINUOUS
 62
    7
 10
2447.871455
 20
742.52522999999997
 11
2447.871455
 21
742.10148000000004
  0
LINE
  8
_0-1_レイヤ___1
  6
CONTINUOUS
 62
    7
 10
2447.871455
 20
742.10148000000004
 11
2447.4477150000002
 21
742.10148000000004
  0
LINE
  8
_0-1_レイヤ___1
  6
CONTINUOUS
 62
    7
 10
2447.4477150000002
 20
742.10148000000004
 11
2447.4477150000002
 21
741.68118000000004
  0
LINE
  8
_0-1_レイヤ___1
  6
CONTINUOUS
 62
    7
 10
2447.4477150000002
 20
741.68118000000004
 11
2447.4477150000002
 21
741.25743999999997
  0
LINE
  8
_0-1_レイヤ___1
  6
CONTINUOUS
 62
    7
 10
2447.4477150000002
 20
741.25743999999997
 11
2447.4477150000002
 21
740.83369000000005
  0
LINE
  8
_0-1_レイヤ___1
  6
CONTINUOUS
 62
    7
 10
2447.4477150000002
 20
740.83369000000005
 11
2447.4477150000002
 21
740.40994000000001
  0
LINE
  8
_0-1_レイヤ___1
  6
CONTINUOUS
 62
    7
 10
2447.4477150000002
 20
740.40994000000001
 11
2447.4477150000002
 21
739.98620000000005
  0
LINE
  8
_0-1_レイヤ___1
  6
CONTINUOUS
 62
    7
 10
2447.4477150000002
 20
739.98620000000005
 11
2447.4477150000002
 21
739.5624499999999
  0
LINE
  8
_0-1_レイヤ___1
  6
CONTINUOUS
 62
    7
 10
2447.4477150000002
 20
739.5624499999999
 11
2432.210055
 21
564.72730000000001
  0
LINE
  8
_0-1_レイヤ___1
  6
CONTINUOUS
 62
    7
 10
2432.210055
 20
564.72730000000001
 11
2432.210055
 21
564.30354999999997
  0
LINE
  8
_0-1_レイヤ___1
  6
CONTINUOUS
 62
    7
 10
2432.210055
 20
564.30354999999997
 11
2432.210055
 21
563.87981000000002
  0
LINE
  8
_0-1_レイヤ___1
  6
CONTINUOUS
 62
    7
 10
2432.210055
 20
563.87981000000002
 11
2431.7863050000001
 21
563.87981000000002
  0
LINE
  8
_0-1_レイヤ___1
  6
CONTINUOUS
 62
    7
 10
2431.7863050000001
 20
563.87981000000002
 11
2431.7863050000001
 21
563.45605999999998
  0
LINE
  8
_0-1_レイヤ___1
  6
CONTINUOUS
 62
    7
 10
2431.7863050000001
 20
563.45605999999998
 11
2431.7863050000001
 21
563.03231000000005
  0
LINE
  8
_0-1_レイヤ___1
  6
CONTINUOUS
 62
    7
 10
2431.7863050000001
 20
563.03231000000005
 11
2431.7863050000001
 21
562.60856000000001
  0
LINE
  8
_0-1_レイヤ___1
  6
CONTINUOUS
 62
    7
 10
2431.7863050000001
 20
562.60856000000001
 11
2431.7863050000001
 21
562.18482000000006
  0
LINE
  8
_0-1_レイヤ___1
  6
CONTINUOUS
 62
    7
 10
2431.7863050000001
 20
562.18482000000006
 11
2431.7863050000001
 21
561.76451999999995
  0
LINE
  8
_0-1_レイヤ___1
  6
CONTINUOUS
 62
    7
 10
2404.6906349999999
 20
519.00744000000009
 11
2404.6906349999999
 21
521.12273000000005
  0
LINE
  8
_0-1_レイヤ___1
  6
CONTINUOUS
 62
    7
 10
2404.6906349999999
 20
521.12273000000005
 11
2405.1143750000001
 21
524.93299999999999
  0
LINE
  8
_0-1_レイヤ___1
  6
CONTINUOUS
 62
    7
 10
2405.1143750000001
 20
524.93299999999999
 11
2405.1143750000001
 21
525.35674999999992
  0
LINE
  8
_0-1_レイヤ___1
  6
CONTINUOUS
 62
    7
 10
2405.1143750000001
 20
525.35674999999992
 11
2405.1143750000001
 21
525.78048999999999
  0
LINE
  8
_0-1_レイヤ___1
  6
CONTINUOUS
 62
    7
 10
2405.1143750000001
 20
525.78048999999999
 11
2405.1143750000001
 21
526.20424000000003
  0
LINE
  8
_0-1_レイヤ___1
  6
CONTINUOUS
 62
    7
 10
2405.1143750000001
 20
526.20424000000003
 11
2405.1143750000001
 21
526.62454000000002
  0
LINE
  8
_0-1_レイヤ___1
  6
CONTINUOUS
 62
    7
 10
2405.1143750000001
 20
526.62454000000002
 11
2405.1143750000001
 21
527.04829000000007
  0
LINE
  8
_0-1_レイヤ___1
  6
CONTINUOUS
 62
    7
 10
2405.1143750000001
 20
527.04829000000007
 11
2405.1143750000001
 21
527.47203999999999
  0
LINE
  8
_0-1_レイヤ___1
  6
CONTINUOUS
 62
    7
 10
2405.1143750000001
 20
527.47203999999999
 11
2405.538125
 21
527.47203999999999
  0
LINE
  8
_0-1_レイヤ___1
  6
CONTINUOUS
 62
    7
 10
2405.538125
 20
527.47203999999999
 11
2405.538125
 21
527.89577999999995
  0
LINE
  8
_0-1_レイヤ___1
  6
CONTINUOUS
 62
    7
 10
2405.538125
 20
527.89577999999995
 11
2405.538125
 21
528.31952999999999
  0
LINE
  8
_0-1_レイヤ___1
  6
CONTINUOUS
 62
    7
 10
2405.538125
 20
528.31952999999999
 11
2405.538125
 21
528.74328000000003
  0
LINE
  8
_0-1_レイヤ___1
  6
CONTINUOUS
 62
    7
 10
2405.538125
 20
528.74328000000003
 11
2405.538125
 21
529.16701999999998
  0
LINE
  8
_0-1_レイヤ___1
  6
CONTINUOUS
 62
    7
 10
2405.538125
 20
529.16701999999998
 11
2405.961875
 21
529.16701999999998
  0
LINE
  8
_0-1_レイヤ___1
  6
CONTINUOUS
 62
    7
 10
2405.961875
 20
529.16701999999998
 11
2406.3856150000001
 21
530.01451999999995
  0
LINE
  8
_0-1_レイヤ___1
  6
CONTINUOUS
 62
    7
 10
2388.605485
 20
519.00744000000009
 11
2388.1817350000001
 21
521.12273000000005
  0
LINE
  8
_0-1_レイヤ___1
  6
CONTINUOUS
 62
    7
 10
2388.1817350000001
 20
521.12273000000005
 11
2388.1817350000001
 21
521.54647
  0
LINE
  8
_0-1_レイヤ___1
  6
CONTINUOUS
 62
    7
 10
2388.1817350000001
 20
521.54647
 11
2388.1817350000001
 21
521.97021999999993
  0
LINE
  8
_0-1_レイヤ___1
  6
CONTINUOUS
 62
    7
 10
2388.1817350000001
 20
521.97021999999993
 11
2388.1817350000001
 21
522.39397000000008
  0
LINE
  8
_0-1_レイヤ___1
  6
CONTINUOUS
 62
    7
 10
2388.1817350000001
 20
522.39397000000008
 11
2388.1817350000001
 21
522.81771000000003
  0
LINE
  8
_0-1_レイヤ___1
  6
CONTINUOUS
 62
    7
 10
2388.1817350000001
 20
522.81771000000003
 11
2388.1817350000001
 21
523.23801000000003
  0
LINE
  8
_0-1_レイヤ___1
  6
CONTINUOUS
 62
    7
 10
2388.1817350000001
 20
523.23801000000003
 11
2388.1817350000001
 21
523.66176000000007
  0
LINE
  8
_0-1_レイヤ___1
  6
CONTINUOUS
 62
    7
 10
2388.1817350000001
 20
523.66176000000007
 11
2388.1817350000001
 21
524.08551
  0
LINE
  8
_0-1_レイヤ___1
  6
CONTINUOUS
 62
    7
 10
2388.1817350000001
 20
524.08551
 11
2388.1817350000001
 21
524.50924999999995
  0
LINE
  8
_0-1_レイヤ___1
  6
CONTINUOUS
 62
    7
 10
2388.1817350000001
 20
524.50924999999995
 11
2387.7579850000002
 21
524.50924999999995
  0
LINE
  8
_0-1_レイヤ___1
  6
CONTINUOUS
 62
    7
 10
2387.7579850000002
 20
524.50924999999995
 11
2387.7579850000002
 21
524.93299999999999
  0
LINE
  8
_0-1_レイヤ___1
  6
CONTINUOUS
 62
    7
 10
2387.7579850000002
 20
524.93299999999999
 11
2387.7579850000002
 21
525.35674999999992
  0
LINE
  8
_0-1_レイヤ___1
  6
CONTINUOUS
 62
    7
 10
2387.7579850000002
 20
525.35674999999992
 11
2387.7579850000002
 21
525.78048999999999
  0
LINE
  8
_0-1_レイヤ___1
  6
CONTINUOUS
 62
    7
 10
2383.9477150000002
 20
529.16701999999998
 11
2384.7952049999999
 21
528.74328000000003
  0
LINE
  8
_0-1_レイヤ___1
  6
CONTINUOUS
 62
    7
 10
2384.7952049999999
 20
528.74328000000003
 11
2385.2189550000003
 21
528.74328000000003
  0
LINE
  8
_0-1_レイヤ___1
  6
CONTINUOUS
 62
    7
 10
2385.2189550000003
 20
528.74328000000003
 11
2385.2189550000003
 21
528.31952999999999
  0
LINE
  8
_0-1_レイヤ___1
  6
CONTINUOUS
 62
    7
 10
2381.8324250000001
 20
529.59077000000002
 11
2382.2561650000002
 21
529.59077000000002
  0
LINE
  8
_0-1_レイヤ___1
  6
CONTINUOUS
 62
    7
 10
2382.2561650000002
 20
529.59077000000002
 11
2382.2561650000002
 21
530.01451999999995
  0
LINE
  8
_0-1_レイヤ___1
  6
CONTINUOUS
 62
    7
 10
2382.2561650000002
 20
530.01451999999995
 11
2382.6799150000002
 21
530.01451999999995
  0
LINE
  8
_0-1_レイヤ___1
  6
CONTINUOUS
 62
    7
 10
2382.6799150000002
 20
530.01451999999995
 11
2383.1036650000001
 21
530.01451999999995
  0
LINE
  8
_0-1_レイヤ___1
  6
CONTINUOUS
 62
    7
 10
2383.1036650000001
 20
530.01451999999995
 11
2383.5239650000003
 21
530.01451999999995
  0
LINE
  8
_0-1_レイヤ___1
  6
CONTINUOUS
 62
    7
 10
2383.5239650000003
 20
530.01451999999995
 11
2383.5239650000003
 21
530.43481999999995
  0
LINE
  8
_0-1_レイヤ___1
  6
CONTINUOUS
 62
    7
 10
2383.5239650000003
 20
530.43481999999995
 11
2383.9477150000002
 21
530.43481999999995
  0
LINE
  8
_0-1_レイヤ___1
  6
CONTINUOUS
 62
    7
 10
2383.9477150000002
 20
530.43481999999995
 11
2384.371455
 21
530.43481999999995
  0
LINE
  8
_0-1_レイヤ___1
  6
CONTINUOUS
 62
    7
 10
2384.371455
 20
530.43481999999995
 11
2384.7952049999999
 21
530.43481999999995
  0
LINE
  8
_0-1_レイヤ___1
  6
CONTINUOUS
 62
    7
 10
2384.7952049999999
 20
530.43481999999995
 11
2385.2189550000003
 21
530.43481999999995
  0
LINE
  8
_0-1_レイヤ___1
  6
CONTINUOUS
 62
    7
 10
2385.2189550000003
 20
530.43481999999995
 11
2385.2189550000003
 21
530.85856000000001
  0
LINE
  8
_0-1_レイヤ___1
  6
CONTINUOUS
 62
    7
 10
2385.2189550000003
 20
530.85856000000001
 11
2385.6426950000005
 21
530.85856000000001
  0
LINE
  8
_0-1_レイヤ___1
  6
CONTINUOUS
 62
    7
 10
2385.6426950000005
 20
530.85856000000001
 11
2386.0664450000004
 21
530.85856000000001
  0
LINE
  8
_0-1_レイヤ___1
  6
CONTINUOUS
 62
    7
 10
2386.0664450000004
 20
530.85856000000001
 11
2386.4901950000003
 21
530.85856000000001
  0
LINE
  8
_0-1_レイヤ___1
  6
CONTINUOUS
 62
    7
 10
2386.4901950000003
 20
530.85856000000001
 11
2386.913935
 21
531.28231000000005
  0
LINE
  8
_0-1_レイヤ___1
  6
CONTINUOUS
 62
    7
 10
2386.913935
 20
531.28231000000005
 11
2387.334245
 21
531.28231000000005
  0
LINE
  8
_0-1_レイヤ___1
  6
CONTINUOUS
 62
    7
 10
2387.334245
 20
531.28231000000005
 11
2387.7579850000002
 21
531.28231000000005
  0
LINE
  8
_0-1_レイヤ___1
  6
CONTINUOUS
 62
    7
 10
2387.7579850000002
 20
531.28231000000005
 11
2388.1817350000001
 21
531.28231000000005
  0
LINE
  8
_0-1_レイヤ___1
  6
CONTINUOUS
 62
    7
 10
2388.1817350000001
 20
531.28231000000005
 11
2388.605485
 21
531.28231000000005
  0
LINE
  8
_0-1_レイヤ___1
  6
CONTINUOUS
 62
    7
 10
2388.605485
 20
531.28231000000005
 11
2388.605485
 21
531.70605999999998
  0
LINE
  8
_0-1_レイヤ___1
  6
CONTINUOUS
 62
    7
 10
2388.605485
 20
531.70605999999998
 11
2389.0292250000002
 21
531.70605999999998
  0
LINE
  8
_0-1_レイヤ___1
  6
CONTINUOUS
 62
    7
 10
2389.0292250000002
 20
531.70605999999998
 11
2389.4529750000002
 21
531.70605999999998
  0
LINE
  8
_0-1_レイヤ___1
  6
CONTINUOUS
 62
    7
 10
2389.4529750000002
 20
531.70605999999998
 11
2389.8767250000001
 21
531.70605999999998
  0
LINE
  8
_0-1_レイヤ___1
  6
CONTINUOUS
 62
    7
 10
2389.8767250000001
 20
531.70605999999998
 11
2390.3004650000003
 21
531.70605999999998
  0
LINE
  8
_0-1_レイヤ___1
  6
CONTINUOUS
 62
    7
 10
2390.3004650000003
 20
531.70605999999998
 11
2390.720765
 21
531.70605999999998
  0
LINE
  8
_0-1_レイヤ___1
  6
CONTINUOUS
 62
    7
 10
2390.720765
 20
531.70605999999998
 11
2391.144515
 21
531.70605999999998
  0
LINE
  8
_0-1_レイヤ___1
  6
CONTINUOUS
 62
    7
 10
2391.144515
 20
531.70605999999998
 11
2391.144515
 21
532.12981000000002
  0
LINE
  8
_0-1_レイヤ___1
  6
CONTINUOUS
 62
    7
 10
2391.144515
 20
532.12981000000002
 11
2391.5682650000003
 21
532.12981000000002
  0
LINE
  8
_0-1_レイヤ___1
  6
CONTINUOUS
 62
    7
 10
2391.5682650000003
 20
532.12981000000002
 11
2391.9920050000001
 21
532.12981000000002
  0
LINE
  8
_0-1_レイヤ___1
  6
CONTINUOUS
 62
    7
 10
2391.9920050000001
 20
532.12981000000002
 11
2392.415755
 21
532.12981000000002
  0
LINE
  8
_0-1_レイヤ___1
  6
CONTINUOUS
 62
    7
 10
2392.415755
 20
532.12981000000002
 11
2392.8395049999999
 21
532.12981000000002
  0
LINE
  8
_0-1_レイヤ___1
  6
CONTINUOUS
 62
    7
 10
2392.8395049999999
 20
532.12981000000002
 11
2393.2632450000001
 21
532.12981000000002
  0
LINE
  8
_0-1_レイヤ___1
  6
CONTINUOUS
 62
    7
 10
2393.2632450000001
 20
532.12981000000002
 11
2393.686995
 21
532.12981000000002
  0
LINE
  8
_0-1_レイヤ___1
  6
CONTINUOUS
 62
    7
 10
2393.686995
 20
532.12981000000002
 11
2394.1072949999998
 21
532.12981000000002
  0
LINE
  8
_0-1_レイヤ___1
  6
CONTINUOUS
 62
    7
 10
2394.1072949999998
 20
532.12981000000002
 11
2394.5310450000002
 21
532.12981000000002
  0
LINE
  8
_0-1_レイヤ___1
  6
CONTINUOUS
 62
    7
 10
2394.5310450000002
 20
532.12981000000002
 11
2394.9547950000001
 21
532.12981000000002
  0
LINE
  8
_0-1_レイヤ___1
  6
CONTINUOUS
 62
    7
 10
2394.9547950000001
 20
532.12981000000002
 11
2395.3785350000003
 21
532.12981000000002
  0
LINE
  8
_0-1_レイヤ___1
  6
CONTINUOUS
 62
    7
 10
2395.3785350000003
 20
532.12981000000002
 11
2395.8022850000002
 21
532.12981000000002
  0
LINE
  8
_0-1_レイヤ___1
  6
CONTINUOUS
 62
    7
 10
2395.8022850000002
 20
532.12981000000002
 11
2395.8022850000002
 21
532.55354999999997
  0
LINE
  8
_0-1_レイヤ___1
  6
CONTINUOUS
 62
    7
 10
2395.8022850000002
 20
532.55354999999997
 11
2396.2260350000001
 21
532.55354999999997
  0
LINE
  8
_0-1_レイヤ___1
  6
CONTINUOUS
 62
    7
 10
2396.2260350000001
 20
532.55354999999997
 11
2396.6497750000003
 21
532.55354999999997
  0
LINE
  8
_0-1_レイヤ___1
  6
CONTINUOUS
 62
    7
 10
2396.6497750000003
 20
532.55354999999997
 11
2397.0735250000002
 21
532.55354999999997
  0
LINE
  8
_0-1_レイヤ___1
  6
CONTINUOUS
 62
    7
 10
2397.0735250000002
 20
532.55354999999997
 11
2397.4972750000002
 21
532.55354999999997
  0
LINE
  8
_0-1_レイヤ___1
  6
CONTINUOUS
 62
    7
 10
2397.4972750000002
 20
532.55354999999997
 11
2397.9175750000004
 21
532.55354999999997
  0
LINE
  8
_0-1_レイヤ___1
  6
CONTINUOUS
 62
    7
 10
2397.9175750000004
 20
532.55354999999997
 11
2398.3413250000003
 21
532.55354999999997
  0
LINE
  8
_0-1_レイヤ___1
  6
CONTINUOUS
 62
    7
 10
2398.3413250000003
 20
532.55354999999997
 11
2398.765065
 21
532.55354999999997
  0
LINE
  8
_0-1_レイヤ___1
  6
CONTINUOUS
 62
    7
 10
2398.765065
 20
532.55354999999997
 11
2399.1888150000004
 21
532.55354999999997
  0
LINE
  8
_0-1_レイヤ___1
  6
CONTINUOUS
 62
    7
 10
2399.1888150000004
 20
532.55354999999997
 11
2399.6125650000004
 21
532.55354999999997
  0
LINE
  8
_0-1_レイヤ___1
  6
CONTINUOUS
 62
    7
 10
2399.6125650000004
 20
532.55354999999997
 11
2400.0363050000001
 21
532.55354999999997
  0
LINE
  8
_0-1_レイヤ___1
  6
CONTINUOUS
 62
    7
 10
2400.0363050000001
 20
532.55354999999997
 11
2400.460055
 21
532.55354999999997
  0
LINE
  8
_0-1_レイヤ___1
  6
CONTINUOUS
 62
    7
 10
2400.460055
 20
532.55354999999997
 11
2400.8838050000004
 21
532.55354999999997
  0
LINE
  8
_0-1_レイヤ___1
  6
CONTINUOUS
 62
    7
 10
2400.8838050000004
 20
532.55354999999997
 11
2401.3041050000002
 21
532.55354999999997
  0
LINE
  8
_0-1_レイヤ___1
  6
CONTINUOUS
 62
    7
 10
2401.3041050000002
 20
532.55354999999997
 11
2401.7278449999999
 21
532.55354999999997
  0
LINE
  8
_0-1_レイヤ___1
  6
CONTINUOUS
 62
    7
 10
2401.7278449999999
 20
532.55354999999997
 11
2402.1515950000003
 21
532.55354999999997
  0
LINE
  8
_0-1_レイヤ___1
  6
CONTINUOUS
 62
    7
 10
2402.1515950000003
 20
532.55354999999997
 11
2402.5753450000002
 21
532.55354999999997
  0
LINE
  8
_0-1_レイヤ___1
  6
CONTINUOUS
 62
    7
 10
2402.5753450000002
 20
532.55354999999997
 11
2402.9990850000004
 21
532.55354999999997
  0
LINE
  8
_0-1_レイヤ___1
  6
CONTINUOUS
 62
    7
 10
2402.9990850000004
 20
532.55354999999997
 11
2403.4228350000003
 21
532.55354999999997
  0
LINE
  8
_0-1_レイヤ___1
  6
CONTINUOUS
 62
    7
 10
2403.4228350000003
 20
532.55354999999997
 11
2403.8465850000002
 21
532.55354999999997
  0
LINE
  8
_0-1_レイヤ___1
  6
CONTINUOUS
 62
    7
 10
2403.8465850000002
 20
532.55354999999997
 11
2404.2703250000004
 21
532.55354999999997
  0
LINE
  8
_0-1_レイヤ___1
  6
CONTINUOUS
 62
    7
 10
2404.2703250000004
 20
532.55354999999997
 11
2404.6906349999999
 21
532.55354999999997
  0
LINE
  8
_0-1_レイヤ___1
  6
CONTINUOUS
 62
    7
 10
2404.6906349999999
 20
532.55354999999997
 11
2405.1143750000001
 21
532.55354999999997
  0
LINE
  8
_0-1_レイヤ___1
  6
CONTINUOUS
 62
    7
 10
2405.1143750000001
 20
532.55354999999997
 11
2405.538125
 21
532.55354999999997
  0
LINE
  8
_0-1_レイヤ___1
  6
CONTINUOUS
 62
    7
 10
2405.538125
 20
532.55354999999997
 11
2405.961875
 21
532.55354999999997
  0
LINE
  8
_0-1_レイヤ___1
  6
CONTINUOUS
 62
    7
 10
2405.961875
 20
532.55354999999997
 11
2406.3856150000001
 21
532.55354999999997
  0
LINE
  8
_0-1_レイヤ___1
  6
CONTINUOUS
 62
    7
 10
2406.3856150000001
 20
532.55354999999997
 11
2406.8093650000001
 21
532.55354999999997
  0
LINE
  8
_0-1_レイヤ___1
  6
CONTINUOUS
 62
    7
 10
2406.8093650000001
 20
532.55354999999997
 11
2407.233115
 21
532.55354999999997
  0
LINE
  8
_0-1_レイヤ___1
  6
CONTINUOUS
 62
    7
 10
2407.233115
 20
532.55354999999997
 11
2407.6568550000002
 21
532.55354999999997
  0
LINE
  8
_0-1_レイヤ___1
  6
CONTINUOUS
 62
    7
 10
2407.6568550000002
 20
532.55354999999997
 11
2408.0806050000001
 21
532.55354999999997
  0
LINE
  8
_0-1_レイヤ___1
  6
CONTINUOUS
 62
    7
 10
2408.0806050000001
 20
532.55354999999997
 11
2408.5009050000003
 21
532.55354999999997
  0
LINE
  8
_0-1_レイヤ___1
  6
CONTINUOUS
 62
    7
 10
2408.5009050000003
 20
532.55354999999997
 11
2408.9246550000003
 21
532.55354999999997
  0
LINE
  8
_0-1_レイヤ___1
  6
CONTINUOUS
 62
    7
 10
2408.9246550000003
 20
532.55354999999997
 11
2409.3484050000002
 21
532.55354999999997
  0
LINE
  8
_0-1_レイヤ___1
  6
CONTINUOUS
 62
    7
 10
2406.3856150000001
 20
530.01451999999995
 11
2407.233115
 21
531.28231000000005
  0
LINE
  8
_0-1_レイヤ___1
  6
CONTINUOUS
 62
    7
 10
2407.233115
 20
531.28231000000005
 11
2407.6568550000002
 21
531.28231000000005
  0
LINE
  8
_0-1_レイヤ___1
  6
CONTINUOUS
 62
    7
 10
2407.6568550000002
 20
531.28231000000005
 11
2407.6568550000002
 21
531.70605999999998
  0
LINE
  8
_0-1_レイヤ___1
  6
CONTINUOUS
 62
    7
 10
2407.6568550000002
 20
531.70605999999998
 11
2408.0806050000001
 21
531.70605999999998
  0
LINE
  8
_0-1_レイヤ___1
  6
CONTINUOUS
 62
    7
 10
2408.0806050000001
 20
531.70605999999998
 11
2408.5009050000003
 21
531.70605999999998
  0
LINE
  8
_0-1_レイヤ___1
  6
CONTINUOUS
 62
    7
 10
2408.5009050000003
 20
531.70605999999998
 11
2408.5009050000003
 21
532.12981000000002
  0
LINE
  8
_0-1_レイヤ___1
  6
CONTINUOUS
 62
    7
 10
2408.5009050000003
 20
532.12981000000002
 11
2408.9246550000003
 21
532.12981000000002
  0
LINE
  8
_0-1_レイヤ___1
  6
CONTINUOUS
 62
    7
 10
2408.9246550000003
 20
532.12981000000002
 11
2409.3484050000002
 21
532.12981000000002
  0
LINE
  8
_0-1_レイヤ___1
  6
CONTINUOUS
 62
    7
 10
2409.3484050000002
 20
532.12981000000002
 11
2409.3484050000002
 21
532.55354999999997
  0
LINE
  8
_0-1_レイヤ___1
  6
CONTINUOUS
 62
    7
 10
2079.9972750000002
 20
535.51633000000004
 11
2079.5735250000002
 21
535.51633000000004
  0
LINE
  8
_0-1_レイヤ___1
  6
CONTINUOUS
 62
    7
 10
2079.5735250000002
 20
535.51633000000004
 11
2079.1497750000003
 21
535.51633000000004
  0
LINE
  8
_0-1_レイヤ___1
  6
CONTINUOUS
 62
    7
 10
2079.1497750000003
 20
535.51633000000004
 11
2078.7260350000001
 21
535.51633000000004
  0
LINE
  8
_0-1_レイヤ___1
  6
CONTINUOUS
 62
    7
 10
2078.7260350000001
 20
535.51633000000004
 11
2078.3022850000002
 21
535.51633000000004
  0
LINE
  8
_0-1_レイヤ___1
  6
CONTINUOUS
 62
    7
 10
2078.3022850000002
 20
535.51633000000004
 11
2077.8785350000003
 21
535.51633000000004
  0
LINE
  8
_0-1_レイヤ___1
  6
CONTINUOUS
 62
    7
 10
2077.8785350000003
 20
535.51633000000004
 11
2077.4547950000001
 21
535.51633000000004
  0
LINE
  8
_0-1_レイヤ___1
  6
CONTINUOUS
 62
    7
 10
2077.4547950000001
 20
535.51633000000004
 11
2077.0310450000002
 21
535.51633000000004
  0
LINE
  8
_0-1_レイヤ___1
  6
CONTINUOUS
 62
    7
 10
2077.0310450000002
 20
535.51633000000004
 11
2073.220765
 21
535.94008000000008
  0
LINE
  8
_0-1_レイヤ___1
  6
CONTINUOUS
 62
    7
 10
2073.220765
 20
535.94008000000008
 11
2071.9529750000002
 21
535.94008000000008
  0
LINE
  8
_0-1_レイヤ___1
  6
CONTINUOUS
 62
    7
 10
2071.9529750000002
 20
535.94008000000008
 11
2071.105485
 21
535.94008000000008
  0
LINE
  8
_0-1_レイヤ___1
  6
CONTINUOUS
 62
    7
 10
2071.105485
 20
535.94008000000008
 11
2070.6817350000001
 21
535.94008000000008
  0
LINE
  8
_0-1_レイヤ___1
  6
CONTINUOUS
 62
    7
 10
2070.6817350000001
 20
535.94008000000008
 11
2069.834245
 21
535.94008000000008
  0
LINE
  8
_0-1_レイヤ___1
  6
CONTINUOUS
 62
    7
 10
2069.834245
 20
535.94008000000008
 11
2068.9901950000003
 21
535.94008000000008
  0
LINE
  8
_0-1_レイヤ___1
  6
CONTINUOUS
 62
    7
 10
2068.9901950000003
 20
535.94008000000008
 11
2068.5664450000004
 21
535.94008000000008
  0
LINE
  8
_0-1_レイヤ___1
  6
CONTINUOUS
 62
    7
 10
2068.5664450000004
 20
535.94008000000008
 11
2068.1426950000005
 21
535.94008000000008
  0
LINE
  8
_0-1_レイヤ___1
  6
CONTINUOUS
 62
    7
 10
2068.1426950000005
 20
535.94008000000008
 11
2067.7189550000003
 21
535.94008000000008
  0
LINE
  8
_0-1_レイヤ___1
  6
CONTINUOUS
 62
    7
 10
2067.7189550000003
 20
535.94008000000008
 11
2067.2952049999999
 21
535.94008000000008
  0
LINE
  8
_0-1_レイヤ___1
  6
CONTINUOUS
 62
    7
 10
2067.2952049999999
 20
535.94008000000008
 11
2066.871455
 21
535.94008000000008
  0
LINE
  8
_0-1_レイヤ___1
  6
CONTINUOUS
 62
    7
 10
2079.9972750000002
 20
535.51633000000004
 11
2080.4175750000004
 21
535.51633000000004
  0
LINE
  8
_0-1_レイヤ___1
  6
CONTINUOUS
 62
    7
 10
2080.4175750000004
 20
535.51633000000004
 11
2080.8413250000003
 21
535.51633000000004
  0
LINE
  8
_0-1_レイヤ___1
  6
CONTINUOUS
 62
    7
 10
2080.8413250000003
 20
535.51633000000004
 11
2081.265065
 21
535.51633000000004
  0
LINE
  8
_0-1_レイヤ___1
  6
CONTINUOUS
 62
    7
 10
2081.265065
 20
535.51633000000004
 11
2081.6888150000004
 21
535.51633000000004
  0
LINE
  8
_0-1_レイヤ___1
  6
CONTINUOUS
 62
    7
 10
2081.6888150000004
 20
535.51633000000004
 11
2082.1125650000004
 21
535.51633000000004
  0
LINE
  8
_0-1_レイヤ___1
  6
CONTINUOUS
 62
    7
 10
2082.1125650000004
 20
535.51633000000004
 11
2082.5363050000001
 21
535.51633000000004
  0
LINE
  8
_0-1_レイヤ___1
  6
CONTINUOUS
 62
    7
 10
2082.5363050000001
 20
535.51633000000004
 11
2082.960055
 21
535.51633000000004
  0
LINE
  8
_0-1_レイヤ___1
  6
CONTINUOUS
 62
    7
 10
2082.960055
 20
535.51633000000004
 11
2083.3838050000004
 21
535.51633000000004
  0
LINE
  8
_0-1_レイヤ___1
  6
CONTINUOUS
 62
    7
 10
2083.3838050000004
 20
535.51633000000004
 11
2083.8041050000002
 21
535.51633000000004
  0
LINE
  8
_0-1_レイヤ___1
  6
CONTINUOUS
 62
    7
 10
2083.8041050000002
 20
535.51633000000004
 11
2084.2278449999999
 21
535.51633000000004
  0
LINE
  8
_0-1_レイヤ___1
  6
CONTINUOUS
 62
    7
 10
2084.2278449999999
 20
535.51633000000004
 11
2084.2278449999999
 21
535.09258999999997
  0
LINE
  8
_0-1_レイヤ___1
  6
CONTINUOUS
 62
    7
 10
2084.2278449999999
 20
535.09258999999997
 11
2084.6515950000003
 21
535.09258999999997
  0
LINE
  8
_0-1_レイヤ___1
  6
CONTINUOUS
 62
    7
 10
2084.6515950000003
 20
535.09258999999997
 11
2085.0753450000002
 21
535.09258999999997
  0
LINE
  8
_0-1_レイヤ___1
  6
CONTINUOUS
 62
    7
 10
2085.0753450000002
 20
535.09258999999997
 11
2085.4990850000004
 21
535.09258999999997
  0
LINE
  8
_0-1_レイヤ___1
  6
CONTINUOUS
 62
    7
 10
2085.4990850000004
 20
535.09258999999997
 11
2085.9228350000003
 21
535.09258999999997
  0
LINE
  8
_0-1_レイヤ___1
  6
CONTINUOUS
 62
    7
 10
2085.9228350000003
 20
535.09258999999997
 11
2086.3465850000002
 21
535.09258999999997
  0
LINE
  8
_0-1_レイヤ___1
  6
CONTINUOUS
 62
    7
 10
2086.3465850000002
 20
535.09258999999997
 11
2086.7703250000004
 21
535.09258999999997
  0
LINE
  8
_0-1_レイヤ___1
  6
CONTINUOUS
 62
    7
 10
2086.7703250000004
 20
535.09258999999997
 11
2086.7703250000004
 21
534.66884000000005
  0
LINE
  8
_0-1_レイヤ___1
  6
CONTINUOUS
 62
    7
 10
2086.7703250000004
 20
534.66884000000005
 11
2087.1906349999999
 21
534.66884000000005
  0
LINE
  8
_0-1_レイヤ___1
  6
CONTINUOUS
 62
    7
 10
2087.1906349999999
 20
534.66884000000005
 11
2087.6143750000001
 21
534.66884000000005
  0
LINE
  8
_0-1_レイヤ___1
  6
CONTINUOUS
 62
    7
 10
2087.6143750000001
 20
534.66884000000005
 11
2088.038125
 21
534.66884000000005
  0
LINE
  8
_0-1_レイヤ___1
  6
CONTINUOUS
 62
    7
 10
2088.038125
 20
534.66884000000005
 11
2088.461875
 21
534.66884000000005
  0
LINE
  8
_0-1_レイヤ___1
  6
CONTINUOUS
 62
    7
 10
2088.461875
 20
534.66884000000005
 11
2088.8856150000001
 21
534.66884000000005
  0
LINE
  8
_0-1_レイヤ___1
  6
CONTINUOUS
 62
    7
 10
2088.8856150000001
 20
534.66884000000005
 11
2088.8856150000001
 21
534.24509
  0
LINE
  8
_0-1_レイヤ___1
  6
CONTINUOUS
 62
    7
 10
2088.8856150000001
 20
534.24509
 11
2089.3093650000001
 21
534.24509
  0
LINE
  8
_0-1_レイヤ___1
  6
CONTINUOUS
 62
    7
 10
2089.3093650000001
 20
534.24509
 11
2089.733115
 21
534.24509
  0
LINE
  8
_0-1_レイヤ___1
  6
CONTINUOUS
 62
    7
 10
2089.733115
 20
534.24509
 11
2090.1568550000002
 21
534.24509
  0
LINE
  8
_0-1_レイヤ___1
  6
CONTINUOUS
 62
    7
 10
2090.1568550000002
 20
534.24509
 11
2090.5806050000001
 21
534.24509
  0
LINE
  8
_0-1_レイヤ___1
  6
CONTINUOUS
 62
    7
 10
2090.5806050000001
 20
534.24509
 11
2090.5806050000001
 21
533.82134999999994
  0
LINE
  8
_0-1_レイヤ___1
  6
CONTINUOUS
 62
    7
 10
2090.5806050000001
 20
533.82134999999994
 11
2091.0009050000003
 21
533.82134999999994
  0
LINE
  8
_0-1_レイヤ___1
  6
CONTINUOUS
 62
    7
 10
2091.0009050000003
 20
533.82134999999994
 11
2091.4246550000003
 21
533.82134999999994
  0
LINE
  8
_0-1_レイヤ___1
  6
CONTINUOUS
 62
    7
 10
2091.4246550000003
 20
533.82134999999994
 11
2091.8484050000002
 21
533.82134999999994
  0
LINE
  8
_0-1_レイヤ___1
  6
CONTINUOUS
 62
    7
 10
2091.8484050000002
 20
533.82134999999994
 11
2092.2721449999999
 21
533.82134999999994
  0
LINE
  8
_0-1_レイヤ___1
  6
CONTINUOUS
 62
    7
 10
2092.2721449999999
 20
533.82134999999994
 11
2092.2721449999999
 21
533.40105000000005
  0
LINE
  8
_0-1_レイヤ___1
  6
CONTINUOUS
 62
    7
 10
2092.2721449999999
 20
533.40105000000005
 11
2092.6958950000003
 21
533.40105000000005
  0
LINE
  8
_0-1_レイヤ___1
  6
CONTINUOUS
 62
    7
 10
2092.6958950000003
 20
533.40105000000005
 11
2093.1196450000002
 21
533.40105000000005
  0
LINE
  8
_0-1_レイヤ___1
  6
CONTINUOUS
 62
    7
 10
2093.1196450000002
 20
533.40105000000005
 11
2093.5433849999999
 21
533.40105000000005
  0
LINE
  8
_0-1_レイヤ___1
  6
CONTINUOUS
 62
    7
 10
2093.5433849999999
 20
533.40105000000005
 11
2093.5433849999999
 21
532.97730000000001
  0
LINE
  8
_0-1_レイヤ___1
  6
CONTINUOUS
 62
    7
 10
2093.5433849999999
 20
532.97730000000001
 11
2093.9671349999999
 21
532.97730000000001
  0
LINE
  8
_0-1_レイヤ___1
  6
CONTINUOUS
 62
    7
 10
2093.9671349999999
 20
532.97730000000001
 11
2094.3874350000001
 21
532.97730000000001
  0
LINE
  8
_0-1_レイヤ___1
  6
CONTINUOUS
 62
    7
 10
2094.3874350000001
 20
532.97730000000001
 11
2094.811185
 21
532.97730000000001
  0
LINE
  8
_0-1_レイヤ___1
  6
CONTINUOUS
 62
    7
 10
2094.811185
 20
532.97730000000001
 11
2094.811185
 21
532.55354999999997
  0
LINE
  8
_0-1_レイヤ___1
  6
CONTINUOUS
 62
    7
 10
2089.3093650000001
 20
529.59077000000002
 11
2089.3093650000001
 21
530.01451999999995
  0
LINE
  8
_0-1_レイヤ___1
  6
CONTINUOUS
 62
    7
 10
2089.3093650000001
 20
530.01451999999995
 11
2089.733115
 21
530.01451999999995
  0
LINE
  8
_0-1_レイヤ___1
  6
CONTINUOUS
 62
    7
 10
2089.733115
 20
530.01451999999995
 11
2089.733115
 21
530.43481999999995
  0
LINE
  8
_0-1_レイヤ___1
  6
CONTINUOUS
 62
    7
 10
2089.733115
 20
530.43481999999995
 11
2090.1568550000002
 21
530.85856000000001
  0
LINE
  8
_0-1_レイヤ___1
  6
CONTINUOUS
 62
    7
 10
2090.1568550000002
 20
530.85856000000001
 11
2090.5806050000001
 21
530.85856000000001
  0
LINE
  8
_0-1_レイヤ___1
  6
CONTINUOUS
 62
    7
 10
2090.5806050000001
 20
530.85856000000001
 11
2090.5806050000001
 21
531.28231000000005
  0
LINE
  8
_0-1_レイヤ___1
  6
CONTINUOUS
 62
    7
 10
2028.7721450000001
 20
742.52522999999997
 11
2028.7721450000001
 21
742.94898000000001
  0
LINE
  8
_0-1_レイヤ___1
  6
CONTINUOUS
 62
    7
 10
2028.7721450000001
 20
742.94898000000001
 11
2028.7721450000001
 21
743.37272999999993
  0
LINE
  8
_0-1_レイヤ___1
  6
CONTINUOUS
 62
    7
 10
2028.7721450000001
 20
743.37272999999993
 11
2028.3484050000002
 21
743.37272999999993
  0
LINE
  8
_0-1_レイヤ___1
  6
CONTINUOUS
 62
    7
 10
2094.811185
 20
532.55354999999997
 11
2096.9299150000002
 21
532.55354999999997
  0
LINE
  8
_0-1_レイヤ___1
  6
CONTINUOUS
 62
    7
 10
2096.9299150000002
 20
532.55354999999997
 11
2276.8465850000002
 21
528.74328000000003
  0
LINE
  8
_0-1_レイヤ___1
  6
CONTINUOUS
 62
    7
 10
2276.8465850000002
 20
528.74328000000003
 11
2278.538125
 21
528.31952999999999
  0
LINE
  8
_0-1_レイヤ___1
  6
CONTINUOUS
 62
    7
 10
2278.538125
 20
528.31952999999999
 11
2280.6568550000002
 21
528.74328000000003
  0
LINE
  8
_0-1_レイヤ___1
  6
CONTINUOUS
 62
    7
 10
2280.6568550000002
 20
528.74328000000003
 11
2379.7171350000003
 21
529.59077000000002
  0
LINE
  8
_0-1_レイヤ___1
  6
CONTINUOUS
 62
    7
 10
2379.7171350000003
 20
529.59077000000002
 11
2381.8324250000001
 21
529.59077000000002
  0
LINE
  8
_0-1_レイヤ___1
  6
CONTINUOUS
 62
    7
 10
2028.7721450000001
 20
742.52522999999997
 11
2029.1958950000003
 21
742.10148000000004
  0
LINE
  8
_0-1_レイヤ___1
  6
CONTINUOUS
 62
    7
 10
2029.1958950000003
 20
742.10148000000004
 11
2029.1958950000003
 21
741.68118000000004
  0
LINE
  8
_0-1_レイヤ___1
  6
CONTINUOUS
 62
    7
 10
2029.1958950000003
 20
741.68118000000004
 11
2029.1958950000003
 21
741.25743999999997
  0
LINE
  8
_0-1_レイヤ___1
  6
CONTINUOUS
 62
    7
 10
2029.1958950000003
 20
741.25743999999997
 11
2029.1958950000003
 21
740.83369000000005
  0
LINE
  8
_0-1_レイヤ___1
  6
CONTINUOUS
 62
    7
 10
2029.1958950000003
 20
740.83369000000005
 11
2029.1958950000003
 21
740.40994000000001
  0
LINE
  8
_0-1_レイヤ___1
  6
CONTINUOUS
 62
    7
 10
2029.1958950000003
 20
740.40994000000001
 11
2029.1958950000003
 21
739.98620000000005
  0
LINE
  8
_0-1_レイヤ___1
  6
CONTINUOUS
 62
    7
 10
2029.1958950000003
 20
739.98620000000005
 11
2029.1958950000003
 21
739.5624499999999
  0
LINE
  8
_0-1_レイヤ___1
  6
CONTINUOUS
 62
    7
 10
2029.1958950000003
 20
739.5624499999999
 11
2044.436995
 21
567.26633000000004
  0
LINE
  8
_0-1_レイヤ___1
  6
CONTINUOUS
 62
    7
 10
2044.436995
 20
567.26633000000004
 11
2044.8572950000002
 21
565.15104999999994
  0
LINE
  8
_0-1_レイヤ___1
  6
CONTINUOUS
 62
    7
 10
2380.5611850000005
 20
527.89577999999995
 11
2385.6426950000005
 21
528.31952999999999
  0
LINE
  8
_0-1_レイヤ___1
  6
CONTINUOUS
 62
    7
 10
2211.2278450000003
 20
527.89577999999995
 11
2168.894515
 21
530.85856000000001
  0
LINE
  8
_0-1_レイヤ___1
  6
CONTINUOUS
 62
    7
 10
2044.436995
 20
565.99509
 11
2044.8572950000002
 21
565.99509
  0
LINE
  8
_0-1_レイヤ___1
  6
CONTINUOUS
 62
    7
 10
2044.8572950000002
 20
565.99509
 11
2044.8572950000002
 21
565.57135000000005
  0
LINE
  8
_0-1_レイヤ___1
  6
CONTINUOUS
 62
    7
 10
2044.8572950000002
 20
565.57135000000005
 11
2044.8572950000002
 21
565.15104999999994
  0
LINE
  8
_0-1_レイヤ___1
  6
CONTINUOUS
 62
    7
 10
2044.8572950000002
 20
565.15104999999994
 11
2044.8572950000002
 21
564.72730000000001
  0
LINE
  8
_0-1_レイヤ___1
  6
CONTINUOUS
 62
    7
 10
2044.8572950000002
 20
564.72730000000001
 11
2044.8572950000002
 21
564.30354999999997
  0
LINE
  8
_0-1_レイヤ___1
  6
CONTINUOUS
 62
    7
 10
2044.8572950000002
 20
564.30354999999997
 11
2044.8572950000002
 21
563.87981000000002
  0
LINE
  8
_0-1_レイヤ___1
  6
CONTINUOUS
 62
    7
 10
2044.8572950000002
 20
563.87981000000002
 11
2044.8572950000002
 21
563.45605999999998
  0
LINE
  8
_0-1_レイヤ___1
  6
CONTINUOUS
 62
    7
 10
2044.8572950000002
 20
563.45605999999998
 11
2044.8572950000002
 21
563.03231000000005
  0
LINE
  8
_0-1_レイヤ___1
  6
CONTINUOUS
 62
    7
 10
2044.8572950000002
 20
563.03231000000005
 11
2045.2810450000002
 21
562.60856000000001
  0
LINE
  8
_0-1_レイヤ___1
  6
CONTINUOUS
 62
    7
 10
2045.2810450000002
 20
562.60856000000001
 11
2045.2810450000002
 21
562.18482000000006
  0
LINE
  8
_0-1_レイヤ___1
  6
CONTINUOUS
 62
    7
 10
2045.2810450000002
 20
562.18482000000006
 11
2045.2810450000002
 21
561.76451999999995
  0
LINE
  8
_0-1_レイヤ___1
  6
CONTINUOUS
 62
    7
 10
2045.2810450000002
 20
561.76451999999995
 11
2045.2810450000002
 21
561.34077000000002
  0
LINE
  8
_0-1_レイヤ___1
  6
CONTINUOUS
 62
    7
 10
2045.2810450000002
 20
561.34077000000002
 11
2045.2810450000002
 21
560.91701999999998
  0
LINE
  8
_0-1_レイヤ___1
  6
CONTINUOUS
 62
    7
 10
2045.2810450000002
 20
560.91701999999998
 11
2045.2810450000002
 21
560.49328000000003
  0
LINE
  8
_0-1_レイヤ___1
  6
CONTINUOUS
 62
    7
 10
2045.2810450000002
 20
560.49328000000003
 11
2045.7047950000001
 21
560.49328000000003
  0
LINE
  8
_0-1_レイヤ___1
  6
CONTINUOUS
 62
    7
 10
2045.7047950000001
 20
560.49328000000003
 11
2045.7047950000001
 21
560.06952999999999
  0
LINE
  8
_0-1_レイヤ___1
  6
CONTINUOUS
 62
    7
 10
2045.7047950000001
 20
560.06952999999999
 11
2045.7047950000001
 21
559.64578000000006
  0
LINE
  8
_0-1_レイヤ___1
  6
CONTINUOUS
 62
    7
 10
2045.7047950000001
 20
559.64578000000006
 11
2045.7047950000001
 21
559.22203999999999
  0
LINE
  8
_0-1_レイヤ___1
  6
CONTINUOUS
 62
    7
 10
2045.7047950000001
 20
559.22203999999999
 11
2046.1285350000003
 21
558.79828999999995
  0
LINE
  8
_0-1_レイヤ___1
  6
CONTINUOUS
 62
    7
 10
2046.1285350000003
 20
558.79828999999995
 11
2046.1285350000003
 21
558.37454000000002
  0
LINE
  8
_0-1_レイヤ___1
  6
CONTINUOUS
 62
    7
 10
2046.1285350000003
 20
558.37454000000002
 11
2046.1285350000003
 21
557.95424000000003
  0
LINE
  8
_0-1_レイヤ___1
  6
CONTINUOUS
 62
    7
 10
2046.1285350000003
 20
557.95424000000003
 11
2046.1285350000003
 21
557.53048999999999
  0
LINE
  8
_0-1_レイヤ___1
  6
CONTINUOUS
 62
    7
 10
2046.1285350000003
 20
557.53048999999999
 11
2046.5522850000002
 21
557.53048999999999
  0
LINE
  8
_0-1_レイヤ___1
  6
CONTINUOUS
 62
    7
 10
2046.5522850000002
 20
557.53048999999999
 11
2046.5522850000002
 21
557.10675000000003
  0
LINE
  8
_0-1_レイヤ___1
  6
CONTINUOUS
 62
    7
 10
2046.5522850000002
 20
557.10675000000003
 11
2046.5522850000002
 21
556.68299999999999
  0
LINE
  8
_0-1_レイヤ___1
  6
CONTINUOUS
 62
    7
 10
2046.5522850000002
 20
556.68299999999999
 11
2046.5522850000002
 21
556.25925000000007
  0
LINE
  8
_0-1_レイヤ___1
  6
CONTINUOUS
 62
    7
 10
2046.5522850000002
 20
556.25925000000007
 11
2046.9760350000001
 21
556.25925000000007
  0
LINE
  8
_0-1_レイヤ___1
  6
CONTINUOUS
 62
    7
 10
2046.9760350000001
 20
556.25925000000007
 11
2046.9760350000001
 21
555.83551
  0
LINE
  8
_0-1_レイヤ___1
  6
CONTINUOUS
 62
    7
 10
2046.9760350000001
 20
555.83551
 11
2046.9760350000001
 21
555.41175999999996
  0
LINE
  8
_0-1_レイヤ___1
  6
CONTINUOUS
 62
    7
 10
2046.9760350000001
 20
555.41175999999996
 11
2046.9760350000001
 21
554.98801000000003
  0
LINE
  8
_0-1_レイヤ___1
  6
CONTINUOUS
 62
    7
 10
2046.9760350000001
 20
554.98801000000003
 11
2047.3997750000001
 21
554.98801000000003
  0
LINE
  8
_0-1_レイヤ___1
  6
CONTINUOUS
 62
    7
 10
2047.3997750000001
 20
554.98801000000003
 11
2047.3997750000001
 21
554.56771000000003
  0
LINE
  8
_0-1_レイヤ___1
  6
CONTINUOUS
 62
    7
 10
2047.3997750000001
 20
554.56771000000003
 11
2047.3997750000001
 21
554.14396999999997
  0
LINE
  8
_0-1_レイヤ___1
  6
CONTINUOUS
 62
    7
 10
2047.3997750000001
 20
554.14396999999997
 11
2047.823525
 21
554.14396999999997
  0
LINE
  8
_0-1_レイヤ___1
  6
CONTINUOUS
 62
    7
 10
2047.823525
 20
554.14396999999997
 11
2047.823525
 21
553.72022000000004
  0
LINE
  8
_0-1_レイヤ___1
  6
CONTINUOUS
 62
    7
 10
2047.823525
 20
553.72022000000004
 11
2047.823525
 21
553.29647
  0
LINE
  8
_0-1_レイヤ___1
  6
CONTINUOUS
 62
    7
 10
2047.823525
 20
553.29647
 11
2048.2472750000002
 21
553.29647
  0
LINE
  8
_0-1_レイヤ___1
  6
CONTINUOUS
 62
    7
 10
2048.2472750000002
 20
553.29647
 11
2048.2472750000002
 21
552.87273000000005
  0
LINE
  8
_0-1_レイヤ___1
  6
CONTINUOUS
 62
    7
 10
2048.2472750000002
 20
552.87273000000005
 11
2048.2472750000002
 21
552.44898000000001
  0
LINE
  8
_0-1_レイヤ___1
  6
CONTINUOUS
 62
    7
 10
2048.2472750000002
 20
552.44898000000001
 11
2048.6675749999999
 21
552.44898000000001
  0
LINE
  8
_0-1_レイヤ___1
  6
CONTINUOUS
 62
    7
 10
2048.6675749999999
 20
552.44898000000001
 11
2048.6675749999999
 21
552.02522999999997
  0
LINE
  8
_0-1_レイヤ___1
  6
CONTINUOUS
 62
    7
 10
2048.6675749999999
 20
552.02522999999997
 11
2048.6675749999999
 21
551.60148000000004
  0
LINE
  8
_0-1_レイヤ___1
  6
CONTINUOUS
 62
    7
 10
2048.6675749999999
 20
551.60148000000004
 11
2049.0913250000003
 21
551.60148000000004
  0
LINE
  8
_0-1_レイヤ___1
  6
CONTINUOUS
 62
    7
 10
2049.0913250000003
 20
551.60148000000004
 11
2049.0913250000003
 21
551.18118000000004
  0
LINE
  8
_0-1_レイヤ___1
  6
CONTINUOUS
 62
    7
 10
2049.0913250000003
 20
551.18118000000004
 11
2049.0913250000003
 21
550.75743999999997
  0
LINE
  8
_0-1_レイヤ___1
  6
CONTINUOUS
 62
    7
 10
2049.0913250000003
 20
550.75743999999997
 11
2049.515065
 21
550.75743999999997
  0
LINE
  8
_0-1_レイヤ___1
  6
CONTINUOUS
 62
    7
 10
2049.515065
 20
550.75743999999997
 11
2049.515065
 21
550.33369000000005
  0
LINE
  8
_0-1_レイヤ___1
  6
CONTINUOUS
 62
    7
 10
2049.515065
 20
550.33369000000005
 11
2049.938815
 21
549.90994000000001
  0
LINE
  8
_0-1_レイヤ___1
  6
CONTINUOUS
 62
    7
 10
2049.938815
 20
549.90994000000001
 11
2049.938815
 21
549.48619999999994
  0
LINE
  8
_0-1_レイヤ___1
  6
CONTINUOUS
 62
    7
 10
2049.938815
 20
549.48619999999994
 11
2050.3625649999999
 21
549.48619999999994
  0
LINE
  8
_0-1_レイヤ___1
  6
CONTINUOUS
 62
    7
 10
2050.3625649999999
 20
549.48619999999994
 11
2050.3625649999999
 21
549.06245000000001
  0
LINE
  8
_0-1_レイヤ___1
  6
CONTINUOUS
 62
    7
 10
2050.3625649999999
 20
549.06245000000001
 11
2050.7863050000001
 21
548.63869999999997
  0
LINE
  8
_0-1_レイヤ___1
  6
CONTINUOUS
 62
    7
 10
2050.7863050000001
 20
548.63869999999997
 11
2050.7863050000001
 21
548.21496000000002
  0
LINE
  8
_0-1_レイヤ___1
  6
CONTINUOUS
 62
    7
 10
2050.7863050000001
 20
548.21496000000002
 11
2051.2100550000005
 21
548.21496000000002
  0
LINE
  8
_0-1_レイヤ___1
  6
CONTINUOUS
 62
    7
 10
2051.2100550000005
 20
548.21496000000002
 11
2051.2100550000005
 21
547.79121000000009
  0
LINE
  8
_0-1_レイヤ___1
  6
CONTINUOUS
 62
    7
 10
2051.2100550000005
 20
547.79121000000009
 11
2051.6338050000004
 21
547.79121000000009
  0
LINE
  8
_0-1_レイヤ___1
  6
CONTINUOUS
 62
    7
 10
2051.6338050000004
 20
547.79121000000009
 11
2051.6338050000004
 21
547.37090999999998
  0
LINE
  8
_0-1_レイヤ___1
  6
CONTINUOUS
 62
    7
 10
2051.6338050000004
 20
547.37090999999998
 11
2052.0541050000002
 21
546.94715999999994
  0
LINE
  8
_0-1_レイヤ___1
  6
CONTINUOUS
 62
    7
 10
2052.0541050000002
 20
546.94715999999994
 11
2052.0541050000002
 21
546.52341000000001
  0
LINE
  8
_0-1_レイヤ___1
  6
CONTINUOUS
 62
    7
 10
2052.0541050000002
 20
546.52341000000001
 11
2052.4778450000003
 21
546.52341000000001
  0
LINE
  8
_0-1_レイヤ___1
  6
CONTINUOUS
 62
    7
 10
2052.4778450000003
 20
546.52341000000001
 11
2052.4778450000003
 21
546.09966999999995
  0
LINE
  8
_0-1_レイヤ___1
  6
CONTINUOUS
 62
    7
 10
2052.4778450000003
 20
546.09966999999995
 11
2052.9015950000003
 21
546.09966999999995
  0
LINE
  8
_0-1_レイヤ___1
  6
CONTINUOUS
 62
    7
 10
2052.9015950000003
 20
546.09966999999995
 11
2052.9015950000003
 21
545.67592000000002
  0
LINE
  8
_0-1_レイヤ___1
  6
CONTINUOUS
 62
    7
 10
2052.9015950000003
 20
545.67592000000002
 11
2053.3253450000002
 21
545.67592000000002
  0
LINE
  8
_0-1_レイヤ___1
  6
CONTINUOUS
 62
    7
 10
2053.3253450000002
 20
545.67592000000002
 11
2053.3253450000002
 21
545.25216999999998
  0
LINE
  8
_0-1_レイヤ___1
  6
CONTINUOUS
 62
    7
 10
2053.3253450000002
 20
545.25216999999998
 11
2053.7490849999999
 21
545.25216999999998
  0
LINE
  8
_0-1_レイヤ___1
  6
CONTINUOUS
 62
    7
 10
2053.7490849999999
 20
545.25216999999998
 11
2053.7490849999999
 21
544.82843000000003
  0
LINE
  8
_0-1_レイヤ___1
  6
CONTINUOUS
 62
    7
 10
2053.7490849999999
 20
544.82843000000003
 11
2054.1728350000003
 21
544.82843000000003
  0
LINE
  8
_0-1_レイヤ___1
  6
CONTINUOUS
 62
    7
 10
2054.1728350000003
 20
544.82843000000003
 11
2054.1728350000003
 21
544.40467999999998
  0
LINE
  8
_0-1_レイヤ___1
  6
CONTINUOUS
 62
    7
 10
2054.1728350000003
 20
544.40467999999998
 11
2054.5965850000002
 21
543.98437999999999
  0
LINE
  8
_0-1_レイヤ___1
  6
CONTINUOUS
 62
    7
 10
2054.5965850000002
 20
543.98437999999999
 11
2055.020325
 21
543.98437999999999
  0
LINE
  8
_0-1_レイヤ___1
  6
CONTINUOUS
 62
    7
 10
2055.020325
 20
543.98437999999999
 11
2055.020325
 21
543.56062999999995
  0
LINE
  8
_0-1_レイヤ___1
  6
CONTINUOUS
 62
    7
 10
2055.020325
 20
543.56062999999995
 11
2055.4406350000004
 21
543.56062999999995
  0
LINE
  8
_0-1_レイヤ___1
  6
CONTINUOUS
 62
    7
 10
2055.4406350000004
 20
543.56062999999995
 11
2055.4406350000004
 21
543.13688999999999
  0
LINE
  8
_0-1_レイヤ___1
  6
CONTINUOUS
 62
    7
 10
2055.4406350000004
 20
543.13688999999999
 11
2055.8643750000001
 21
543.13688999999999
  0
LINE
  8
_0-1_レイヤ___1
  6
CONTINUOUS
 62
    7
 10
2055.8643750000001
 20
543.13688999999999
 11
2055.8643750000001
 21
542.71314000000007
  0
LINE
  8
_0-1_レイヤ___1
  6
CONTINUOUS
 62
    7
 10
2055.8643750000001
 20
542.71314000000007
 11
2056.288125
 21
542.71314000000007
  0
LINE
  8
_0-1_レイヤ___1
  6
CONTINUOUS
 62
    7
 10
2056.288125
 20
542.71314000000007
 11
2056.288125
 21
542.28938999999991
  0
LINE
  8
_0-1_レイヤ___1
  6
CONTINUOUS
 62
    7
 10
2056.288125
 20
542.28938999999991
 11
2056.711875
 21
542.28938999999991
  0
LINE
  8
_0-1_レイヤ___1
  6
CONTINUOUS
 62
    7
 10
2056.711875
 20
542.28938999999991
 11
2056.711875
 21
541.86564999999996
  0
LINE
  8
_0-1_レイヤ___1
  6
CONTINUOUS
 62
    7
 10
2056.711875
 20
541.86564999999996
 11
2057.1356150000001
 21
541.86564999999996
  0
LINE
  8
_0-1_レイヤ___1
  6
CONTINUOUS
 62
    7
 10
2057.1356150000001
 20
541.86564999999996
 11
2057.1356150000001
 21
541.44190000000003
  0
LINE
  8
_0-1_レイヤ___1
  6
CONTINUOUS
 62
    7
 10
2057.1356150000001
 20
541.44190000000003
 11
2057.5593650000001
 21
541.44190000000003
  0
LINE
  8
_0-1_レイヤ___1
  6
CONTINUOUS
 62
    7
 10
2057.5593650000001
 20
541.44190000000003
 11
2057.983115
 21
541.01814999999999
  0
LINE
  8
_0-1_レイヤ___1
  6
CONTINUOUS
 62
    7
 10
2057.983115
 20
541.01814999999999
 11
2058.4068550000002
 21
541.01814999999999
  0
LINE
  8
_0-1_レイヤ___1
  6
CONTINUOUS
 62
    7
 10
2058.4068550000002
 20
541.01814999999999
 11
2058.4068550000002
 21
540.59784999999999
  0
LINE
  8
_0-1_レイヤ___1
  6
CONTINUOUS
 62
    7
 10
2058.4068550000002
 20
540.59784999999999
 11
2058.8306050000001
 21
540.59784999999999
  0
LINE
  8
_0-1_レイヤ___1
  6
CONTINUOUS
 62
    7
 10
2058.8306050000001
 20
540.59784999999999
 11
2058.8306050000001
 21
540.17409999999995
  0
LINE
  8
_0-1_レイヤ___1
  6
CONTINUOUS
 62
    7
 10
2058.8306050000001
 20
540.17409999999995
 11
2059.2509049999999
 21
540.17409999999995
  0
LINE
  8
_0-1_レイヤ___1
  6
CONTINUOUS
 62
    7
 10
2059.2509049999999
 20
540.17409999999995
 11
2059.6746549999998
 21
539.75036
  0
LINE
  8
_0-1_レイヤ___1
  6
CONTINUOUS
 62
    7
 10
2059.6746549999998
 20
539.75036
 11
2060.0984050000002
 21
539.75036
  0
LINE
  8
_0-1_レイヤ___1
  6
CONTINUOUS
 62
    7
 10
2060.0984050000002
 20
539.75036
 11
2060.0984050000002
 21
539.32661000000007
  0
LINE
  8
_0-1_レイヤ___1
  6
CONTINUOUS
 62
    7
 10
2060.0984050000002
 20
539.32661000000007
 11
2060.5221450000004
 21
539.32661000000007
  0
LINE
  8
_0-1_レイヤ___1
  6
CONTINUOUS
 62
    7
 10
2060.5221450000004
 20
539.32661000000007
 11
2060.9458950000003
 21
538.90286000000003
  0
LINE
  8
_0-1_レイヤ___1
  6
CONTINUOUS
 62
    7
 10
2060.9458950000003
 20
538.90286000000003
 11
2061.3696450000002
 21
538.90286000000003
  0
LINE
  8
_0-1_レイヤ___1
  6
CONTINUOUS
 62
    7
 10
2061.3696450000002
 20
538.90286000000003
 11
2061.3696450000002
 21
538.47911999999997
  0
LINE
  8
_0-1_レイヤ___1
  6
CONTINUOUS
 62
    7
 10
2061.3696450000002
 20
538.47911999999997
 11
2061.7933850000004
 21
538.47911999999997
  0
LINE
  8
_0-1_レイヤ___1
  6
CONTINUOUS
 62
    7
 10
2061.7933850000004
 20
538.47911999999997
 11
2062.2171350000003
 21
538.47911999999997
  0
LINE
  8
_0-1_レイヤ___1
  6
CONTINUOUS
 62
    7
 10
2062.2171350000003
 20
538.47911999999997
 11
2062.2171350000003
 21
538.05537000000004
  0
LINE
  8
_0-1_レイヤ___1
  6
CONTINUOUS
 62
    7
 10
2062.2171350000003
 20
538.05537000000004
 11
2062.6374350000001
 21
538.05537000000004
  0
LINE
  8
_0-1_レイヤ___1
  6
CONTINUOUS
 62
    7
 10
2062.6374350000001
 20
538.05537000000004
 11
2062.6374350000001
 21
537.63162
  0
LINE
  8
_0-1_レイヤ___1
  6
CONTINUOUS
 62
    7
 10
2062.6374350000001
 20
537.63162
 11
2063.0611850000005
 21
537.63162
  0
LINE
  8
_0-1_レイヤ___1
  6
CONTINUOUS
 62
    7
 10
2063.0611850000005
 20
537.63162
 11
2063.4849250000002
 21
537.63162
  0
LINE
  8
_0-1_レイヤ___1
  6
CONTINUOUS
 62
    7
 10
2063.4849250000002
 20
537.63162
 11
2063.4849250000002
 21
537.20787999999993
  0
LINE
  8
_0-1_レイヤ___1
  6
CONTINUOUS
 62
    7
 10
2063.4849250000002
 20
537.20787999999993
 11
2063.9086750000001
 21
537.20787999999993
  0
LINE
  8
_0-1_レイヤ___1
  6
CONTINUOUS
 62
    7
 10
2063.9086750000001
 20
537.20787999999993
 11
2064.3324250000001
 21
537.20787999999993
  0
LINE
  8
_0-1_レイヤ___1
  6
CONTINUOUS
 62
    7
 10
2064.3324250000001
 20
537.20787999999993
 11
2064.3324250000001
 21
536.78756999999996
  0
LINE
  8
_0-1_レイヤ___1
  6
CONTINUOUS
 62
    7
 10
2064.3324250000001
 20
536.78756999999996
 11
2064.7561650000002
 21
536.78756999999996
  0
LINE
  8
_0-1_レイヤ___1
  6
CONTINUOUS
 62
    7
 10
2064.7561650000002
 20
536.78756999999996
 11
2065.1799150000002
 21
536.78756999999996
  0
LINE
  8
_0-1_レイヤ___1
  6
CONTINUOUS
 62
    7
 10
2065.1799150000002
 20
536.78756999999996
 11
2065.1799150000002
 21
536.36383000000001
  0
LINE
  8
_0-1_レイヤ___1
  6
CONTINUOUS
 62
    7
 10
2065.1799150000002
 20
536.36383000000001
 11
2065.6036650000001
 21
536.36383000000001
  0
LINE
  8
_0-1_レイヤ___1
  6
CONTINUOUS
 62
    5
 10
643.62499500000013
 20
1983.73974
 11
792.21541500000012
 21
1983.73974
  0
LINE
  8
_0-1_レイヤ___1
  6
CONTINUOUS
 62
    5
 10
896.35548500000016
 20
1802.97558
 11
891.27568500000007
 21
1822.87273
  0
LINE
  8
_0-1_レイヤ___1
  6
CONTINUOUS
 62
    5
 10
891.27568500000007
 20
1822.87273
 11
881.96187500000019
 21
1817.7929300000001
  0
LINE
  8
_0-1_レイヤ___1
  6
CONTINUOUS
 62
    5
 10
881.96187500000019
 20
1817.7929300000001
 11
896.35548500000016
 21
1802.97558
  0
LINE
  8
_0-1_レイヤ___1
  6
CONTINUOUS
 62
    5
 10
792.21541500000012
 20
1983.73974
 11
891.69943500000022
 21
1811.44362
  0
LINE
  8
_0-1_レイヤ___1
  6
CONTINUOUS
 62
    5
 10
583.08950500000014
 20
1822.87273
 11
425.18527500000016
 21
1822.87273
  0
LINE
  8
_0-1_レイヤ___1
  6
CONTINUOUS
 62
    5
 10
583.08950500000014
 20
1264.0730699999999
 11
425.18527500000016
 21
1264.0730699999999
  0
LINE
  8
_0-1_レイヤ___1
  6
CONTINUOUS
 62
    5
 10
438.73311500000011
 20
1822.87273
 11
435.13470500000011
 21
1826.683
  0
LINE
  8
_0-1_レイヤ___1
  6
CONTINUOUS
 62
    5
 10
435.13470500000011
 20
1826.683
 11
431.5363050000002
 21
1822.87273
  0
LINE
  8
_0-1_レイヤ___1
  6
CONTINUOUS
 62
    5
 10
431.5363050000002
 20
1822.87273
 11
435.13470500000011
 21
1819.0624500000001
  0
LINE
  8
_0-1_レイヤ___1
  6
CONTINUOUS
 62
    5
 10
435.13470500000011
 20
1819.0624500000001
 11
438.73311500000011
 21
1822.87273
  0
LINE
  8
_0-1_レイヤ___1
  6
CONTINUOUS
 62
    5
 10
438.73311500000011
 20
1264.0730699999999
 11
435.13470500000011
 21
1267.8833500000001
  0
LINE
  8
_0-1_レイヤ___1
  6
CONTINUOUS
 62
    5
 10
435.13470500000011
 20
1267.8833500000001
 11
431.5363050000002
 21
1264.0730699999999
  0
LINE
  8
_0-1_レイヤ___1
  6
CONTINUOUS
 62
    5
 10
431.5363050000002
 20
1264.0730699999999
 11
435.13470500000011
 21
1260.26279
  0
LINE
  8
_0-1_レイヤ___1
  6
CONTINUOUS
 62
    5
 10
435.13470500000011
 20
1260.26279
 11
438.73311500000011
 21
1264.0730699999999
  0
LINE
  8
_0-1_レイヤ___1
  6
CONTINUOUS
 62
    5
 10
435.34486500000014
 20
1822.87273
 11
435.34486500000014
 21
1264.0730699999999
  0
LINE
  8
_0-1_レイヤ___1
  6
CONTINUOUS
 62
    5
 10
602.98492500000009
 20
1244.1759199999999
 11
602.98492500000009
 21
1084.1546800000001
  0
LINE
  8
_0-1_レイヤ___1
  6
CONTINUOUS
 62
    5
 10
1440.7615250000001
 20
1244.1759199999999
 11
1440.7615250000001
 21
1084.1546800000001
  0
LINE
  8
_0-1_レイヤ___1
  6
CONTINUOUS
 62
    5
 10
606.79520500000024
 20
1093.8939700000001
 11
602.98492500000009
 21
1097.70252
  0
LINE
  8
_0-1_レイヤ___1
  6
CONTINUOUS
 62
    5
 10
602.98492500000009
 20
1097.70252
 11
599.17637500000012
 21
1093.8939700000001
  0
LINE
  8
_0-1_レイヤ___1
  6
CONTINUOUS
 62
    5
 10
599.17637500000012
 20
1093.8939700000001
 11
602.98492500000009
 21
1090.0836899999999
  0
LINE
  8
_0-1_レイヤ___1
  6
CONTINUOUS
 62
    5
 10
602.98492500000009
 20
1090.0836899999999
 11
606.79520500000024
 21
1093.8939700000001
  0
LINE
  8
_0-1_レイヤ___1
  6
CONTINUOUS
 62
    5
 10
1444.5718050000003
 20
1093.8939700000001
 11
1440.7615250000001
 21
1097.70252
  0
LINE
  8
_0-1_レイヤ___1
  6
CONTINUOUS
 62
    5
 10
1440.7615250000001
 20
1097.70252
 11
1436.9529750000002
 21
1093.8939700000001
  0
LINE
  8
_0-1_レイヤ___1
  6
CONTINUOUS
 62
    5
 10
1436.9529750000002
 20
1093.8939700000001
 11
1440.7615250000001
 21
1090.0836899999999
  0
LINE
  8
_0-1_レイヤ___1
  6
CONTINUOUS
 62
    5
 10
1440.7615250000001
 20
1090.0836899999999
 11
1444.5718050000003
 21
1093.8939700000001
  0
LINE
  8
_0-1_レイヤ___1
  6
CONTINUOUS
 62
    5
 10
602.98492500000009
 20
1093.8939700000001
 11
1440.7615250000001
 21
1093.8939700000001
  0
LINE
  8
_0-1_レイヤ___1
  6
CONTINUOUS
 62
    5
 10
1440.7615250000001
 20
1244.1759199999999
 11
1440.7615250000001
 21
1145.11565
  0
LINE
  8
_0-1_レイヤ___1
  6
CONTINUOUS
 62
    5
 10
1258.7295750000001
 20
1372.8691900000001
 11
1258.7295750000001
 21
1145.11565
  0
LINE
  8
_0-1_レイヤ___1
  6
CONTINUOUS
 62
    5
 10
1444.5718050000003
 20
1154.85321
 11
1440.7615250000001
 21
1158.6634799999999
  0
LINE
  8
_0-1_レイヤ___1
  6
CONTINUOUS
 62
    5
 10
1440.7615250000001
 20
1158.6634799999999
 11
1436.9529750000002
 21
1154.85321
  0
LINE
  8
_0-1_レイヤ___1
  6
CONTINUOUS
 62
    5
 10
1436.9529750000002
 20
1154.85321
 11
1440.7615250000001
 21
1151.0429300000001
  0
LINE
  8
_0-1_レイヤ___1
  6
CONTINUOUS
 62
    5
 10
1440.7615250000001
 20
1151.0429300000001
 11
1444.5718050000003
 21
1154.85321
  0
LINE
  8
_0-1_レイヤ___1
  6
CONTINUOUS
 62
    5
 10
1262.538125
 20
1154.85321
 11
1258.9414450000002
 21
1158.6634799999999
  0
LINE
  8
_0-1_レイヤ___1
  6
CONTINUOUS
 62
    5
 10
1258.9414450000002
 20
1158.6634799999999
 11
1255.3430450000001
 21
1154.85321
  0
LINE
  8
_0-1_レイヤ___1
  6
CONTINUOUS
 62
    5
 10
1255.3430450000001
 20
1154.85321
 11
1258.9414450000002
 21
1151.0429300000001
  0
LINE
  8
_0-1_レイヤ___1
  6
CONTINUOUS
 62
    5
 10
1258.9414450000002
 20
1151.0429300000001
 11
1262.538125
 21
1154.85321
  0
LINE
  8
_0-1_レイヤ___1
  6
CONTINUOUS
 62
    5
 10
1440.7615250000001
 20
1154.85321
 11
1258.7295750000001
 21
1154.85321
  0
LINE
  8
_0-1_レイヤ___1
  6
CONTINUOUS
 62
    5
 10
583.08950500000014
 20
764.11564999999996
 11
425.18527500000016
 21
764.11564999999996
  0
LINE
  8
_0-1_レイヤ___1
  6
CONTINUOUS
 62
    5
 10
1145.2756850000001
 20
519.85148000000004
 11
425.18527500000016
 21
519.85148000000004
  0
LINE
  8
_0-1_レイヤ___1
  6
CONTINUOUS
 62
    5
 10
438.73311500000011
 20
764.11564999999996
 11
435.13470500000011
 21
767.92592000000002
  0
LINE
  8
_0-1_レイヤ___1
  6
CONTINUOUS
 62
    5
 10
435.13470500000011
 20
767.92592000000002
 11
431.5363050000002
 21
764.11564999999996
  0
LINE
  8
_0-1_レイヤ___1
  6
CONTINUOUS
 62
    5
 10
431.5363050000002
 20
764.11564999999996
 11
435.13470500000011
 21
760.30536999999993
  0
LINE
  8
_0-1_レイヤ___1
  6
CONTINUOUS
 62
    5
 10
435.13470500000011
 20
760.30536999999993
 11
438.73311500000011
 21
764.11564999999996
  0
LINE
  8
_0-1_レイヤ___1
  6
CONTINUOUS
 62
    5
 10
438.73311500000011
 20
519.85148000000004
 11
435.13470500000011
 21
523.66176000000007
  0
LINE
  8
_0-1_レイヤ___1
  6
CONTINUOUS
 62
    5
 10
435.13470500000011
 20
523.66176000000007
 11
431.5363050000002
 21
519.85148000000004
  0
LINE
  8
_0-1_レイヤ___1
  6
CONTINUOUS
 62
    5
 10
431.5363050000002
 20
519.85148000000004
 11
435.13470500000011
 21
516.04120999999998
  0
LINE
  8
_0-1_レイヤ___1
  6
CONTINUOUS
 62
    5
 10
435.13470500000011
 20
516.04120999999998
 11
438.73311500000011
 21
519.85148000000004
  0
LINE
  8
_0-1_レイヤ___1
  6
CONTINUOUS
 62
    5
 10
435.34486500000014
 20
764.11564999999996
 11
435.34486500000014
 21
519.85148000000004
  0
LINE
  8
_0-1_レイヤ___1
  6
CONTINUOUS
 62
    5
 10
583.08950500000014
 20
764.11564999999996
 11
527.20833500000015
 21
764.11564999999996
  0
LINE
  8
_0-1_レイヤ___1
  6
CONTINUOUS
 62
    5
 10
583.08950500000014
 20
750.14578000000006
 11
527.20833500000015
 21
750.14578000000006
  0
LINE
  8
_0-1_レイヤ___1
  6
CONTINUOUS
 62
    5
 10
540.75616500000024
 20
764.11564999999996
 11
537.15776500000015
 21
767.92592000000002
  0
LINE
  8
_0-1_レイヤ___1
  6
CONTINUOUS
 62
    5
 10
537.15776500000015
 20
767.92592000000002
 11
533.55936500000007
 21
764.11564999999996
  0
LINE
  8
_0-1_レイヤ___1
  6
CONTINUOUS
 62
    5
 10
533.55936500000007
 20
764.11564999999996
 11
537.15776500000015
 21
760.30536999999993
  0
LINE
  8
_0-1_レイヤ___1
  6
CONTINUOUS
 62
    5
 10
537.15776500000015
 20
760.30536999999993
 11
540.75616500000024
 21
764.11564999999996
  0
LINE
  8
_0-1_レイヤ___1
  6
CONTINUOUS
 62
    5
 10
540.75616500000024
 20
749.93562999999995
 11
537.15776500000015
 21
753.53230999999994
  0
LINE
  8
_0-1_レイヤ___1
  6
CONTINUOUS
 62
    5
 10
537.15776500000015
 20
753.53230999999994
 11
533.55936500000007
 21
749.93562999999995
  0
LINE
  8
_0-1_レイヤ___1
  6
CONTINUOUS
 62
    5
 10
533.55936500000007
 20
749.93562999999995
 11
537.15776500000015
 21
746.33551
  0
LINE
  8
_0-1_レイヤ___1
  6
CONTINUOUS
 62
    5
 10
537.15776500000015
 20
746.33551
 11
540.75616500000024
 21
749.93562999999995
  0
LINE
  8
_0-1_レイヤ___1
  6
CONTINUOUS
 62
    5
 10
536.94589500000006
 20
764.11564999999996
 11
536.94589500000006
 21
750.14578000000006
  0
LINE
  8
_0-1_レイヤ___1
  6
CONTINUOUS
 62
    5
 10
1991.0965850000002
 20
784.01452000000006
 11
1991.0965850000002
 21
966.89396999999997
  0
LINE
  8
_0-1_レイヤ___1
  6
CONTINUOUS
 62
    5
 10
2549.894515
 20
784.01452000000006
 11
2549.894515
 21
966.89396999999997
  0
LINE
  8
_0-1_レイヤ___1
  6
CONTINUOUS
 62
    5
 10
1994.4831150000002
 20
956.94452999999999
 11
1990.8829850000002
 21
960.54120999999998
  0
LINE
  8
_0-1_レイヤ___1
  6
CONTINUOUS
 62
    5
 10
1990.8829850000002
 20
960.54120999999998
 11
1987.2863050000001
 21
956.94452999999999
  0
LINE
  8
_0-1_レイヤ___1
  6
CONTINUOUS
 62
    5
 10
1987.2863050000001
 20
956.94452999999999
 11
1990.8829850000002
 21
953.34439999999995
  0
LINE
  8
_0-1_レイヤ___1
  6
CONTINUOUS
 62
    5
 10
1990.8829850000002
 20
953.34439999999995
 11
1994.4831150000002
 21
956.94452999999999
  0
LINE
  8
_0-1_レイヤ___1
  6
CONTINUOUS
 62
    5
 10
2553.7047950000001
 20
956.94452999999999
 11
2549.894515
 21
960.54120999999998
  0
LINE
  8
_0-1_レイヤ___1
  6
CONTINUOUS
 62
    5
 10
2549.894515
 20
960.54120999999998
 11
2546.084245
 21
956.94452999999999
  0
LINE
  8
_0-1_レイヤ___1
  6
CONTINUOUS
 62
    5
 10
2546.084245
 20
956.94452999999999
 11
2549.894515
 21
953.34439999999995
  0
LINE
  8
_0-1_レイヤ___1
  6
CONTINUOUS
 62
    5
 10
2549.894515
 20
953.34439999999995
 11
2553.7047950000001
 21
956.94452999999999
  0
LINE
  8
_0-1_レイヤ___1
  6
CONTINUOUS
 62
    5
 10
1991.0965850000002
 20
957.15467999999998
 11
2549.894515
 21
957.15467999999998
  0
LINE
  8
_0-1_レイヤ___1
  6
CONTINUOUS
 62
    5
 10
2295.8945150000004
 20
662.94007999999985
 11
2295.8945150000004
 21
899.15994000000001
  0
LINE
  8
_0-1_レイヤ___1
  6
CONTINUOUS
 62
    5
 10
2549.894515
 20
784.01452000000006
 11
2549.894515
 21
899.15994000000001
  0
LINE
  8
_0-1_レイヤ___1
  6
CONTINUOUS
 62
    5
 10
2299.7047950000001
 20
889.00036
 11
2295.8945150000004
 21
892.81063000000006
  0
LINE
  8
_0-1_レイヤ___1
  6
CONTINUOUS
 62
    5
 10
2295.8945150000004
 20
892.81063000000006
 11
2292.084245
 21
889.00036
  0
LINE
  8
_0-1_レイヤ___1
  6
CONTINUOUS
 62
    5
 10
2292.084245
 20
889.00036
 11
2295.8945150000004
 21
885.19007999999997
  0
LINE
  8
_0-1_レイヤ___1
  6
CONTINUOUS
 62
    5
 10
2295.8945150000004
 20
885.19007999999997
 11
2299.7047950000001
 21
889.00036
  0
LINE
  8
_0-1_レイヤ___1
  6
CONTINUOUS
 62
    5
 10
2553.7047950000001
 20
889.00036
 11
2549.894515
 21
892.81063000000006
  0
LINE
  8
_0-1_レイヤ___1
  6
CONTINUOUS
 62
    5
 10
2549.894515
 20
892.81063000000006
 11
2546.084245
 21
889.00036
  0
LINE
  8
_0-1_レイヤ___1
  6
CONTINUOUS
 62
    5
 10
2546.084245
 20
889.00036
 11
2549.894515
 21
885.19007999999997
  0
LINE
  8
_0-1_レイヤ___1
  6
CONTINUOUS
 62
    5
 10
2549.894515
 20
885.19007999999997
 11
2553.7047950000001
 21
889.00036
  0
LINE
  8
_0-1_レイヤ___1
  6
CONTINUOUS
 62
    5
 10
2295.8945150000004
 20
889.00036
 11
2549.894515
 21
889.00036
  0
LINE
  8
_0-1_レイヤ___1
  6
CONTINUOUS
 62
    5
 10
1366.256165
 20
1568.87273
 11
1571.1497750000001
 21
1568.87273
  0
LINE
  8
_0-1_レイヤ___1
  6
CONTINUOUS
 62
    5
 10
1461.0824250000001
 20
1822.87273
 11
1571.1497750000001
 21
1822.87273
  0
LINE
  8
_0-1_レイヤ___1
  6
CONTINUOUS
 62
    5
 10
1564.8004650000003
 20
1568.87273
 11
1561.200345
 21
1572.683
  0
LINE
  8
_0-1_レイヤ___1
  6
CONTINUOUS
 62
    5
 10
1561.200345
 20
1572.683
 11
1557.6036650000001
 21
1568.87273
  0
LINE
  8
_0-1_レイヤ___1
  6
CONTINUOUS
 62
    5
 10
1557.6036650000001
 20
1568.87273
 11
1561.200345
 21
1565.0624500000001
  0
LINE
  8
_0-1_レイヤ___1
  6
CONTINUOUS
 62
    5
 10
1561.200345
 20
1565.0624500000001
 11
1564.8004650000003
 21
1568.87273
  0
LINE
  8
_0-1_レイヤ___1
  6
CONTINUOUS
 62
    5
 10
1564.8004650000003
 20
1822.87273
 11
1561.200345
 21
1826.683
  0
LINE
  8
_0-1_レイヤ___1
  6
CONTINUOUS
 62
    5
 10
1561.200345
 20
1826.683
 11
1557.6036650000001
 21
1822.87273
  0
LINE
  8
_0-1_レイヤ___1
  6
CONTINUOUS
 62
    5
 10
1557.6036650000001
 20
1822.87273
 11
1561.200345
 21
1819.0624500000001
  0
LINE
  8
_0-1_レイヤ___1
  6
CONTINUOUS
 62
    5
 10
1561.200345
 20
1819.0624500000001
 11
1564.8004650000003
 21
1822.87273
  0
LINE
  8
_0-1_レイヤ___1
  6
CONTINUOUS
 62
    5
 10
1560.9901950000003
 20
1568.87273
 11
1560.9901950000003
 21
1822.87273
  0
LINE
  8
_0-1_レイヤ___1
  6
CONTINUOUS
 62
    5
 10
859.94943500000022
 20
1770.8035500000001
 11
829.04520500000012
 21
1770.8035500000001
  0
LINE
  8
_0-1_レイヤ___1
  6
CONTINUOUS
 62
    5
 10
895.0859650000001
 20
1822.87273
 11
829.04520500000012
 21
1822.87273
  0
LINE
  8
_0-1_レイヤ___1
  6
CONTINUOUS
 62
    5
 10
843.01506500000016
 20
1771.0137
 11
839.2047950000001
 21
1774.6120999999998
  0
LINE
  8
_0-1_レイヤ___1
  6
CONTINUOUS
 62
    5
 10
839.2047950000001
 20
1774.6120999999998
 11
835.39623500000016
 21
1771.0137
  0
LINE
  8
_0-1_レイヤ___1
  6
CONTINUOUS
 62
    5
 10
835.39623500000016
 20
1771.0137
 11
839.2047950000001
 21
1767.4170200000001
  0
LINE
  8
_0-1_レイヤ___1
  6
CONTINUOUS
 62
    5
 10
839.2047950000001
 20
1767.4170200000001
 11
843.01506500000016
 21
1771.0137
  0
LINE
  8
_0-1_レイヤ___1
  6
CONTINUOUS
 62
    5
 10
843.01506500000016
 20
1822.87273
 11
839.2047950000001
 21
1826.683
  0
LINE
  8
_0-1_レイヤ___1
  6
CONTINUOUS
 62
    5
 10
839.2047950000001
 20
1826.683
 11
835.39623500000016
 21
1822.87273
  0
LINE
  8
_0-1_レイヤ___1
  6
CONTINUOUS
 62
    5
 10
835.39623500000016
 20
1822.87273
 11
839.2047950000001
 21
1819.0624500000001
  0
LINE
  8
_0-1_レイヤ___1
  6
CONTINUOUS
 62
    5
 10
839.2047950000001
 20
1819.0624500000001
 11
843.01506500000016
 21
1822.87273
  0
LINE
  8
_0-1_レイヤ___1
  6
CONTINUOUS
 62
    5
 10
839.2047950000001
 20
1770.8035500000001
 11
839.2047950000001
 21
1822.87273
  0
LINE
  8
_0-1_レイヤ___1
  6
CONTINUOUS
 62
    5
 10
602.98492500000009
 20
1842.7698699999999
 11
602.98492500000009
 21
1893.1457800000001
  0
LINE
  8
_0-1_レイヤ___1
  6
CONTINUOUS
 62
    5
 10
716.86256500000013
 20
1833.45606
 11
716.86256500000013
 21
1893.1457800000001
  0
LINE
  8
_0-1_レイヤ___1
  6
CONTINUOUS
 62
    5
 10
606.79520500000024
 20
1882.9862000000001
 11
602.98492500000009
 21
1886.7964699999998
  0
LINE
  8
_0-1_レイヤ___1
  6
CONTINUOUS
 62
    5
 10
602.98492500000009
 20
1886.7964699999998
 11
599.17637500000012
 21
1882.9862000000001
  0
LINE
  8
_0-1_レイヤ___1
  6
CONTINUOUS
 62
    5
 10
599.17637500000012
 20
1882.9862000000001
 11
602.98492500000009
 21
1879.1759200000001
  0
LINE
  8
_0-1_レイヤ___1
  6
CONTINUOUS
 62
    5
 10
602.98492500000009
 20
1879.1759200000001
 11
606.79520500000024
 21
1882.9862000000001
  0
LINE
  8
_0-1_レイヤ___1
  6
CONTINUOUS
 62
    5
 10
720.67283500000019
 20
1882.9862000000001
 11
716.86256500000013
 21
1886.7964699999998
  0
LINE
  8
_0-1_レイヤ___1
  6
CONTINUOUS
 62
    5
 10
716.86256500000013
 20
1886.7964699999998
 11
713.0522850000001
 21
1882.9862000000001
  0
LINE
  8
_0-1_レイヤ___1
  6
CONTINUOUS
 62
    5
 10
713.0522850000001
 20
1882.9862000000001
 11
716.86256500000013
 21
1879.1759200000001
  0
LINE
  8
_0-1_レイヤ___1
  6
CONTINUOUS
 62
    5
 10
716.86256500000013
 20
1879.1759200000001
 11
720.67283500000019
 21
1882.9862000000001
  0
LINE
  8
_0-1_レイヤ___1
  6
CONTINUOUS
 62
    5
 10
602.98492500000009
 20
1882.9862000000001
 11
716.86256500000013
 21
1882.9862000000001
  0
LINE
  8
_0-1_レイヤ___1
  6
CONTINUOUS
 62
    5
 10
602.98492500000009
 20
1244.1759199999999
 11
602.98492500000009
 21
1145.11565
  0
LINE
  8
_0-1_レイヤ___1
  6
CONTINUOUS
 62
    5
 10
1258.7295750000001
 20
1372.8691900000001
 11
1258.7295750000001
 21
1145.11565
  0
LINE
  8
_0-1_レイヤ___1
  6
CONTINUOUS
 62
    5
 10
606.79520500000024
 20
1154.85321
 11
602.98492500000009
 21
1158.6634799999999
  0
LINE
  8
_0-1_レイヤ___1
  6
CONTINUOUS
 62
    5
 10
602.98492500000009
 20
1158.6634799999999
 11
599.17637500000012
 21
1154.85321
  0
LINE
  8
_0-1_レイヤ___1
  6
CONTINUOUS
 62
    5
 10
599.17637500000012
 20
1154.85321
 11
602.98492500000009
 21
1151.0429300000001
  0
LINE
  8
_0-1_レイヤ___1
  6
CONTINUOUS
 62
    5
 10
602.98492500000009
 20
1151.0429300000001
 11
606.79520500000024
 21
1154.85321
  0
LINE
  8
_0-1_レイヤ___1
  6
CONTINUOUS
 62
    5
 10
1262.538125
 20
1154.85321
 11
1258.9414450000002
 21
1158.6634799999999
  0
LINE
  8
_0-1_レイヤ___1
  6
CONTINUOUS
 62
    5
 10
1258.9414450000002
 20
1158.6634799999999
 11
1255.3430450000001
 21
1154.85321
  0
LINE
  8
_0-1_レイヤ___1
  6
CONTINUOUS
 62
    5
 10
1255.3430450000001
 20
1154.85321
 11
1258.9414450000002
 21
1151.0429300000001
  0
LINE
  8
_0-1_レイヤ___1
  6
CONTINUOUS
 62
    5
 10
1258.9414450000002
 20
1151.0429300000001
 11
1262.538125
 21
1154.85321
  0
LINE
  8
_0-1_レイヤ___1
  6
CONTINUOUS
 62
    5
 10
602.98492500000009
 20
1154.85321
 11
1258.7295750000001
 21
1154.85321
  0
LINE
  8
_0-1_レイヤ___1
  6
CONTINUOUS
 62
    5
 10
1273.1214550000002
 20
1521.8833500000001
 11
1303.1781950000002
 21
1422.8230699999999
  0
LINE
  8
_0-1_レイヤ___1
  6
CONTINUOUS
 62
    5
 10
1303.1781950000002
 20
1422.8230699999999
 11
1422.1356150000001
 21
1422.8230699999999
  0
LINE
  8
_0-1_レイヤ___1
  6
CONTINUOUS
 62
    5
 10
1248.5682650000001
 20
1615.8620999999998
 11
1244.7597050000002
 21
1619.67238
  0
LINE
  8
_0-1_レイヤ___1
  6
CONTINUOUS
 62
    5
 10
1244.7597050000002
 20
1619.67238
 11
1240.9494350000002
 21
1615.8620999999998
  0
LINE
  8
_0-1_レイヤ___1
  6
CONTINUOUS
 62
    5
 10
1240.9494350000002
 20
1615.8620999999998
 11
1244.7597050000002
 21
1612.0535500000001
  0
LINE
  8
_0-1_レイヤ___1
  6
CONTINUOUS
 62
    5
 10
1244.7597050000002
 20
1612.0535500000001
 11
1248.5682650000001
 21
1615.8620999999998
  0
LINE
  8
_0-1_レイヤ___1
  6
CONTINUOUS
 62
    5
 10
1276.9317350000001
 20
1522.0952199999999
 11
1273.1214550000002
 21
1525.69362
  0
LINE
  8
_0-1_レイヤ___1
  6
CONTINUOUS
 62
    5
 10
1273.1214550000002
 20
1525.69362
 11
1269.3129050000002
 21
1522.0952199999999
  0
LINE
  8
_0-1_レイヤ___1
  6
CONTINUOUS
 62
    5
 10
1269.3129050000002
 20
1522.0952199999999
 11
1273.1214550000002
 21
1518.4968200000001
  0
LINE
  8
_0-1_レイヤ___1
  6
CONTINUOUS
 62
    5
 10
1273.1214550000002
 20
1518.4968200000001
 11
1276.9317350000001
 21
1522.0952199999999
  0
LINE
  8
_0-1_レイヤ___1
  6
CONTINUOUS
 62
    5
 10
1244.7597050000002
 20
1615.8620999999998
 11
1273.1214550000002
 21
1521.8833500000001
  0
LINE
  8
_0-1_レイヤ___1
  6
CONTINUOUS
 62
    5
 10
920.06290500000023
 20
1829.6457799999998
 11
920.06290500000023
 21
1893.1457800000001
  0
LINE
  8
_0-1_レイヤ___1
  6
CONTINUOUS
 62
    5
 10
1022.0859650000001
 20
1830.9170199999999
 11
1022.0859650000001
 21
1893.1457800000001
  0
LINE
  8
_0-1_レイヤ___1
  6
CONTINUOUS
 62
    5
 10
923.44943500000011
 20
1882.9862000000001
 11
919.85103500000025
 21
1886.7964699999998
  0
LINE
  8
_0-1_レイヤ___1
  6
CONTINUOUS
 62
    5
 10
919.85103500000025
 20
1886.7964699999998
 11
916.25262500000019
 21
1882.9862000000001
  0
LINE
  8
_0-1_レイヤ___1
  6
CONTINUOUS
 62
    5
 10
916.25262500000019
 20
1882.9862000000001
 11
919.85103500000025
 21
1879.1759200000001
  0
LINE
  8
_0-1_レイヤ___1
  6
CONTINUOUS
 62
    5
 10
919.85103500000025
 20
1879.1759200000001
 11
923.44943500000011
 21
1882.9862000000001
  0
LINE
  8
_0-1_レイヤ___1
  6
CONTINUOUS
 62
    5
 10
1025.4724950000002
 20
1882.9862000000001
 11
1021.8740850000002
 21
1886.7964699999998
  0
LINE
  8
_0-1_レイヤ___1
  6
CONTINUOUS
 62
    5
 10
1021.8740850000002
 20
1886.7964699999998
 11
1018.2756850000001
 21
1882.9862000000001
  0
LINE
  8
_0-1_レイヤ___1
  6
CONTINUOUS
 62
    5
 10
1018.2756850000001
 20
1882.9862000000001
 11
1021.8740850000002
 21
1879.1759200000001
  0
LINE
  8
_0-1_レイヤ___1
  6
CONTINUOUS
 62
    5
 10
1021.8740850000002
 20
1879.1759200000001
 11
1025.4724950000002
 21
1882.9862000000001
  0
LINE
  8
_0-1_レイヤ___1
  6
CONTINUOUS
 62
    5
 10
920.06290500000023
 20
1882.9862000000001
 11
1022.0859650000001
 21
1882.9862000000001
  0
LINE
  8
_0-1_レイヤ___1
  6
CONTINUOUS
 62
    5
 10
1123.685275
 20
1830.9170199999999
 11
1123.685275
 21
1893.1457800000001
  0
LINE
  8
_0-1_レイヤ___1
  6
CONTINUOUS
 62
    5
 10
1025.4724950000002
 20
1882.9862000000001
 11
1021.8740850000002
 21
1886.7964699999998
  0
LINE
  8
_0-1_レイヤ___1
  6
CONTINUOUS
 62
    5
 10
1021.8740850000002
 20
1886.7964699999998
 11
1018.2756850000001
 21
1882.9862000000001
  0
LINE
  8
_0-1_レイヤ___1
  6
CONTINUOUS
 62
    5
 10
1018.2756850000001
 20
1882.9862000000001
 11
1021.8740850000002
 21
1879.1759200000001
  0
LINE
  8
_0-1_レイヤ___1
  6
CONTINUOUS
 62
    5
 10
1021.8740850000002
 20
1879.1759200000001
 11
1025.4724950000002
 21
1882.9862000000001
  0
LINE
  8
_0-1_レイヤ___1
  6
CONTINUOUS
 62
    5
 10
1127.4955450000002
 20
1882.9862000000001
 11
1123.8971450000001
 21
1886.7964699999998
  0
LINE
  8
_0-1_レイヤ___1
  6
CONTINUOUS
 62
    5
 10
1123.8971450000001
 20
1886.7964699999998
 11
1120.2987450000003
 21
1882.9862000000001
  0
LINE
  8
_0-1_レイヤ___1
  6
CONTINUOUS
 62
    5
 10
1120.2987450000003
 20
1882.9862000000001
 11
1123.8971450000001
 21
1879.1759200000001
  0
LINE
  8
_0-1_レイヤ___1
  6
CONTINUOUS
 62
    5
 10
1123.8971450000001
 20
1879.1759200000001
 11
1127.4955450000002
 21
1882.9862000000001
  0
LINE
  8
_0-1_レイヤ___1
  6
CONTINUOUS
 62
    5
 10
1022.0859650000001
 20
1882.9862000000001
 11
1123.685275
 21
1882.9862000000001
  0
LINE
  8
_0-1_レイヤ___1
  6
CONTINUOUS
 62
    5
 10
1440.7615250000001
 20
1842.7698699999999
 11
1440.7615250000001
 21
1897.8035500000001
  0
LINE
  8
_0-1_レイヤ___1
  6
CONTINUOUS
 62
    5
 10
1326.8856150000001
 20
1830.9170199999999
 11
1326.8856150000001
 21
1897.8035500000001
  0
LINE
  8
_0-1_レイヤ___1
  6
CONTINUOUS
 62
    5
 10
1444.5718050000003
 20
1888.0659900000001
 11
1440.7615250000001
 21
1891.87627
  0
LINE
  8
_0-1_レイヤ___1
  6
CONTINUOUS
 62
    5
 10
1440.7615250000001
 20
1891.87627
 11
1436.9529750000002
 21
1888.0659900000001
  0
LINE
  8
_0-1_レイヤ___1
  6
CONTINUOUS
 62
    5
 10
1436.9529750000002
 20
1888.0659900000001
 11
1440.7615250000001
 21
1884.2557099999999
  0
LINE
  8
_0-1_レイヤ___1
  6
CONTINUOUS
 62
    5
 10
1440.7615250000001
 20
1884.2557099999999
 11
1444.5718050000003
 21
1888.0659900000001
  0
LINE
  8
_0-1_レイヤ___1
  6
CONTINUOUS
 62
    5
 10
1330.6958950000001
 20
1888.0659900000001
 11
1326.8856150000001
 21
1891.87627
  0
LINE
  8
_0-1_レイヤ___1
  6
CONTINUOUS
 62
    5
 10
1326.8856150000001
 20
1891.87627
 11
1323.0753450000002
 21
1888.0659900000001
  0
LINE
  8
_0-1_レイヤ___1
  6
CONTINUOUS
 62
    5
 10
1323.0753450000002
 20
1888.0659900000001
 11
1326.8856150000001
 21
1884.2557099999999
  0
LINE
  8
_0-1_レイヤ___1
  6
CONTINUOUS
 62
    5
 10
1326.8856150000001
 20
1884.2557099999999
 11
1330.6958950000001
 21
1888.0659900000001
  0
LINE
  8
_0-1_レイヤ___1
  6
CONTINUOUS
 62
    5
 10
1440.7615250000001
 20
1888.0659900000001
 11
1326.8856150000001
 21
1888.0659900000001
  0
LINE
  8
_0-1_レイヤ___1
  6
CONTINUOUS
 62
    7
 10
1224.4388150000002
 20
1568.87273
 11
1262.8172405793591
 21
1568.87273
  0
LINE
  8
_0-1_レイヤ___1
  6
CONTINUOUS
 62
    7
 10
1258.7295750000001
 20
1603.5855100000001
 11
1258.7295750000001
 21
1567.0896625110954
  0
CIRCLE
  8
_0-1_レイヤ___1
  6
CONTINUOUS
 62
    7
 10
1258.7295750000001
 20
1568.87273
 40
71.120559999999955
  0
CIRCLE
  8
_0-1_レイヤ___1
  6
CONTINUOUS
 62
    7
 10
1326.8856150000001
 20
1770.8035500000001
 40
29.209240000000136
  0
LINE
  8
_0-1_レイヤ___1
  6
CONTINUOUS
 62
    7
 10
1123.685275
 20
1756.40994
 11
1123.685275
 21
1772.1980570348853
  0
CIRCLE
  8
_0-1_レイヤ___1
  6
CONTINUOUS
 62
    7
 10
1123.685275
 20
1770.8035500000001
 40
29.635467360596813
  0
LINE
  8
_0-1_レイヤ___1
  6
CONTINUOUS
 62
    7
 10
1036.4795750000003
 20
1770.8035500000001
 11
1021.1050733164778
 21
1770.8035500000001
  0
LINE
  8
_0-1_レイヤ___1
  6
CONTINUOUS
 62
    7
 10
1022.0859650000001
 20
1756.40994
 11
1022.0859650000001
 21
1771.9003979621111
  0
CIRCLE
  8
_0-1_レイヤ___1
  6
CONTINUOUS
 62
    7
 10
1022.0859650000001
 20
1770.8035500000001
 40
30.057486797169179
  0
LINE
  8
_0-1_レイヤ___1
  6
CONTINUOUS
 62
    7
 10
934.45479500000022
 20
1770.8035500000001
 11
919.08690894053075
 21
1770.8035500000001
  0
LINE
  8
_0-1_レイヤ___1
  6
CONTINUOUS
 62
    7
 10
920.06290500000023
 20
1756.40994
 11
920.06290500000023
 21
1771.5023237804496
  0
CIRCLE
  8
_0-1_レイヤ___1
  6
CONTINUOUS
 62
    7
 10
920.06290500000023
 20
1770.8035500000001
 40
29.635467360596813
  0
LINE
  8
_0-1_レイヤ___1
  6
CONTINUOUS
 62
    7
 10
744.8022850000001
 20
1770.8035500000001
 11
715.60824266835198
 21
1770.8035500000001
  0
LINE
  8
_0-1_レイヤ___1
  6
CONTINUOUS
 62
    7
 10
716.86256500000013
 20
1756.40994
 11
716.86256500000013
 21
1771.626049539615
  0
CIRCLE
  8
_0-1_レイヤ___1
  6
CONTINUOUS
 62
    7
 10
716.86256500000013
 20
1770.8035500000001
 40
30.057464652152568
  0
TEXT
  8
_0-7_
 62
    7
 10
643.67775081516129
 20
1988.7420350631555
 40
38.006293402777779
 41
1
 50
0
  1
φ60
  0
LINE
  8
_0-7_
  6
CONTINUOUS
 62
    7
 10
643.67775081516129
 20
1983.5914795075998
 11
792.1540158094956
 21
1983.5914795075998
  0
LINE
  8
_0-7_
  6
CONTINUOUS
 62
    7
 10
792.1540158094956
 20
1983.5914795075998
 11
896.53197557694284
 21
1802.8035499999999
  0
SOLID
  8
_0-7_
  6
CONTINUOUS
 62
    7
 10
896.53197557694284
 20
1802.8035499999999
 11
882.14958817261368
 21
1817.6969481418628
 12
891.5231617886559
 22
1822.8928048416935
 13
891.5231617886559
 23
1822.8928048416935
  0
LINE
  8
_0-7_
  6
CONTINUOUS
 62
    7
 10
582.86256507450594
 20
1822.8035499999999
 11
425.1112632747882
 21
1822.8035499999999
  0
LINE
  8
_0-7_
  6
CONTINUOUS
 62
    7
 10
582.86256507450594
 20
1263.8035499999999
 11
425.1112632747882
 21
1263.8035499999999
  0
LINE
  8
_0-7_
  6
CONTINUOUS
 62
    7
 10
435.1112632375353
 20
1822.8035499999999
 11
435.1112632375353
 21
1263.8035499999999
  0
CIRCLE
  8
_0-7_
  6
CONTINUOUS
 62
    7
 10
435.1112632375353
 20
1822.8035499999999
 40
3.751708984375
  0
CIRCLE
  8
_0-7_
  6
CONTINUOUS
 62
    7
 10
435.1112632375353
 20
1263.8035499999999
 40
3.751708984375
  0
TEXT
  8
_0-7_
 62
    7
 10
423.19681881171732
 20
1506.2618833333331
 40
38.006293402777779
 41
1
 50
90
  1
559
  0
LINE
  8
_0-7_
  6
CONTINUOUS
 62
    7
 10
602.86256500000013
 20
1243.8035500745057
 11
602.86256500000013
 21
1083.8035500372528
  0
LINE
  8
_0-7_
  6
CONTINUOUS
 62
    7
 10
1440.8625649999999
 20
1243.8035500745057
 11
1440.8625649999999
 21
1083.8035500372528
  0
LINE
  8
_0-7_
  6
CONTINUOUS
 62
    7
 10
602.86256500000013
 20
1093.8035499999999
 11
1440.8625649999999
 21
1093.8035499999999
  0
CIRCLE
  8
_0-7_
  6
CONTINUOUS
 62
    7
 10
602.86256500000013
 20
1093.8035499999999
 40
3.751708984375
  0
CIRCLE
  8
_0-7_
  6
CONTINUOUS
 62
    7
 10
1440.8625649999999
 20
1093.8035499999999
 40
3.751708984375
  0
TEXT
  8
_0-7_
 62
    7
 10
984.8208983333335
 20
1105.717994425818
 40
38.006293402777779
 41
1
 50
0
  1
838
  0
LINE
  8
_0-7_
  6
CONTINUOUS
 62
    7
 10
1440.8625649999999
 20
1243.8035500745057
 11
1440.8625649999999
 21
1144.803550037253
  0
LINE
  8
_0-7_
  6
CONTINUOUS
 62
    7
 10
1258.8625649999999
 20
1372.8035500745057
 11
1258.8625649999999
 21
1144.803550037253
  0
LINE
  8
_0-7_
  6
CONTINUOUS
 62
    7
 10
1440.8625649999999
 20
1154.8035500000001
 11
1258.8625649999999
 21
1154.8035500000001
  0
CIRCLE
  8
_0-7_
  6
CONTINUOUS
 62
    7
 10
1440.8625649999999
 20
1154.8035500000001
 40
3.751708984375
  0
CIRCLE
  8
_0-7_
  6
CONTINUOUS
 62
    7
 10
1258.8625649999999
 20
1154.8035500000001
 40
3.751708984375
  0
TEXT
  8
_0-7_
 62
    7
 10
1312.8208983333332
 20
1166.7179944258178
 40
38.006293402777779
 41
1
 50
0
  1
182
  0
LINE
  8
_0-7_
  6
CONTINUOUS
 62
    7
 10
582.86256507450594
 20
763.80354999999997
 11
425.1112632747882
 21
763.80354999999997
  0
LINE
  8
_0-7_
  6
CONTINUOUS
 62
    7
 10
1145.1112633120417
 20
519.80354999999986
 11
425.1112632747882
 21
519.80354999999986
  0
LINE
  8
_0-7_
  6
CONTINUOUS
 62
    7
 10
435.1112632375353
 20
763.80354999999997
 11
435.1112632375353
 21
519.80354999999986
  0
CIRCLE
  8
_0-7_
  6
CONTINUOUS
 62
    7
 10
435.1112632375353
 20
763.80354999999997
 40
3.751708984375
  0
CIRCLE
  8
_0-7_
  6
CONTINUOUS
 62
    7
 10
435.1112632375353
 20
519.80354999999986
 40
3.751708984375
  0
TEXT
  8
_0-7_
 62
    7
 10
423.19681881171732
 20
604.76188333333221
 40
38.006293402777779
 41
1
 50
90
  1
244
  0
LINE
  8
_0-7_
  6
CONTINUOUS
 62
    7
 10
582.86256507450594
 20
763.80354999999997
 11
527.11126327478837
 21
763.80354999999997
  0
LINE
  8
_0-7_
  6
CONTINUOUS
 62
    7
 10
582.86256507450594
 20
749.80354999999986
 11
527.11126327478837
 21
749.80354999999986
  0
LINE
  8
_0-7_
  6
CONTINUOUS
 62
    7
 10
537.11126323753547
 20
763.80354999999997
 11
537.11126323753547
 21
749.80354999999986
  0
CIRCLE
  8
_0-7_
  6
CONTINUOUS
 62
    7
 10
537.11126323753547
 20
763.80354999999997
 40
3.751708984375
  0
CIRCLE
  8
_0-7_
  6
CONTINUOUS
 62
    7
 10
537.11126323753547
 20
749.80354999999986
 40
3.751708984375
  0
TEXT
  8
_0-7_
 62
    7
 10
525.19681881171721
 20
732.10910555555552
 40
38.006293402777779
 41
1
 50
90
  1
14
  0
LINE
  8
_0-7_
  6
CONTINUOUS
 62
    7
 10
1990.8625650000001
 20
783.80354992549417
 11
1990.8625650000001
 21
966.80354996274696
  0
LINE
  8
_0-7_
  6
CONTINUOUS
 62
    7
 10
2549.8625650000008
 20
783.80354992549417
 11
2549.8625650000008
 21
966.80354996274696
  0
LINE
  8
_0-7_
  6
CONTINUOUS
 62
    7
 10
1990.8625650000001
 20
956.80354999999986
 11
2549.8625650000008
 21
956.80354999999986
  0
CIRCLE
  8
_0-7_
  6
CONTINUOUS
 62
    7
 10
1990.8625650000001
 20
956.80354999999986
 40
3.751708984375
  0
CIRCLE
  8
_0-7_
  6
CONTINUOUS
 62
    7
 10
2549.8625650000008
 20
956.80354999999986
 40
3.751708984375
  0
TEXT
  8
_0-7_
 62
    7
 10
2233.3208983333338
 20
968.71799442581778
 40
38.006293402777779
 41
1
 50
0
  1
559
  0
LINE
  8
_0-7_
  6
CONTINUOUS
 62
    7
 10
2295.8625649999999
 20
662.80354992549405
 11
2295.8625649999999
 21
898.80354996274707
  0
LINE
  8
_0-7_
  6
CONTINUOUS
 62
    7
 10
2549.8625650000008
 20
783.80354992549417
 11
2549.8625650000008
 21
898.80354996274707
  0
LINE
  8
_0-7_
  6
CONTINUOUS
 62
    7
 10
2295.8625649999999
 20
888.80354999999997
 11
2549.8625650000008
 21
888.80354999999997
  0
CIRCLE
  8
_0-7_
  6
CONTINUOUS
 62
    7
 10
2295.8625649999999
 20
888.80354999999997
 40
3.751708984375
  0
CIRCLE
  8
_0-7_
  6
CONTINUOUS
 62
    7
 10
2549.8625650000008
 20
888.80354999999997
 40
3.751708984375
  0
TEXT
  8
_0-7_
 62
    7
 10
2385.8208983333338
 20
900.71799442581789
 40
38.006293402777779
 41
1
 50
0
  1
254
  0
LINE
  8
_0-7_
  6
CONTINUOUS
 62
    7
 10
1366.3625649254941
 20
1568.8035500000001
 11
1571.1112632002828
 21
1568.8035500000001
  0
LINE
  8
_0-7_
  6
CONTINUOUS
 62
    7
 10
1460.8625649254941
 20
1822.8035499999999
 11
1571.1112632002828
 21
1822.8035499999999
  0
LINE
  8
_0-7_
  6
CONTINUOUS
 62
    7
 10
1561.1112632375357
 20
1568.8035500000001
 11
1561.1112632375357
 21
1822.8035499999999
  0
CIRCLE
  8
_0-7_
  6
CONTINUOUS
 62
    7
 10
1561.1112632375357
 20
1568.8035500000001
 40
3.751708984375
  0
CIRCLE
  8
_0-7_
  6
CONTINUOUS
 62
    7
 10
1561.1112632375357
 20
1822.8035499999999
 40
3.751708984375
  0
TEXT
  8
_0-7_
 62
    7
 10
1549.1968188117178
 20
1658.7618833333331
 40
38.006293402777779
 41
1
 50
90
  1
254
  0
LINE
  8
_0-7_
  6
CONTINUOUS
 62
    7
 10
859.86256507450571
 20
1770.8035500000001
 11
829.11126327478883
 21
1770.8035500000001
  0
LINE
  8
_0-7_
  6
CONTINUOUS
 62
    7
 10
894.98821601161808
 20
1822.8035499999999
 11
829.11126327478883
 21
1822.8035499999999
  0
LINE
  8
_0-7_
  6
CONTINUOUS
 62
    7
 10
839.11126323753592
 20
1770.8035500000001
 11
839.11126323753592
 21
1822.8035499999999
  0
CIRCLE
  8
_0-7_
  6
CONTINUOUS
 62
    7
 10
839.11126323753592
 20
1770.8035500000001
 40
3.751708984375
  0
CIRCLE
  8
_0-7_
  6
CONTINUOUS
 62
    7
 10
839.11126323753592
 20
1822.8035499999999
 40
3.751708984375
  0
TEXT
  8
_0-7_
 62
    7
 10
827.19681881171766
 20
1772.1091055555553
 40
38.006293402777779
 41
1
 50
90
  1
52
  0
LINE
  8
_0-7_
  6
CONTINUOUS
 62
    7
 10
602.86256500000013
 20
1842.8035499254941
 11
602.86256500000013
 21
1892.803549962747
  0
LINE
  8
_0-7_
  6
CONTINUOUS
 62
    7
 10
716.86256500000013
 20
1833.3035498509885
 11
716.86256500000013
 21
1892.803549962747
  0
LINE
  8
_0-7_
  6
CONTINUOUS
 62
    7
 10
602.86256500000013
 20
1882.8035499999999
 11
716.86256500000013
 21
1882.8035499999999
  0
CIRCLE
  8
_0-7_
  6
CONTINUOUS
 62
    7
 10
602.86256500000013
 20
1882.8035499999999
 40
3.751708984375
  0
CIRCLE
  8
_0-7_
  6
CONTINUOUS
 62
    7
 10
716.86256500000013
 20
1882.8035499999999
 40
3.751708984375
  0
TEXT
  8
_0-7_
 62
    7
 10
622.82089833333339
 20
1894.7179944258178
 40
38.006293402777779
 41
1
 50
0
  1
114
  0
LINE
  8
_0-7_
  6
CONTINUOUS
 62
    7
 10
602.86256500000013
 20
1243.8035500745057
 11
602.86256500000013
 21
1144.803550037253
  0
LINE
  8
_0-7_
  6
CONTINUOUS
 62
    7
 10
1258.8625649999999
 20
1372.8035500745057
 11
1258.8625649999999
 21
1144.803550037253
  0
LINE
  8
_0-7_
  6
CONTINUOUS
 62
    7
 10
602.86256500000013
 20
1154.8035500000001
 11
1258.8625649999999
 21
1154.8035500000001
  0
CIRCLE
  8
_0-7_
  6
CONTINUOUS
 62
    7
 10
602.86256500000013
 20
1154.8035500000001
 40
3.751708984375
  0
CIRCLE
  8
_0-7_
  6
CONTINUOUS
 62
    7
 10
1258.8625649999999
 20
1154.8035500000001
 40
3.751708984375
  0
TEXT
  8
_0-7_
 62
    7
 10
893.82089833333339
 20
1166.7179944258178
 40
38.006293402777779
 41
1
 50
0
  1
656
  0
LINE
  8
_0-7_
  6
CONTINUOUS
 62
    7
 10
1273.1112632375348
 20
1521.9209882255473
 11
1303.2353523209713
 21
1422.8035499999999
  0
LINE
  8
_0-7_
  6
CONTINUOUS
 62
    7
 10
1303.2353523209713
 20
1422.8035499999999
 11
1422.0131300242433
 21
1422.8035499999999
  0
LINE
  8
_0-7_
  6
CONTINUOUS
 62
    7
 10
1244.6138667624652
 20
1615.6861117744525
 11
1273.1112632375348
 21
1521.9209882255473
  0
CIRCLE
  8
_0-7_
  6
CONTINUOUS
 62
    7
 10
1244.6138667624652
 20
1615.6861117744525
 40
3.751708984375
  0
CIRCLE
  8
_0-7_
  6
CONTINUOUS
 62
    7
 10
1273.1112632375348
 20
1521.9209882255473
 40
3.751708984375
  0
TEXT
  8
_0-7_
 62
    7
 10
1323.2353522464659
 20
1434.7179944258182
 40
38.006293402777779
 41
1
 50
0
  1
φ98
  0
LINE
  8
_0-7_
  6
CONTINUOUS
 62
    7
 10
919.8625649999999
 20
1829.3035499254941
 11
919.8625649999999
 21
1892.803549962747
  0
LINE
  8
_0-7_
  6
CONTINUOUS
 62
    7
 10
919.8625649999999
 20
1882.8035499999999
 11
1021.862565
 21
1882.8035499999999
  0
CIRCLE
  8
_0-7_
  6
CONTINUOUS
 62
    7
 10
919.8625649999999
 20
1882.8035499999999
 40
3.751708984375
  0
CIRCLE
  8
_0-7_
  6
CONTINUOUS
 62
    7
 10
1021.862565
 20
1882.8035499999999
 40
3.751708984375
  0
TEXT
  8
_0-7_
 62
    7
 10
933.82089833333339
 20
1894.7179944258178
 40
38.006293402777779
 41
1
 50
0
  1
102
  0
LINE
  8
_0-7_
  6
CONTINUOUS
 62
    7
 10
1021.862565
 20
1830.8035499254943
 11
1021.862565
 21
1892.803549962747
  0
LINE
  8
_0-7_
  6
CONTINUOUS
 62
    7
 10
1123.8625649999999
 20
1830.8035499254943
 11
1123.8625649999999
 21
1892.803549962747
  0
LINE
  8
_0-7_
  6
CONTINUOUS
 62
    7
 10
1021.862565
 20
1882.8035499999999
 11
1123.8625649999999
 21
1882.8035499999999
  0
CIRCLE
  8
_0-7_
  6
CONTINUOUS
 62
    7
 10
1021.862565
 20
1882.8035499999999
 40
3.751708984375
  0
CIRCLE
  8
_0-7_
  6
CONTINUOUS
 62
    7
 10
1123.8625649999999
 20
1882.8035499999999
 40
3.751708984375
  0
TEXT
  8
_0-7_
 62
    7
 10
1035.8208983333329
 20
1894.7179944258178
 40
38.006293402777779
 41
1
 50
0
  1
102
  0
LINE
  8
_0-7_
  6
CONTINUOUS
 62
    7
 10
1326.8625650000001
 20
1830.8035499254943
 11
1326.8625650000001
 21
1897.8035499441205
  0
LINE
  8
_0-7_
  6
CONTINUOUS
 62
    7
 10
1440.8625649999999
 20
1887.8035499813734
 11
1326.8625650000001
 21
1887.8035499813734
  0
CIRCLE
  8
_0-7_
  6
CONTINUOUS
 62
    7
 10
1440.8625649999999
 20
1887.8035499813734
 40
3.751708984375
  0
CIRCLE
  8
_0-7_
  6
CONTINUOUS
 62
    7
 10
1326.8625650000001
 20
1887.8035499813734
 40
3.751708984375
  0
TEXT
  8
_0-7_
 62
    7
 10
1346.8208983333329
 20
1899.7179944071913
 40
38.006293402777779
 41
1
 50
0
  1
114
  0
LINE
  8
_f-0_
  6
CONTINUOUS
 62
    7
 10
145.92190945814195
 20
272.17690842700108
 11
2782.5613812702341
 21
272.17690842700108
  0
LINE
  8
_f-0_
  6
CONTINUOUS
 62
    7
 10
93.498778584810225
 20
2041.1430038495319
 11
2835.164073948858
 21
2041.1430038495319
  0
LINE
  8
_f-0_
  6
CONTINUOUS
 62
    7
 10
2835.164073948858
 20
2041.1430038495319
 11
2835.164073948858
 21
102.59178490525528
  0
LINE
  8
_f-0_
  6
CONTINUOUS
 62
    7
 10
2835.164073948858
 20
102.59178490525528
 11
93.498778584810225
 21
102.59178490525528
  0
LINE
  8
_f-0_
  6
CONTINUOUS
 62
    7
 10
93.498778584810225
 20
102.59178490525528
 11
93.498778584810225
 21
2041.1430038495319
  0
LINE
  8
_f-0_
  6
CONTINUOUS
 62
    7
 10
145.92190945814195
 20
154.63137802700089
 11
2782.5613812702341
 21
154.63137802700089
  0
LINE
  8
_f-0_
  6
CONTINUOUS
 62
    7
 10
145.92190945814195
 20
272.17690842700108
 11
145.92190945814195
 21
154.63137802700089
  0
LINE
  8
_f-0_
  6
CONTINUOUS
 62
    7
 10
1084.5597312581417
 20
272.17690842700108
 11
1084.5597312581417
 21
154.63137802700089
  0
LINE
  8
_f-0_
  6
CONTINUOUS
 62
    7
 10
1521.3244371581418
 20
272.17690842700108
 11
1521.3244371581418
 21
154.63137802700089
  0
LINE
  8
_f-0_
  6
CONTINUOUS
 62
    7
 10
1755.1479665581417
 20
272.17690842700108
 11
1755.1479665581417
 21
154.63137802700089
  0
LINE
  8
_f-0_
  6
CONTINUOUS
 62
    7
 10
2026.471495958142
 20
272.17690842700108
 11
2026.471495958142
 21
154.63137802700089
  0
LINE
  8
_f-0_
  6
CONTINUOUS
 62
    7
 10
2782.5613812581419
 20
272.17690842700108
 11
2782.5613812581419
 21
154.63137802700089
  0
TEXT
  8
_f-0_
 62
    7
 10
1568.5886917757796
 20
188.15385166346772
 40
34.616986052576095
 41
1.0000000000000095
 50
0
  1
S=1/10
  0
TEXT
  8
_f-0_
 62
    7
 10
1111.1467034703219
 20
216.01644236760961
 40
34.616986052576095
 41
1.0000000000000056
 50
0
  1
キッチンシンク
  0
TEXT
  8
_f-0_
 62
    7
 10
1118.9898407252256
 20
170.91840315192343
 40
34.616986052576095
 41
1.0000000000000056
 50
0
  1
K-5871-5UA
  0
TEXT
  8
_f-0_
 62
    7
 10
2045.705526999735
 20
224.34977570094276
 40
34.616986052576095
 41
1.000000000000008
 50
0
  1
KOHLER　リバビー
  0
TEXT
  8
_f-0_
 62
    7
 10
2174.7535403050106
 20
164.29057734204775
 40
34.616986052575953
 41
1.000000000000012
 50
0
  1
日鉄物産マテックス株式会社
  0
TEXT
  8
_f-0_
 62
    7
 10
1817.2741544507153
 20
193.95761883819773
 40
34.616986052576237
 41
1.0000000000000038
 50
0
  1
19/04/10
  0
CIRCLE
  8
_0-1_レイヤ___1
  6
CONTINUOUS
 62
    7
 10
1258.7295750000001
 20
1568.87273
 40
48.895254699999953
  0
LINE
  8
_0-1_レイヤ___1
  6
CONTINUOUS
 62
    5
 10
1444.5718050000003
 20
1956.6374187275107
 11
1440.7615250000001
 21
1960.4476987275102
  0
LINE
  8
_0-1_レイヤ___1
  6
CONTINUOUS
 62
    5
 10
1440.7615250000001
 20
1960.4476987275102
 11
1436.9529750000002
 21
1956.6374187275107
  0
LINE
  8
_0-1_レイヤ___1
  6
CONTINUOUS
 62
    5
 10
1436.9529750000002
 20
1956.6374187275107
 11
1440.7615250000001
 21
1952.8271387275106
  0
LINE
  8
_0-1_レイヤ___1
  6
CONTINUOUS
 62
    5
 10
1440.7615250000001
 20
1952.8271387275106
 11
1444.5718050000003
 21
1956.6374187275107
  0
CIRCLE
  8
_0-7_
  6
CONTINUOUS
 62
    7
 10
1440.8625649999999
 20
1956.3749787088841
 40
3.751708984375
  0
LINE
  8
_0-1_レイヤ___1
  6
CONTINUOUS
 62
    5
 10
1440.7615250000001
 20
1956.6374187275107
 11
1022.0859650000001
 21
1956.6374187275107
  0
LINE
  8
_0-7_
  6
CONTINUOUS
 62
    7
 10
1440.8625649999999
 20
1956.3749787088841
 11
1021.862565
 21
1956.3749787088841
  0
LINE
  8
_0-1_レイヤ___1
  6
CONTINUOUS
 62
    5
 10
1025.4724950000002
 20
1956.5576287088838
 11
1021.8740850000002
 21
1960.3678987088842
  0
LINE
  8
_0-1_レイヤ___1
  6
CONTINUOUS
 62
    5
 10
1021.8740850000002
 20
1960.3678987088842
 11
1018.2756850000001
 21
1956.5576287088838
  0
LINE
  8
_0-1_レイヤ___1
  6
CONTINUOUS
 62
    5
 10
1018.2756850000001
 20
1956.5576287088838
 11
1021.8740850000002
 21
1952.7473487088844
  0
LINE
  8
_0-1_レイヤ___1
  6
CONTINUOUS
 62
    5
 10
1021.8740850000002
 20
1952.7473487088844
 11
1025.4724950000002
 21
1956.5576287088838
  0
LINE
  8
_0-1_レイヤ___1
  6
CONTINUOUS
 62
    5
 10
1025.4724950000002
 20
1956.5576287088838
 11
1021.8740850000002
 21
1960.3678987088842
  0
LINE
  8
_0-1_レイヤ___1
  6
CONTINUOUS
 62
    5
 10
1021.8740850000002
 20
1960.3678987088842
 11
1018.2756850000001
 21
1956.5576287088838
  0
LINE
  8
_0-1_レイヤ___1
  6
CONTINUOUS
 62
    5
 10
1018.2756850000001
 20
1956.5576287088838
 11
1021.8740850000002
 21
1952.7473487088844
  0
LINE
  8
_0-1_レイヤ___1
  6
CONTINUOUS
 62
    5
 10
1021.8740850000002
 20
1952.7473487088844
 11
1025.4724950000002
 21
1956.5576287088838
  0
CIRCLE
  8
_0-7_
  6
CONTINUOUS
 62
    7
 10
1021.862565
 20
1956.3749787088841
 40
3.751708984375
  0
CIRCLE
  8
_0-7_
  6
CONTINUOUS
 62
    7
 10
1021.862565
 20
1956.3749787088841
 40
3.751708984375
  0
TEXT
  8
_0-7_
 62
    7
 10
1202.8578449479166
 20
1956.3749787088841
 40
38.006293402777779
 41
1
 50
0
  1
419
  0
LINE
  8
_0-1_レイヤ___1
  6
CONTINUOUS
 62
    5
 10
1022.0859650000001
 20
1830.9170199999999
 11
1022.0859650000001
 21
1956.3749787088841
  0
LINE
  8
_0-7_
  6
CONTINUOUS
 62
    7
 10
1021.862565
 20
1830.8035499254943
 11
1021.862565
 21
1956.3749787088841
  0
LINE
  8
_0-7_
  6
CONTINUOUS
 62
    7
 10
1440.8625649999999
 20
1842.8035499254941
 11
1440.8625649999999
 21
1956.3749787088841
  0
ENDSEC
  0
EOF
