  0
SECTION
  2
HEADER
  9
$ACADVER
  1
AC1009
  9
$INSBASE
 10
0
 20
0
 30
0
  9
$EXTMIN
 10
0
 20
0
  9
$EXTMAX
 10
1485
 20
1050
  9
$LIMMIN
 10
0
 20
0
  9
$LIMMAX
 10
1485
 20
1050
  9
$LTSCALE
 40
5
  0
ENDSEC
  0
SECTION
  2
TABLES
  0
TABLE
  2
LTYPE
 70
     9
  0
LTYPE
  2
CONTINUOUS
 70
    64
  3
実線
 72
    65
 73
     0
 40
0.0
  0
LTYPE
  2
DASHED1
 70
    64
  3
--  --  --  --  --  --  --  --  
 72
    65
 73
     2
 40
2.5
 49
1.25
 49
-1.25
  0
LTYPE
  2
DASHED2
 70
    64
  3
----    ----    ----    ----    
 72
    65
 73
     2
 40
5.0
 49
2.5
 49
-2.5
  0
LTYPE
  2
DASHED3
 70
    64
  3
------  ------  ------  ------  
 72
    65
 73
     2
 40
5.0
 49
3.75
 49
-1.25
  0
LTYPE
  2
CENTER1
 70
    64
  3
----- - ----- - ----- - ----- - 
 72
    65
 73
     4
 40
10.0
 49
6.25
 49
-1.25
 49
1.25
 49
-1.25
  0
LTYPE
  2
CENTER2
 70
    64
  3
----------  --  ----------  --  
 72
    65
 73
     4
 40
20.0
 49
12.5
 49
-2.5
 49
2.5
 49
-2.5
  0
LTYPE
  2
PHANTOM1
 70
    64
  3
--- - - --- - - --- - - --- - - 
 72
    65
 73
     6
 40
10.0
 49
3.25
 49
-1.25
 49
1.25
 49
-1.25
 49
1.25
 49
-1.25
  0
LTYPE
  2
PHANTOM2
 70
    64
  3
--------  -  -  --------  -  -  
 72
    65
 73
     6
 40
20.0
 49
10.0
 49
-2.5
 49
1.25
 49
-2.5
 49
1.25
 49
-2.5
  0
LTYPE
  2
DOT
 70
    64
  3
-   -   -   -   -   -   -   -   
 72
    65
 73
     2
 40
2.5
 49
0.625
 49
-1.875
  0
LTYPE
  2
DUMMY
 70
    64
  3
ダミー
 72
    65
 73
     0
 40
0.0
  0
LTYPE
  2
RAND1
 70
    64
  3
ランダム線1
 72
    65
 73
     4
 40
10.0
 49
1.0
 49
-2.0
 49
3.0
 49
-4.0
  0
LTYPE
  2
RAND2
 70
    64
  3
ランダム線2
 72
    65
 73
     4
 40
14.0
 49
2.0
 49
-3.0
 49
4.0
 49
-5.0
  0
LTYPE
  2
RAND3
 70
    64
  3
ランダム線3
 72
    65
 73
     4
 40
18.0
 49
3.0
 49
-4.0
 49
5.0
 49
-6.0
  0
LTYPE
  2
RAND4
 70
    64
  3
ランダム線4
 72
    65
 73
     4
 40
22.0
 49
4.0
 49
-5.0
 49
6.0
 49
-7.0
  0
LTYPE
  2
RAND5
 70
    64
  3
ランダム線5
 72
    65
 73
     4
 40
26.0
 49
5.0
 49
-6.0
 49
7.0
 49
-8.0
  0
LTYPE
  2
LONG1
 70
    64
  3
----------  --  ----------  --  
 72
    65
 73
     4
 40
40.0
 49
32.5
 49
-2.5
 49
2.5
 49
-2.5
  0
LTYPE
  2
LONG2
 70
    64
  3
--------  -  -  --------  -  -  
 72
    65
 73
     6
 40
40.0
 49
30.0
 49
-2.5
 49
1.25
 49
-2.5
 49
1.25
 49
-2.5
  0
LTYPE
  2
LONG3
 70
    64
  3
+++++++++++++++..+++++++++++++++
 72
    65
 73
     2
 40
40.0
 49
37.5
 49
-2.5
  0
LTYPE
  2
LONG4
 70
    64
  3
+++++++++++++++..+++++++++++++++
 72
    65
 73
     2
 40
80.0
 49
75.0
 49
-5.0
  0
LTYPE
  2
LONG5
 70
    64
  3
----------  --  ----------  --  
 72
    65
 73
     4
 40
60.0
 49
37.5
 49
-7.5
 49
7.5
 49
-7.5
  0
LTYPE
  2
dashed
 70
   64
  3
-------   -------------   ------
 72
   65
 73
    2
 40
7.5
 49
6
 49
-1.5
  0
LTYPE
  2
dashed_spaced
 70
   64
  3
----        --------        ----
 72
   65
 73
    2
 40
12
 49
6
 49
-6
  0
LTYPE
  2
long_dashed_dotted
 70
   64
  3
------------- --- --------------
 72
   65
 73
    4
 40
15.25
 49
12
 49
-1.5
 49
0.25
 49
-1.5
  0
LTYPE
  2
long_dashed_double-dotted
 70
   64
  3
----------- --- --- ------------
 72
   65
 73
    6
 40
17
 49
12
 49
-1.5
 49
0.25
 49
-1.5
 49
0.25
 49
-1.5
  0
LTYPE
  2
long_dashed_triplicate-dotted
 70
   64
  3
--------- --- --- --- ----------
 72
   65
 73
    8
 40
18.75
 49
12
 49
-1.5
 49
0.25
 49
-1.5
 49
0.25
 49
-1.5
 49
0.25
 49
-1.5
  0
LTYPE
  2
dotted
 70
   64
  3
   -       -       -       -    
 72
   65
 73
    2
 40
1.75
 49
0.25
 49
-1.5
  0
LTYPE
  2
chain
 70
   64
  3
-------------- -- --------------
 72
   65
 73
    4
 40
18.5
 49
12
 49
-1.5
 49
3.5
 49
-1.5
  0
LTYPE
  2
chain_double_dash
 70
   64
  3
------------ -- -- -------------
 72
   65
 73
    6
 40
23.5
 49
12
 49
-1.5
 49
3.5
 49
-1.5
 49
3.5
 49
-1.5
  0
LTYPE
  2
dashed_dotted
 70
   64
  3
-----------     -     ----------
 72
   65
 73
    4
 40
9.25
 49
6
 49
-1.5
 49
0.25
 49
-1.5
  0
LTYPE
  2
double-dashed_dotted
 70
   64
  3
------   -----------   -   -----
 72
   65
 73
    6
 40
16.75
 49
6
 49
-1.5
 49
6
 49
-1.5
 49
0.25
 49
-1.5
  0
LTYPE
  2
dashed_double-dotted
 70
   64
  3
---------    -    -    ---------
 72
   65
 73
    6
 40
11
 49
6
 49
-1.5
 49
0.25
 49
-1.5
 49
0.25
 49
-1.5
  0
LTYPE
  2
double-dashed_double-dotted
 70
   64
  3
-----   ---------   -   -   ----
 72
   65
 73
    8
 40
18.5
 49
6
 49
-1.5
 49
6
 49
-1.5
 49
0.25
 49
-1.5
 49
0.25
 49
-1.5
  0
LTYPE
  2
dashed_triplicate-dotted
 70
   64
  3
-------    -    -    -    ------
 72
   65
 73
    8
 40
12.75
 49
6
 49
-1.5
 49
0.25
 49
-1.5
 49
0.25
 49
-1.5
 49
0.25
 49
-1.5
  0
LTYPE
  2
double-dashed_triplicate-dotted
 70
   64
  3
-----  ---------  -  -  -  -----
 72
   65
 73
   10
 40
20.25
 49
6
 49
-1.5
 49
6
 49
-1.5
 49
0.25
 49
-1.5
 49
0.25
 49
-1.5
 49
0.25
 49
-1.5
  0
LTYPE
  2
undefined
 70
   64
  3
--------------------------------
 72
   65
 73
    0
 40
0
  0
LTYPE
  2
_
 70
   64
  3
                                
 72
   65
 73
    0
 40
0
  0
LTYPE
  2
__18
 70
   64
  3
                                
 72
   65
 73
    0
 40
0
  0
LTYPE
  2
__19
 70
   64
  3
                                
 72
   65
 73
    0
 40
0
  0
LTYPE
  2
__20
 70
   64
  3
                                
 72
   65
 73
    0
 40
0
  0
LTYPE
  2
__21
 70
   64
  3
                                
 72
   65
 73
    0
 40
0
  0
LTYPE
  2
__22
 70
   64
  3
                                
 72
   65
 73
    0
 40
0
  0
LTYPE
  2
__23
 70
   64
  3
                                
 72
   65
 73
    0
 40
0
  0
LTYPE
  2
__24
 70
   64
  3
                                
 72
   65
 73
    0
 40
0
  0
LTYPE
  2
__25
 70
   64
  3
                                
 72
   65
 73
    0
 40
0
  0
LTYPE
  2
__26
 70
   64
  3
                                
 72
   65
 73
    0
 40
0
  0
LTYPE
  2
__27
 70
   64
  3
                                
 72
   65
 73
    0
 40
0
  0
LTYPE
  2
__28
 70
   64
  3
                                
 72
   65
 73
    0
 40
0
  0
LTYPE
  2
__29
 70
   64
  3
                                
 72
   65
 73
    0
 40
0
  0
LTYPE
  2
__30
 70
   64
  3
                                
 72
   65
 73
    0
 40
0
  0
LTYPE
  2
__31
 70
   64
  3
                                
 72
   65
 73
    0
 40
0
  0
LTYPE
  2
__32
 70
   64
  3
                                
 72
   65
 73
    0
 40
0
  0
ENDTAB
  0
TABLE
  2
STYLE
  5
3
100
AcDbSymbolTable
 70
     1
  0
STYLE
  5
10
100
AcDbSymbolTableRecord
100
AcDbTextStyleTableRecord
  2
STANDARD
 70
     0
 40
0.0
 41
1.0
 50
0.0
 71
     0
 42
0.2
  3
txt
  4
bigfont.shx
  0
STYLE
  5
26
100
AcDbSymbolTableRecord
100
AcDbTextStyleTableRecord
  2
TATEGAKI
 70
    68
 40
0.0
 41
1.0
 50
0.0
 71
     0
 42
1.0
  3
txt
  4
bigfont.shx
  0
ENDTAB
  0
TABLE
  2
LAYER
 70
    4
  0
LAYER
  2
_0-0_0
 70
   64
 62
    7
  6
CONTINUOUS
  0
LAYER
  2
_0-1_レイヤ___1
 70
   64
 62
    7
  6
CONTINUOUS
  0
LAYER
  2
_f-0_
 70
   64
 62
    7
  6
CONTINUOUS
  0
LAYER
  2
ADD_LINE
 70
   64
 62
    7
  6
CONTINUOUS
  0
ENDTAB
  0
ENDSEC
  0
SECTION
  2
BLOCKS
  0
ENDSEC
  0
SECTION
  2
ENTITIES
  0
LINE
  8
_f-0_
  6
CONTINUOUS
 62
    7
 10
72.960954729070977
 20
136.08845421350054
 11
1391.280690635117
 21
136.08845421350054
  0
LINE
  8
_f-0_
  6
CONTINUOUS
 62
    7
 10
46.749389292405112
 20
1020.5715019247659
 11
1417.582036974429
 21
1020.5715019247659
  0
LINE
  8
_f-0_
  6
CONTINUOUS
 62
    7
 10
1417.582036974429
 20
1020.5715019247659
 11
1417.582036974429
 21
51.295892452627641
  0
LINE
  8
_f-0_
  6
CONTINUOUS
 62
    7
 10
1417.582036974429
 20
51.295892452627641
 11
46.749389292405112
 21
51.295892452627641
  0
LINE
  8
_f-0_
  6
CONTINUOUS
 62
    7
 10
46.749389292405112
 20
51.295892452627641
 11
46.749389292405112
 21
1020.5715019247659
  0
TEXT
  8
_f-0_
 62
    7
 10
916.45209236573589
 20
94.288290398999095
 40
17.308493026288119
 41
1.0000000000000038
 50
0
  1
19/04/18
  0
LINE
  8
_f-0_
  6
CONTINUOUS
 62
    7
 10
72.960954729070977
 20
77.315689013500446
 11
1391.280690635117
 21
77.315689013500446
  0
LINE
  8
_f-0_
  6
CONTINUOUS
 62
    7
 10
72.960954729070977
 20
136.08845421350054
 11
72.960954729070977
 21
77.315689013500446
  0
LINE
  8
_f-0_
  6
CONTINUOUS
 62
    7
 10
542.27986562907085
 20
136.08845421350054
 11
542.27986562907085
 21
77.315689013500446
  0
LINE
  8
_f-0_
  6
CONTINUOUS
 62
    7
 10
760.6622185790709
 20
136.08845421350054
 11
760.6622185790709
 21
77.315689013500446
  0
LINE
  8
_f-0_
  6
CONTINUOUS
 62
    7
 10
877.57398327907083
 20
136.08845421350054
 11
877.57398327907083
 21
77.315689013500446
  0
LINE
  8
_f-0_
  6
CONTINUOUS
 62
    7
 10
1013.235747979071
 20
136.08845421350054
 11
1013.235747979071
 21
77.315689013500446
  0
LINE
  8
_f-0_
  6
CONTINUOUS
 62
    7
 10
1391.2806906290709
 20
136.08845421350054
 11
1391.2806906290709
 21
77.315689013500446
  0
TEXT
  8
_f-0_
 62
    7
 10
1087.3767701525044
 20
82.145288671023877
 40
17.308493026287977
 41
1.000000000000012
 50
0
  1
日鉄物産マテックス株式会社
  0
TEXT
  8
_f-0_
 62
    7
 10
784.29434588788979
 20
94.07692583173386
 40
17.308493026288048
 41
1.0000000000000095
 50
0
  1
S=1/5
  0
LINE
  8
_0-0_0
  6
CONTINUOUS
 62
    7
 10
239.341102893303
 20
707.03432740564949
 11
239.341102893303
 21
753.26322695663634
  0
LINE
  8
_0-0_0
  6
CONTINUOUS
 62
    7
 10
239.72235880703516
 20
752.92331132270169
 11
239.72235880703516
 21
707.41558998609332
  0
LINE
  8
_0-0_0
  6
CONTINUOUS
 62
    7
 10
240.06228110768163
 20
753.26322695663634
 11
240.06228110768163
 21
707.07796770101368
  0
LINE
  8
_0-0_0
  6
CONTINUOUS
 62
    7
 10
241.37372331705814
 20
708.68568524896045
 11
241.37372331705814
 21
751.61186911332504
  0
LINE
  8
_0-0_0
  6
CONTINUOUS
 62
    7
 10
260.80418815877346
 20
720.15793622825754
 11
260.80418815877346
 21
720.11658928174825
  0
LINE
  8
_0-0_0
  6
CONTINUOUS
 62
    7
 10
261.05912988425843
 20
720.11658928174825
 11
261.05912988425843
 21
719.86165422297518
  0
LINE
  8
_0-0_0
  6
CONTINUOUS
 62
    7
 10
262.83680858252859
 20
730.14877718114292
 11
262.83680858252859
 21
722.99441542598606
  0
LINE
  8
_0-0_0
  6
CONTINUOUS
 62
    7
 10
264.61449394751065
 20
720.11658928174825
 11
264.61449394751065
 21
719.86165422297518
  0
LINE
  8
_0-0_0
  6
CONTINUOUS
 62
    7
 10
264.86713565742861
 20
720.15793622825754
 11
264.86713565742861
 21
720.11658928174825
  0
LINE
  8
_0-0_0
  6
CONTINUOUS
 62
    7
 10
284.29990051471094
 20
708.68568524896045
 11
284.29990051471094
 21
724.56079269413567
  0
LINE
  8
_0-0_0
  6
CONTINUOUS
 62
    7
 10
284.29990051471094
 20
735.69312137278587
 11
284.29990051471094
 21
751.61186911332504
  0
LINE
  8
_0-0_0
  6
CONTINUOUS
 62
    7
 10
285.65268300388476
 20
707.07796770101368
 11
285.65268300388476
 21
724.56079269413567
  0
LINE
  8
_0-0_0
  6
CONTINUOUS
 62
    7
 10
285.65268300388476
 20
735.69312137278587
 11
285.65268300388476
 21
753.26322695663634
  0
LINE
  8
_0-0_0
  6
CONTINUOUS
 62
    7
 10
285.99260530453125
 20
707.41558998609332
 11
285.99260530453125
 21
724.56079269413567
  0
LINE
  8
_0-0_0
  6
CONTINUOUS
 62
    7
 10
285.99260530453125
 20
735.69312137278587
 11
285.99260530453125
 21
752.92331132270169
  0
LINE
  8
_0-0_0
  6
CONTINUOUS
 62
    7
 10
286.33252093846608
 20
707.03432740564949
 11
286.33252093846608
 21
724.56079269413567
  0
LINE
  8
_0-0_0
  6
CONTINUOUS
 62
    7
 10
286.33252093846608
 20
735.69312137278587
 11
286.33252093846608
 21
753.26322695663634
  0
LINE
  8
_0-0_0
  6
CONTINUOUS
 62
    7
 10
260.80418815877346
 20
720.11658928174825
 11
261.05912988425843
 21
719.86165422297518
  0
LINE
  8
_0-0_0
  6
CONTINUOUS
 62
    7
 10
264.86713565742861
 20
720.11658928174825
 11
264.61449394751065
 21
719.86165422297518
  0
LINE
  8
_0-0_0
  6
CONTINUOUS
 62
    7
 10
239.72235880703516
 20
706.65306482520532
 11
285.95125835802207
 21
706.65306482520532
  0
LINE
  8
_0-0_0
  6
CONTINUOUS
 62
    7
 10
848.73094067102113
 20
706.65306482520532
 11
894.9598402220081
 21
706.65306482520532
  0
LINE
  8
_0-0_0
  6
CONTINUOUS
 62
    7
 10
240.06228110768163
 20
707.07796770101368
 11
285.65268300388476
 21
707.07796770101368
  0
LINE
  8
_0-0_0
  6
CONTINUOUS
 62
    7
 10
849.07085630495601
 20
707.07796770101368
 11
894.62451795249535
 21
707.07796770101368
  0
LINE
  8
_0-0_0
  6
CONTINUOUS
 62
    7
 10
239.72235880703516
 20
707.41558998609332
 11
285.99260530453125
 21
707.41558998609332
  0
LINE
  8
_0-0_0
  6
CONTINUOUS
 62
    7
 10
848.68960039122396
 20
707.41558998609332
 11
895.00118050180561
 21
707.41558998609332
  0
LINE
  8
_0-0_0
  6
CONTINUOUS
 62
    7
 10
893.31077572755225
 20
708.68568524896045
 11
850.38459852989934
 21
708.68568524896045
  0
LINE
  8
_0-0_0
  6
CONTINUOUS
 62
    7
 10
284.29990051471094
 20
708.68568524896045
 11
241.37372331705814
 21
708.68568524896045
  0
LINE
  8
_0-0_0
  6
CONTINUOUS
 62
    7
 10
261.05912988425843
 20
719.86165422297518
 11
264.61449394751065
 21
719.86165422297518
  0
LINE
  8
_0-0_0
  6
CONTINUOUS
 62
    7
 10
261.05912988425843
 20
719.86165422297518
 11
264.61449394751065
 21
719.86165422297518
  0
LINE
  8
_0-0_0
  6
CONTINUOUS
 62
    7
 10
870.06771174824462
 20
719.86165422297518
 11
873.62306914478495
 21
719.86165422297518
  0
LINE
  8
_0-0_0
  6
CONTINUOUS
 62
    7
 10
870.06771174824462
 20
719.86165422297518
 11
873.62306914478495
 21
719.86165422297518
  0
LINE
  8
_0-0_0
  6
CONTINUOUS
 62
    7
 10
260.80418815877346
 20
720.11658928174825
 11
261.18545073921734
 21
720.11658928174825
  0
LINE
  8
_0-0_0
  6
CONTINUOUS
 62
    7
 10
264.52951337234902
 20
720.11658928174825
 11
264.86713565742861
 21
720.11658928174825
  0
LINE
  8
_0-0_0
  6
CONTINUOUS
 62
    7
 10
869.81507003832644
 20
720.11658928174825
 11
870.19632595205849
 21
720.11658928174825
  0
LINE
  8
_0-0_0
  6
CONTINUOUS
 62
    7
 10
873.49904830539276
 20
720.11658928174825
 11
873.88031088583659
 21
720.11658928174825
  0
LINE
  8
_0-0_0
  6
CONTINUOUS
 62
    7
 10
271.34395949357111
 20
724.56079269413567
 11
863.33824620218388
 21
724.56079269413567
  0
LINE
  8
_0-0_0
  6
CONTINUOUS
 62
    7
 10
882.1761537000466
 20
730.14877718114292
 11
884.54639640888149
 21
730.14877718114292
  0
LINE
  8
_0-0_0
  6
CONTINUOUS
 62
    7
 10
271.34395949357111
 20
735.69312137278587
 11
863.33824620218388
 21
735.69312137278587
  0
LINE
  8
_0-0_0
  6
CONTINUOUS
 62
    7
 10
893.31077572755225
 20
751.61186911332504
 11
850.38459852989934
 21
751.61186911332504
  0
LINE
  8
_0-0_0
  6
CONTINUOUS
 62
    7
 10
284.29990051471094
 20
751.61186911332504
 11
241.37372331705814
 21
751.61186911332504
  0
LINE
  8
_0-0_0
  6
CONTINUOUS
 62
    7
 10
239.72235880703516
 20
752.92331132270169
 11
285.99260530453125
 21
752.92331132270169
  0
LINE
  8
_0-0_0
  6
CONTINUOUS
 62
    7
 10
848.68960039122396
 20
752.92331132270169
 11
895.00118050180561
 21
752.92331132270169
  0
LINE
  8
_0-0_0
  6
CONTINUOUS
 62
    7
 10
285.65268300388476
 20
753.26322695663634
 11
240.06228110768163
 21
753.26322695663634
  0
LINE
  8
_0-0_0
  6
CONTINUOUS
 62
    7
 10
894.62451795249535
 20
753.26322695663634
 11
849.07085630495601
 21
753.26322695663634
  0
LINE
  8
_0-0_0
  6
CONTINUOUS
 62
    7
 10
239.72235880703516
 20
753.64448953708006
 11
285.95125835802207
 21
753.64448953708006
  0
LINE
  8
_0-0_0
  6
CONTINUOUS
 62
    7
 10
848.73094067102113
 20
753.64448953708006
 11
894.9598402220081
 21
753.64448953708006
  0
LINE
  8
_0-0_0
  6
CONTINUOUS
 62
    7
 10
869.81507003832644
 20
720.11658928174825
 11
870.06771174824462
 21
719.86165422297518
  0
LINE
  8
_0-0_0
  6
CONTINUOUS
 62
    7
 10
873.88031088583659
 20
720.11658928174825
 11
873.62306914478495
 21
719.86165422297518
  0
LINE
  8
_0-0_0
  6
CONTINUOUS
 62
    7
 10
848.3496780905773
 20
707.03432740564949
 11
848.3496780905773
 21
724.56079269413567
  0
LINE
  8
_0-0_0
  6
CONTINUOUS
 62
    7
 10
848.3496780905773
 20
735.69312137278587
 11
848.3496780905773
 21
753.26322695663634
  0
LINE
  8
_0-0_0
  6
CONTINUOUS
 62
    7
 10
848.68960039122396
 20
752.92331132270169
 11
848.68960039122396
 21
735.69312137278587
  0
LINE
  8
_0-0_0
  6
CONTINUOUS
 62
    7
 10
848.68960039122396
 20
724.56079269413567
 11
848.68960039122396
 21
707.41558998609332
  0
LINE
  8
_0-0_0
  6
CONTINUOUS
 62
    7
 10
849.07085630495601
 20
753.26322695663634
 11
849.07085630495601
 21
735.69312137278587
  0
LINE
  8
_0-0_0
  6
CONTINUOUS
 62
    7
 10
849.07085630495601
 20
724.56079269413567
 11
849.07085630495601
 21
707.07796770101368
  0
LINE
  8
_0-0_0
  6
CONTINUOUS
 62
    7
 10
850.38459852989934
 20
708.68568524896045
 11
850.38459852989934
 21
724.56079269413567
  0
LINE
  8
_0-0_0
  6
CONTINUOUS
 62
    7
 10
850.38459852989934
 20
735.69312137278587
 11
850.38459852989934
 21
751.61186911332504
  0
LINE
  8
_0-0_0
  6
CONTINUOUS
 62
    7
 10
869.81507003832644
 20
720.15793622825754
 11
869.81507003832644
 21
720.11658928174825
  0
LINE
  8
_0-0_0
  6
CONTINUOUS
 62
    7
 10
870.06771174824462
 20
720.11658928174825
 11
870.06771174824462
 21
719.86165422297518
  0
LINE
  8
_0-0_0
  6
CONTINUOUS
 62
    7
 10
871.84539044651478
 20
730.14877718114292
 11
871.84539044651478
 21
717.44777121877621
  0
LINE
  8
_0-0_0
  6
CONTINUOUS
 62
    7
 10
873.62306914478495
 20
720.11658928174825
 11
873.62306914478495
 21
719.86165422297518
  0
LINE
  8
_0-0_0
  6
CONTINUOUS
 62
    7
 10
873.88031088583659
 20
720.15793622825754
 11
873.88031088583659
 21
720.11658928174825
  0
LINE
  8
_0-0_0
  6
CONTINUOUS
 62
    7
 10
893.31077572755225
 20
708.68568524896045
 11
893.31077572755225
 21
751.61186911332504
  0
LINE
  8
_0-0_0
  6
CONTINUOUS
 62
    7
 10
894.62451795249535
 20
707.07796770101368
 11
894.62451795249535
 21
753.26322695663634
  0
LINE
  8
_0-0_0
  6
CONTINUOUS
 62
    7
 10
895.00118050180561
 20
707.41558998609332
 11
895.00118050180561
 21
752.92331132270169
  0
LINE
  8
_0-0_0
  6
CONTINUOUS
 62
    7
 10
895.34110280245216
 20
707.03432740564949
 11
895.34110280245216
 21
753.26322695663634
  0
LINE
  8
_0-0_0
  6
CONTINUOUS
 62
    7
 10
272.1937519117638
 20
735.69312137278587
 11
272.27643913807043
 21
739.58840106997286
  0
LINE
  8
_0-0_0
  6
CONTINUOUS
 62
    7
 10
862.53438076149882
 20
724.56079269413567
 11
862.40576655768461
 21
720.70915329231298
  0
LINE
  8
_0-0_0
  6
CONTINUOUS
 62
    7
 10
272.27643913807043
 20
720.70915329231298
 11
272.1937519117638
 21
724.56079269413567
  0
LINE
  8
_0-0_0
  6
CONTINUOUS
 62
    7
 10
862.40576655768461
 20
739.58840106997286
 11
862.53438076149882
 21
735.69312137278587
  0
LINE
  8
_0-0_0
  6
CONTINUOUS
 62
    7
 10
871.86835726862444
 20
740.30957928435157
 11
861.73052198752544
 21
730.16945065439722
  0
LINE
  8
_0-0_0
  6
CONTINUOUS
 62
    7
 10
861.73052198752544
 20
730.16945065439722
 11
871.86835726862444
 21
720.03161537329845
  0
LINE
  8
_0-0_0
  6
CONTINUOUS
 62
    7
 10
871.86835726862444
 20
720.03161537329845
 11
882.00619254972344
 21
730.16945065439722
  0
LINE
  8
_0-0_0
  6
CONTINUOUS
 62
    7
 10
882.00619254972344
 20
730.16945065439722
 11
871.86835726862444
 21
740.30957928435157
  0
LINE
  8
_0-0_0
  6
CONTINUOUS
 62
    7
 10
262.85748205578324
 20
740.30957928435157
 11
252.71505341026233
 21
730.16945065439722
  0
LINE
  8
_0-0_0
  6
CONTINUOUS
 62
    7
 10
252.71505341026233
 20
730.16945065439722
 11
262.85748205578324
 21
720.03161537329845
  0
LINE
  8
_0-0_0
  6
CONTINUOUS
 62
    7
 10
262.85748205578324
 20
720.03161537329845
 11
272.99761735244908
 21
730.16945065439722
  0
LINE
  8
_0-0_0
  6
CONTINUOUS
 62
    7
 10
272.99761735244908
 20
730.16945065439722
 11
262.85748205578324
 21
740.30957928435157
  0
LINE
  8
_0-0_0
  6
CONTINUOUS
 62
    7
 10
894.98280704411786
 20
706.69670512056973
 11
895.34110280245216
 21
707.05729422775903
  0
LINE
  8
_0-0_0
  6
CONTINUOUS
 62
    7
 10
848.39561840150839
 20
707.05729422775903
 11
848.75390749313078
 21
706.69670512056973
  0
LINE
  8
_0-0_0
  6
CONTINUOUS
 62
    7
 10
285.97193183127666
 20
706.69670512056973
 11
286.33252093846608
 21
707.05729422775903
  0
LINE
  8
_0-0_0
  6
CONTINUOUS
 62
    7
 10
239.38244317310046
 20
707.05729422775903
 11
239.74303228028973
 21
706.69670512056973
  0
LINE
  8
_0-0_0
  6
CONTINUOUS
 62
    7
 10
895.34110280245216
 20
753.28619377874588
 11
894.98280704411786
 21
753.64448953708006
  0
LINE
  8
_0-0_0
  6
CONTINUOUS
 62
    7
 10
286.33252093846608
 20
753.28619377874588
 11
285.97193183127666
 21
753.64448953708006
  0
LINE
  8
_0-0_0
  6
CONTINUOUS
 62
    7
 10
848.75390749313078
 20
753.64448953708006
 11
848.39561840150839
 21
753.28390042989099
  0
LINE
  8
_0-0_0
  6
CONTINUOUS
 62
    7
 10
239.74303228028973
 20
753.64448953708006
 11
239.38244317310046
 21
753.28390042989099
  0
LINE
  8
_0-0_0
  6
CONTINUOUS
 62
    7
 10
894.9598402220081
 20
753.64448953708006
 11
894.62451795249535
 21
753.26322695663634
  0
LINE
  8
_0-0_0
  6
CONTINUOUS
 62
    7
 10
848.73094067102113
 20
753.64448953708006
 11
849.07085630495601
 21
753.26322695663634
  0
LINE
  8
_0-0_0
  6
CONTINUOUS
 62
    7
 10
894.62451795249535
 20
707.07796770101368
 11
894.9598402220081
 21
706.65306482520532
  0
LINE
  8
_0-0_0
  6
CONTINUOUS
 62
    7
 10
849.07085630495601
 20
707.07796770101368
 11
848.73094067102113
 21
706.65306482520532
  0
LINE
  8
_0-0_0
  6
CONTINUOUS
 62
    7
 10
848.3496780905773
 20
753.26322695663634
 11
848.68960039122396
 21
752.92101130713468
  0
LINE
  8
_0-0_0
  6
CONTINUOUS
 62
    7
 10
848.68960039122396
 20
707.41558998609332
 11
848.3496780905773
 21
707.03432740564949
  0
LINE
  8
_0-0_0
  6
CONTINUOUS
 62
    7
 10
895.34110280245216
 20
753.26322695663634
 11
895.00118050180561
 21
752.92101130713468
  0
LINE
  8
_0-0_0
  6
CONTINUOUS
 62
    7
 10
895.00118050180561
 20
707.41558998609332
 11
895.34110280245216
 21
707.03432740564949
  0
LINE
  8
_0-0_0
  6
CONTINUOUS
 62
    7
 10
895.00118050180561
 20
752.92331132270169
 11
894.87715966241342
 21
753.17824638147476
  0
LINE
  8
_0-0_0
  6
CONTINUOUS
 62
    7
 10
894.87715966241342
 20
753.17824638147476
 11
894.62451795249535
 21
753.26322695663634
  0
LINE
  8
_0-0_0
  6
CONTINUOUS
 62
    7
 10
849.07085630495601
 20
753.26322695663634
 11
848.81821459503794
 21
753.17824638147476
  0
LINE
  8
_0-0_0
  6
CONTINUOUS
 62
    7
 10
848.81821459503794
 20
753.17824638147476
 11
848.68960039122396
 21
752.92101130713468
  0
LINE
  8
_0-0_0
  6
CONTINUOUS
 62
    7
 10
895.00118050180561
 20
707.41558998609332
 11
894.87715966241342
 21
707.20428855597265
  0
LINE
  8
_0-0_0
  6
CONTINUOUS
 62
    7
 10
894.87715966241342
 20
707.20428855597265
 11
894.62451795249535
 21
707.07796770101368
  0
LINE
  8
_0-0_0
  6
CONTINUOUS
 62
    7
 10
849.07085630495601
 20
707.07796770101368
 11
848.81821459503794
 21
707.20428855597265
  0
LINE
  8
_0-0_0
  6
CONTINUOUS
 62
    7
 10
848.81821459503794
 20
707.20428855597265
 11
848.68960039122396
 21
707.41558998609332
  0
LINE
  8
_0-0_0
  6
CONTINUOUS
 62
    7
 10
285.95125835802207
 20
753.64448953708006
 11
285.65268300388476
 21
753.26322695663634
  0
LINE
  8
_0-0_0
  6
CONTINUOUS
 62
    7
 10
239.72235880703516
 20
753.64448953708006
 11
240.06228110768163
 21
753.26322695663634
  0
LINE
  8
_0-0_0
  6
CONTINUOUS
 62
    7
 10
285.65268300388476
 20
707.07796770101368
 11
285.95125835802207
 21
706.65306482520532
  0
LINE
  8
_0-0_0
  6
CONTINUOUS
 62
    7
 10
240.06228110768163
 20
707.07796770101368
 11
239.72235880703516
 21
706.65306482520532
  0
LINE
  8
_0-0_0
  6
CONTINUOUS
 62
    7
 10
239.341102893303
 20
753.26322695663634
 11
239.72235880703516
 21
752.92101130713468
  0
LINE
  8
_0-0_0
  6
CONTINUOUS
 62
    7
 10
239.72235880703516
 20
707.41558998609332
 11
239.341102893303
 21
707.03432740564949
  0
LINE
  8
_0-0_0
  6
CONTINUOUS
 62
    7
 10
286.33252093846608
 20
753.26322695663634
 11
285.99260530453125
 21
752.92101130713468
  0
LINE
  8
_0-0_0
  6
CONTINUOUS
 62
    7
 10
285.99260530453125
 20
707.41558998609332
 11
286.33482095403281
 21
707.03432740564949
  0
LINE
  8
_0-0_0
  6
CONTINUOUS
 62
    7
 10
285.99260530453125
 20
752.92331132270169
 11
285.86628444957228
 21
753.13461275282202
  0
LINE
  8
_0-0_0
  6
CONTINUOUS
 62
    7
 10
285.86628444957228
 20
753.13461275282202
 11
285.65268300388476
 21
753.26322695663634
  0
LINE
  8
_0-0_0
  6
CONTINUOUS
 62
    7
 10
240.06228110768163
 20
753.26322695663634
 11
239.80963939776373
 21
753.13461275282202
  0
LINE
  8
_0-0_0
  6
CONTINUOUS
 62
    7
 10
239.80963939776373
 20
753.13461275282202
 11
239.72235880703516
 21
752.92101130713468
  0
LINE
  8
_0-0_0
  6
CONTINUOUS
 62
    7
 10
285.99260530453125
 20
707.41558998609332
 11
285.86628444957228
 21
707.20428855597265
  0
LINE
  8
_0-0_0
  6
CONTINUOUS
 62
    7
 10
285.86628444957228
 20
707.20428855597265
 11
285.65268300388476
 21
707.07796770101368
  0
LINE
  8
_0-0_0
  6
CONTINUOUS
 62
    7
 10
240.06228110768163
 20
707.07796770101368
 11
239.84867966199417
 21
707.20428855597265
  0
LINE
  8
_0-0_0
  6
CONTINUOUS
 62
    7
 10
239.84867966199417
 20
707.20428855597265
 11
239.72235880703516
 21
707.41558998609332
  0
LINE
  8
_0-0_0
  6
CONTINUOUS
 62
    7
 10
272.27643913807043
 20
720.70915329231298
 11
267.02607693614266
 21
720.87911444263591
  0
LINE
  8
_0-0_0
  6
CONTINUOUS
 62
    7
 10
253.39718469369865
 20
720.70915329231298
 11
241.37372331705814
 21
708.68568524896045
  0
LINE
  8
_0-0_0
  6
CONTINUOUS
 62
    7
 10
258.68888717542353
 20
720.87911444263591
 11
253.39718469369865
 21
720.70915329231298
  0
LINE
  8
_0-0_0
  6
CONTINUOUS
 62
    7
 10
241.37372331705814
 20
751.61186911332504
 11
253.39718469369865
 21
739.58840106997286
  0
LINE
  8
_0-0_0
  6
CONTINUOUS
 62
    7
 10
267.02607693614266
 20
739.37710630656397
 11
272.27643913807043
 21
739.58840106997286
  0
LINE
  8
_0-0_0
  6
CONTINUOUS
 62
    7
 10
284.29990051471094
 20
751.61186911332504
 11
272.27643913807043
 21
739.58840106997286
  0
LINE
  8
_0-0_0
  6
CONTINUOUS
 62
    7
 10
272.27643913807043
 20
720.70915329231298
 11
284.29990051471094
 21
708.68568524896045
  0
LINE
  8
_0-0_0
  6
CONTINUOUS
 62
    7
 10
253.39718469369865
 20
720.70915329231298
 11
253.6084861238192
 21
725.95951549424046
  0
LINE
  8
_0-0_0
  6
CONTINUOUS
 62
    7
 10
253.6084861238192
 20
734.29669858824786
 11
253.39718469369865
 21
739.58840106997286
  0
LINE
  8
_0-0_0
  6
CONTINUOUS
 62
    7
 10
253.39718469369865
 20
739.58840106997286
 11
258.68888717542353
 21
739.37710630656397
  0
LINE
  8
_0-0_0
  6
CONTINUOUS
 62
    7
 10
881.28501433534461
 20
720.70915329231298
 11
875.99331185361984
 21
720.87911444263591
  0
LINE
  8
_0-0_0
  6
CONTINUOUS
 62
    7
 10
862.40576655768461
 20
720.70915329231298
 11
850.38459852989934
 21
708.68568524896045
  0
LINE
  8
_0-0_0
  6
CONTINUOUS
 62
    7
 10
867.69746903940984
 20
720.87911444263591
 11
862.40576655768461
 21
720.70915329231298
  0
LINE
  8
_0-0_0
  6
CONTINUOUS
 62
    7
 10
850.38459852989934
 20
751.61186911332504
 11
862.40576655768461
 21
739.58840106997286
  0
LINE
  8
_0-0_0
  6
CONTINUOUS
 62
    7
 10
875.99331185361984
 20
739.37710630656397
 11
881.28501433534461
 21
739.58840106997286
  0
LINE
  8
_0-0_0
  6
CONTINUOUS
 62
    7
 10
881.28501433534461
 20
739.58840106997286
 11
881.11965321615526
 21
734.29669858824786
  0
LINE
  8
_0-0_0
  6
CONTINUOUS
 62
    7
 10
893.31077572755225
 20
751.61186911332504
 11
881.28501433534461
 21
739.58840106997286
  0
LINE
  8
_0-0_0
  6
CONTINUOUS
 62
    7
 10
881.28501433534461
 20
720.70915329231298
 11
893.31077572755225
 21
708.68568524896045
  0
LINE
  8
_0-0_0
  6
CONTINUOUS
 62
    7
 10
881.11965321615526
 20
725.95951549424046
 11
881.28501433534461
 21
720.70915329231298
  0
LINE
  8
_0-0_0
  6
CONTINUOUS
 62
    7
 10
862.40576655768461
 20
739.58840106997286
 11
867.69746903940984
 21
739.37710630656397
  0
LINE
  8
_0-1_レイヤ___1
  6
CONTINUOUS
 62
    7
 10
262.83680858252859
 20
698.96459775205108
 11
871.84539044651478
 21
698.96459775205108
  0
LINE
  8
_0-1_レイヤ___1
  6
CONTINUOUS
 62
    7
 10
262.83680858252859
 20
698.96459775205108
 11
267.76084734758962
 21
699.83283864038572
  0
LINE
  8
_0-1_レイヤ___1
  6
CONTINUOUS
 62
    7
 10
262.83680858252859
 20
698.96459775205108
 11
267.76084734758962
 21
698.09635686371644
  0
LINE
  8
_0-1_レイヤ___1
  6
CONTINUOUS
 62
    7
 10
871.84539044651478
 20
698.96459775205108
 11
866.92135168145364
 21
698.09635686371644
  0
LINE
  8
_0-1_レイヤ___1
  6
CONTINUOUS
 62
    7
 10
871.84539044651478
 20
698.96459775205108
 11
866.92135168145364
 21
699.83283864038572
  0
LINE
  8
_0-1_レイヤ___1
  6
CONTINUOUS
 62
    7
 10
895.34110280245216
 20
676.41557814420798
 11
239.34110289330306
 21
676.41557814420798
  0
LINE
  8
_0-1_レイヤ___1
  6
CONTINUOUS
 62
    7
 10
895.34110280245216
 20
676.41557814420798
 11
890.41706403739101
 21
675.54733725587323
  0
LINE
  8
_0-1_レイヤ___1
  6
CONTINUOUS
 62
    7
 10
895.34110280245216
 20
676.41557814420798
 11
890.41706403739101
 21
677.28381903254262
  0
LINE
  8
_0-1_レイヤ___1
  6
CONTINUOUS
 62
    7
 10
239.34110289330306
 20
676.41557814420798
 11
244.26514165836409
 21
677.28381903254262
  0
LINE
  8
_0-1_レイヤ___1
  6
CONTINUOUS
 62
    7
 10
239.34110289330306
 20
676.41557814420798
 11
244.26514165836409
 21
675.54733725587323
  0
TEXT
  8
_0-1_レイヤ___1
 62
    7
 10
557.96610284787766
 20
678.91557814420798
 40
15
 41
1
 50
0
  1
656
  0
LINE
  8
_0-1_レイヤ___1
  6
CONTINUOUS
 62
    7
 10
224.46959725248149
 20
753.64448953708006
 11
224.46959725248149
 21
706.65306482520532
  0
LINE
  8
_0-1_レイヤ___1
  6
CONTINUOUS
 62
    7
 10
224.46959725248149
 20
753.64448953708006
 11
225.33783814081616
 21
748.72045077201903
  0
LINE
  8
_0-1_レイヤ___1
  6
CONTINUOUS
 62
    7
 10
224.46959725248149
 20
753.64448953708006
 11
223.60135636414682
 21
748.72045077201903
  0
LINE
  8
_0-1_レイヤ___1
  6
CONTINUOUS
 62
    7
 10
224.46959725248149
 20
706.65306482520532
 11
223.60135636414682
 21
711.57710359026646
  0
LINE
  8
_0-1_レイヤ___1
  6
CONTINUOUS
 62
    7
 10
224.46959725248149
 20
706.65306482520532
 11
225.33783814081616
 21
711.57710359026646
  0
LINE
  8
_0-1_レイヤ___1
  6
CONTINUOUS
 62
    7
 10
224.46959725248149
 20
753.64448953708006
 11
232.31273450738342
 21
753.64448953708006
  0
LINE
  8
_0-1_レイヤ___1
  6
CONTINUOUS
 62
    7
 10
224.46959725248149
 20
706.65306482520532
 11
232.31273450738342
 21
706.65306482520532
  0
TEXT
  8
_0-1_レイヤ___1
 62
    7
 10
557.96609951452172
 20
701.46459775205108
 40
15
 41
1
 50
0
  1
609
  0
TEXT
  8
_0-1_レイヤ___1
 62
    7
 10
221.96959725248149
 20
723.8987771811428
 40
15
 41
1
 50
90
  1
47
  0
LINE
  8
_0-1_レイヤ___1
  6
CONTINUOUS
 62
    7
 10
871.84539044651478
 20
698.96459775205108
 11
871.84539044651478
 21
717.44777121877621
  0
LINE
  8
_0-1_レイヤ___1
  6
CONTINUOUS
 62
    7
 10
895.34110280245216
 20
676.41557814420798
 11
895.34110280245216
 21
707.03432740564949
  0
LINE
  8
_0-1_レイヤ___1
  6
CONTINUOUS
 62
    7
 10
262.83680858252859
 20
698.96459775205108
 11
262.83680858252859
 21
722.99441542598606
  0
LINE
  8
_0-0_0
  6
CONTINUOUS
 62
    7
 10
262.83680858252859
 20
730.14877718114292
 11
262.83680858252859
 21
751.61186911332504
  0
LINE
  8
_0-0_0
  6
CONTINUOUS
 62
    7
 10
871.84539044651478
 20
730.14877718114292
 11
871.84539044651478
 21
751.61186911332504
  0
LINE
  8
_0-1_レイヤ___1
  6
CONTINUOUS
 62
    7
 10
239.34110289330306
 20
676.41557814420798
 11
239.34110289330306
 21
707.41558998609332
  0
LINE
  8
_0-1_レイヤ___1
  6
CENTER1
 62
    7
 10
882.1761537000466
 20
730.14877718114292
 11
247.49700818637166
 21
730.14877718114292
  0
CIRCLE
  8
_0-0_0
  6
CONTINUOUS
 62
    7
 10
262.83680858252859
 20
730.14877718114292
 40
10.134694262072678
  0
CIRCLE
  8
_0-0_0
  6
CONTINUOUS
 62
    7
 10
871.84539044651478
 20
730.14877718114292
 40
10.178264774551911
  0
LINE
  8
_0-0_0
  6
CONTINUOUS
 62
    7
 10
1089.1980751171377
 20
744.33118650320921
 11
1089.1980751171377
 21
741.3247461551573
  0
LINE
  8
_0-0_0
  6
CONTINUOUS
 62
    7
 10
1089.1980751171377
 20
718.93147459404281
 11
1089.1980751171377
 21
715.9250342459909
  0
LINE
  8
_0-0_0
  6
CONTINUOUS
 62
    7
 10
1089.7906391277022
 20
715.41745081058775
 11
1089.7906391277022
 21
719.43905136273384
  0
LINE
  8
_0-0_0
  6
CONTINUOUS
 62
    7
 10
1089.7906391277022
 20
740.81716271975438
 11
1089.7906391277022
 21
744.83876327190046
  0
LINE
  8
_0-0_0
  6
CONTINUOUS
 62
    7
 10
1092.2435623961317
 20
743.78226278800889
 11
1092.2435623961317
 21
741.87596321921296
  0
LINE
  8
_0-0_0
  6
CONTINUOUS
 62
    7
 10
1092.2435623961317
 20
718.38025086327548
 11
1092.2435623961317
 21
716.47395129447943
  0
LINE
  8
_0-0_0
  6
CONTINUOUS
 62
    7
 10
1093.2173823204287
 20
713.97738773068568
 11
1093.2173823204287
 21
716.47395129447943
  0
LINE
  8
_0-0_0
  6
CONTINUOUS
 62
    7
 10
1093.2173823204287
 20
718.38025086327548
 11
1093.2173823204287
 21
720.88140779149114
  0
LINE
  8
_0-0_0
  6
CONTINUOUS
 62
    7
 10
1093.2173823204287
 20
739.37710630656397
 11
1093.2173823204287
 21
741.87596321921296
  0
LINE
  8
_0-0_0
  6
CONTINUOUS
 62
    7
 10
1093.2173823204287
 20
743.78226278800889
 11
1093.2173823204287
 21
746.27652633623586
  0
LINE
  8
_0-0_0
  6
CONTINUOUS
 62
    7
 10
1096.8186800279
 20
713.97738773068568
 11
1096.8186800279
 21
714.27366973596793
  0
LINE
  8
_0-0_0
  6
CONTINUOUS
 62
    7
 10
1096.8186800279
 20
720.58053242178698
 11
1096.8186800279
 21
720.87911444263591
  0
LINE
  8
_0-0_0
  6
CONTINUOUS
 62
    7
 10
1096.8186800279
 20
739.37710630656397
 11
1096.8186800279
 21
739.67568166070123
  0
LINE
  8
_0-0_0
  6
CONTINUOUS
 62
    7
 10
1096.8186800279
 20
745.9825443465204
 11
1096.8186800279
 21
746.27652633623586
  0
LINE
  8
_0-0_0
  6
CONTINUOUS
 62
    7
 10
1097.8338402319941
 20
713.97738773068568
 11
1097.8338402319941
 21
714.78354652022608
  0
LINE
  8
_0-0_0
  6
CONTINUOUS
 62
    7
 10
1097.8338402319941
 20
720.07524900195085
 11
1097.8338402319941
 21
720.87911444263591
  0
LINE
  8
_0-0_0
  6
CONTINUOUS
 62
    7
 10
1097.8338402319941
 20
739.37710630656397
 11
1097.8338402319941
 21
740.18096508053748
  0
LINE
  8
_0-0_0
  6
CONTINUOUS
 62
    7
 10
1097.8338402319941
 20
745.47266756226236
 11
1097.8338402319941
 21
746.27652633623586
  0
LINE
  8
_0-0_0
  6
CONTINUOUS
 62
    7
 10
1089.7906391277022
 20
744.83876327190046
 11
1087.3790561390701
 21
742.84978314350951
  0
LINE
  8
_0-0_0
  6
CONTINUOUS
 62
    7
 10
1089.7906391277022
 20
744.83876327190046
 11
1087.3790561390701
 21
742.84978314350951
  0
LINE
  8
_0-0_0
  6
CONTINUOUS
 62
    7
 10
1089.7906391277022
 20
715.41745081058775
 11
1087.3790561390701
 21
717.44777121877621
  0
LINE
  8
_0-0_0
  6
CONTINUOUS
 62
    7
 10
1101.4305445750438
 20
713.97738773068568
 11
1101.4305445750438
 21
714.27366973596793
  0
LINE
  8
_0-0_0
  6
CONTINUOUS
 62
    7
 10
1101.4305445750438
 20
720.58053242178698
 11
1101.4305445750438
 21
720.87911444263591
  0
LINE
  8
_0-0_0
  6
CONTINUOUS
 62
    7
 10
1101.4305445750438
 20
739.37710630656397
 11
1101.4305445750438
 21
739.67568166070123
  0
LINE
  8
_0-0_0
  6
CONTINUOUS
 62
    7
 10
1101.4305445750438
 20
745.9825443465204
 11
1101.4305445750438
 21
746.27652633623586
  0
LINE
  8
_0-0_0
  6
CONTINUOUS
 62
    7
 10
1102.4457047791377
 20
713.97738773068568
 11
1102.4457047791377
 21
714.78354652022608
  0
LINE
  8
_0-0_0
  6
CONTINUOUS
 62
    7
 10
1102.4457047791377
 20
720.07524900195085
 11
1102.4457047791377
 21
720.87911444263591
  0
LINE
  8
_0-0_0
  6
CONTINUOUS
 62
    7
 10
1102.4457047791377
 20
739.37710630656397
 11
1102.4457047791377
 21
740.18096508053748
  0
LINE
  8
_0-0_0
  6
CONTINUOUS
 62
    7
 10
1102.4457047791377
 20
745.47266756226236
 11
1102.4457047791377
 21
746.27652633623586
  0
LINE
  8
_0-0_0
  6
CONTINUOUS
 62
    7
 10
1106.0470024866092
 20
713.97738773068568
 11
1106.0470024866092
 21
714.27366973596793
  0
LINE
  8
_0-0_0
  6
CONTINUOUS
 62
    7
 10
1106.0470024866092
 20
720.58053242178698
 11
1106.0470024866092
 21
720.87911444263591
  0
LINE
  8
_0-0_0
  6
CONTINUOUS
 62
    7
 10
1106.0470024866092
 20
739.37710630656397
 11
1106.0470024866092
 21
739.67568166070123
  0
LINE
  8
_0-0_0
  6
CONTINUOUS
 62
    7
 10
1106.0470024866092
 20
745.9825443465204
 11
1106.0470024866092
 21
746.27652633623586
  0
LINE
  8
_0-0_0
  6
CONTINUOUS
 62
    7
 10
1107.020822410906
 20
714.19098917637314
 11
1107.020822410906
 21
714.78354652022608
  0
LINE
  8
_0-0_0
  6
CONTINUOUS
 62
    7
 10
1107.020822410906
 20
720.07524900195085
 11
1107.020822410906
 21
720.87911444263591
  0
LINE
  8
_0-0_0
  6
CONTINUOUS
 62
    7
 10
1107.020822410906
 20
739.58840106997286
 11
1107.020822410906
 21
740.18096508053748
  0
LINE
  8
_0-0_0
  6
CONTINUOUS
 62
    7
 10
1107.020822410906
 20
745.47266756226236
 11
1107.020822410906
 21
746.27652633623586
  0
LINE
  8
_0-0_0
  6
CONTINUOUS
 62
    7
 10
1109.5150926258448
 20
749.45292783461105
 11
1106.3409844763248
 21
746.27652633623586
  0
LINE
  8
_0-0_0
  6
CONTINUOUS
 62
    7
 10
1109.5150926258448
 20
749.45292783461105
 11
1106.3409844763248
 21
746.27652633623586
  0
LINE
  8
_0-0_0
  6
CONTINUOUS
 62
    7
 10
1109.6437068296589
 20
749.32660697965184
 11
1106.5982262173766
 21
746.27652633623586
  0
LINE
  8
_0-0_0
  6
CONTINUOUS
 62
    7
 10
1107.020822410906
 20
745.72760262103543
 11
1110.1535836139169
 21
748.81443017982701
  0
LINE
  8
_0-0_0
  6
CONTINUOUS
 62
    7
 10
1107.1035096372125
 20
745.47266756226236
 11
1110.2776111200208
 21
748.69270268928994
  0
LINE
  8
_0-0_0
  6
CONTINUOUS
 62
    7
 10
1090.7231187722014
 20
744.83876327190046
 11
1093.2173823204287
 21
746.27652633623586
  0
LINE
  8
_0-0_0
  6
CONTINUOUS
 62
    7
 10
1090.7231187722014
 20
744.83876327190046
 11
1093.2173823204287
 21
746.27652633623586
  0
LINE
  8
_0-0_0
  6
CONTINUOUS
 62
    7
 10
1090.7231187722014
 20
715.41745081058775
 11
1093.2173823204287
 21
713.97738773068568
  0
LINE
  8
_0-0_0
  6
CONTINUOUS
 62
    7
 10
1106.1710299927131
 20
714.14734888100861
 11
1109.5150926258448
 21
710.80099289902228
  0
LINE
  8
_0-0_0
  6
CONTINUOUS
 62
    7
 10
1106.3823314228339
 20
714.19098917637314
 11
1109.6437068296589
 21
710.97094738263365
  0
LINE
  8
_0-0_0
  6
CONTINUOUS
 62
    7
 10
1110.1535836139169
 20
711.43719053823918
 11
1107.020822410906
 21
714.56995174125029
  0
LINE
  8
_0-0_0
  6
CONTINUOUS
 62
    7
 10
1110.2776111200208
 20
711.60715168856257
 11
1107.1035096372125
 21
714.78354652022608
  0
LINE
  8
_0-0_0
  6
CONTINUOUS
 62
    7
 10
1110.2776111200208
 20
711.60715168856257
 11
1107.1035096372125
 21
714.78354652022608
  0
LINE
  8
_0-0_0
  6
CONTINUOUS
 62
    7
 10
1110.6175267539559
 20
739.67568166070123
 11
1110.6175267539559
 21
739.37710630656397
  0
LINE
  8
_0-0_0
  6
CONTINUOUS
 62
    7
 10
1110.6175267539559
 20
714.27366973596793
 11
1110.6175267539559
 21
713.97738773068568
  0
LINE
  8
_0-0_0
  6
CONTINUOUS
 62
    7
 10
1110.6175267539559
 20
720.58053242178698
 11
1110.6175267539559
 21
720.87911444263591
  0
LINE
  8
_0-0_0
  6
CONTINUOUS
 62
    7
 10
1110.6175267539559
 20
745.9825443465204
 11
1110.6175267539559
 21
746.27652633623586
  0
LINE
  8
_0-0_0
  6
CONTINUOUS
 62
    7
 10
1111.6326869580498
 20
713.97738773068568
 11
1111.6326869580498
 21
714.78354652022608
  0
LINE
  8
_0-0_0
  6
CONTINUOUS
 62
    7
 10
1111.6326869580498
 20
720.07524900195085
 11
1111.6326869580498
 21
720.87911444263591
  0
LINE
  8
_0-0_0
  6
CONTINUOUS
 62
    7
 10
1111.6326869580498
 20
739.37710630656397
 11
1111.6326869580498
 21
740.18096508053748
  0
LINE
  8
_0-0_0
  6
CONTINUOUS
 62
    7
 10
1111.6326869580498
 20
745.47266756226236
 11
1111.6326869580498
 21
746.27652633623586
  0
LINE
  8
_0-0_0
  6
CONTINUOUS
 62
    7
 10
1112.2252509686143
 20
716.47395129447943
 11
1112.2252509686143
 21
718.38255087884227
  0
LINE
  8
_0-0_0
  6
CONTINUOUS
 62
    7
 10
1112.2252509686143
 20
741.87596321921296
 11
1112.2252509686143
 21
743.78226278800889
  0
LINE
  8
_0-0_0
  6
CONTINUOUS
 62
    7
 10
1115.2339846655213
 20
713.97738773068568
 11
1115.2339846655213
 21
714.27366973596793
  0
LINE
  8
_0-0_0
  6
CONTINUOUS
 62
    7
 10
1115.2339846655213
 20
720.58053242178698
 11
1115.2339846655213
 21
720.87911444263591
  0
LINE
  8
_0-0_0
  6
CONTINUOUS
 62
    7
 10
1115.2339846655213
 20
739.37710630656397
 11
1115.2339846655213
 21
739.67568166070123
  0
LINE
  8
_0-0_0
  6
CONTINUOUS
 62
    7
 10
1115.2339846655213
 20
745.9825443465204
 11
1115.2339846655213
 21
746.27652633623586
  0
LINE
  8
_0-0_0
  6
CONTINUOUS
 62
    7
 10
1110.1535836139169
 20
736.83690244740592
 11
1110.2776111200208
 21
737.00686359772919
  0
LINE
  8
_0-0_0
  6
CONTINUOUS
 62
    7
 10
1116.331832095922
 20
747.88654389974965
 11
1116.0378501062066
 21
747.5902685611793
  0
LINE
  8
_0-0_0
  6
CONTINUOUS
 62
    7
 10
1116.331832095922
 20
712.36967018273856
 11
1116.0378501062066
 21
712.66594552130914
  0
LINE
  8
_0-0_0
  6
CONTINUOUS
 62
    7
 10
1109.6437068296589
 20
723.92459505491843
 11
1109.5150926258448
 21
724.05321592544419
  0
LINE
  8
_0-0_0
  6
CONTINUOUS
 62
    7
 10
1110.1535836139169
 20
723.41931163508252
 11
1110.2776111200208
 21
723.29069743126843
  0
LINE
  8
_0-0_0
  6
CONTINUOUS
 62
    7
 10
1116.0378501062066
 20
712.66594552130914
 11
1116.0378501062066
 21
714.95120765498223
  0
LINE
  8
_0-0_0
  6
CONTINUOUS
 62
    7
 10
1116.0378501062066
 20
746.27652633623586
 11
1116.0378501062066
 21
747.5902685611793
  0
LINE
  8
_0-0_0
  6
CONTINUOUS
 62
    7
 10
1116.331832095922
 20
706.65306482520532
 11
1116.331832095922
 21
753.64448953708006
  0
LINE
  8
_0-0_0
  6
CONTINUOUS
 62
    7
 10
1117.094350590098
 20
753.64448953708006
 11
1117.094350590098
 21
707.03432740564949
  0
LINE
  8
_0-0_0
  6
CONTINUOUS
 62
    7
 10
1118.87203595508
 20
752.92331132270169
 11
1118.87203595508
 21
707.41558998609332
  0
LINE
  8
_0-0_0
  6
CONTINUOUS
 62
    7
 10
1119.1292710294199
 20
752.92331132270169
 11
1119.1292710294199
 21
707.41558998609332
  0
LINE
  8
_0-0_0
  6
CONTINUOUS
 62
    7
 10
1089.7906391277022
 20
719.43905136273384
 11
1087.3790561390701
 21
717.44777121877621
  0
LINE
  8
_0-0_0
  6
CONTINUOUS
 62
    7
 10
1089.7906391277022
 20
719.43905136273384
 11
1087.3790561390701
 21
717.44777121877621
  0
LINE
  8
_0-0_0
  6
CONTINUOUS
 62
    7
 10
1089.7906391277022
 20
740.81716271975438
 11
1087.3790561390701
 21
742.84978314350951
  0
LINE
  8
_0-0_0
  6
CONTINUOUS
 62
    7
 10
1121.1595914376082
 20
708.68568524896045
 11
1121.1595914376082
 21
751.61186911332504
  0
LINE
  8
_0-0_0
  6
CONTINUOUS
 62
    7
 10
1109.5150926258448
 20
724.05321592544419
 11
1106.3409844763248
 21
720.87911444263591
  0
LINE
  8
_0-0_0
  6
CONTINUOUS
 62
    7
 10
1109.5150926258448
 20
724.05321592544419
 11
1106.3409844763248
 21
720.87911444263591
  0
LINE
  8
_0-0_0
  6
CONTINUOUS
 62
    7
 10
1110.6175267539559
 20
739.67568166070123
 11
1111.6326869580498
 21
740.18096508053748
  0
LINE
  8
_0-0_0
  6
CONTINUOUS
 62
    7
 10
1117.094350590098
 20
706.65306482520532
 11
1116.331832095922
 21
706.65306482520532
  0
LINE
  8
_0-0_0
  6
CONTINUOUS
 62
    7
 10
1117.094350590098
 20
707.03432740564949
 11
1116.331832095922
 21
707.03432740564949
  0
LINE
  8
_0-0_0
  6
CONTINUOUS
 62
    7
 10
1119.1292710294199
 20
707.41558998609332
 11
1118.87203595508
 21
707.41558998609332
  0
LINE
  8
_0-0_0
  6
CONTINUOUS
 62
    7
 10
1121.1595914376082
 20
708.68568524896045
 11
1119.1292710294199
 21
708.68568524896045
  0
LINE
  8
_0-0_0
  6
CONTINUOUS
 62
    7
 10
1096.8186800279
 20
714.27366973596793
 11
1093.2173823204287
 21
714.78354652022608
  0
LINE
  8
_0-0_0
  6
CONTINUOUS
 62
    7
 10
1101.4305445750438
 20
714.27366973596793
 11
1097.8338402319941
 21
714.78354652022608
  0
LINE
  8
_0-0_0
  6
CONTINUOUS
 62
    7
 10
1106.0470024866092
 20
714.27366973596793
 11
1102.4457047791377
 21
714.78354652022608
  0
LINE
  8
_0-0_0
  6
CONTINUOUS
 62
    7
 10
1110.6175267539559
 20
714.27366973596793
 11
1107.020822410906
 21
714.78354652022608
  0
LINE
  8
_0-0_0
  6
CONTINUOUS
 62
    7
 10
1106.1710299927131
 20
739.54706079017546
 11
1109.5150926258448
 21
736.20299815704402
  0
LINE
  8
_0-0_0
  6
CONTINUOUS
 62
    7
 10
1109.6437068296589
 20
723.92459505491843
 11
1106.5982262173766
 21
720.87911444263591
  0
LINE
  8
_0-0_0
  6
CONTINUOUS
 62
    7
 10
1107.020822410906
 20
720.3278907118688
 11
1110.1535836139169
 21
723.41701828622729
  0
LINE
  8
_0-0_0
  6
CONTINUOUS
 62
    7
 10
1107.1035096372125
 20
720.07524900195085
 11
1110.2776111200208
 21
723.29069743126843
  0
LINE
  8
_0-0_0
  6
CONTINUOUS
 62
    7
 10
1090.7231187722014
 20
719.43905136273384
 11
1093.2173823204287
 21
720.87911444263591
  0
LINE
  8
_0-0_0
  6
CONTINUOUS
 62
    7
 10
1090.7231187722014
 20
719.43905136273384
 11
1093.2173823204287
 21
720.87911444263591
  0
LINE
  8
_0-0_0
  6
CONTINUOUS
 62
    7
 10
1116.0378501062066
 20
713.97738773068568
 11
1115.2339846655213
 21
713.97738773068568
  0
LINE
  8
_0-0_0
  6
CONTINUOUS
 62
    7
 10
1106.3409844763248
 20
713.97738773068568
 11
1106.0470024866092
 21
713.97738773068568
  0
LINE
  8
_0-0_0
  6
CONTINUOUS
 62
    7
 10
1102.4457047791377
 20
713.97738773068568
 11
1101.4305445750438
 21
713.97738773068568
  0
LINE
  8
_0-0_0
  6
CONTINUOUS
 62
    7
 10
1097.8338402319941
 20
713.97738773068568
 11
1096.8186800279
 21
713.97738773068568
  0
LINE
  8
_0-0_0
  6
CONTINUOUS
 62
    7
 10
1111.6326869580498
 20
713.97738773068568
 11
1110.6175267539559
 21
713.97738773068568
  0
LINE
  8
_0-0_0
  6
CONTINUOUS
 62
    7
 10
1107.020822410906
 20
714.19098917637314
 11
1106.3823314228339
 21
714.19098917637314
  0
LINE
  8
_0-0_0
  6
CONTINUOUS
 62
    7
 10
1115.2339846655213
 20
714.27366973596793
 11
1111.6326869580498
 21
714.78354652022608
  0
LINE
  8
_0-0_0
  6
CONTINUOUS
 62
    7
 10
1090.7231187722014
 20
740.81716271975438
 11
1093.2173823204287
 21
739.37710630656397
  0
LINE
  8
_0-0_0
  6
CONTINUOUS
 62
    7
 10
1106.3823314228339
 20
739.58840106997286
 11
1109.6437068296589
 21
736.37295930736718
  0
LINE
  8
_0-0_0
  6
CONTINUOUS
 62
    7
 10
1110.1535836139169
 20
736.83690244740592
 11
1107.020822410906
 21
739.9283233706193
  0
LINE
  8
_0-0_0
  6
CONTINUOUS
 62
    7
 10
1110.2776111200208
 20
737.00686359772919
 11
1107.1035096372125
 21
740.18096508053748
  0
LINE
  8
_0-0_0
  6
CONTINUOUS
 62
    7
 10
1110.2776111200208
 20
737.00686359772919
 11
1107.1035096372125
 21
740.18096508053748
  0
LINE
  8
_0-0_0
  6
CONTINUOUS
 62
    7
 10
1090.7231187722014
 20
715.41745081058775
 11
1089.7906391277022
 21
715.41745081058775
  0
LINE
  8
_0-0_0
  6
CONTINUOUS
 62
    7
 10
1089.1980751171377
 20
715.9250342459909
 11
1090.2132353212317
 21
715.9250342459909
  0
LINE
  8
_0-0_0
  6
CONTINUOUS
 62
    7
 10
1112.2252509686143
 20
716.47395129447943
 11
1092.2435623961317
 21
716.47395129447943
  0
LINE
  8
_0-0_0
  6
CONTINUOUS
 62
    7
 10
1089.5425907822059
 20
717.44777121877621
 11
1106.2628972811517
 21
717.44777121877621
  0
LINE
  8
_0-0_0
  6
CONTINUOUS
 62
    7
 10
1105.1145228421101
 20
717.44777121877621
 11
1108.6698869053621
 21
717.44777121877621
  0
LINE
  8
_0-0_0
  6
CONTINUOUS
 62
    7
 10
1112.2252509686143
 20
717.44777121877621
 11
1128.9501508319822
 21
717.44777121877621
  0
LINE
  8
_0-0_0
  6
CONTINUOUS
 62
    7
 10
1092.2435623961317
 20
718.38025086327548
 11
1112.2252509686143
 21
718.38025086327548
  0
LINE
  8
_0-0_0
  6
CONTINUOUS
 62
    7
 10
1110.1535836139169
 20
711.43719053823918
 11
1110.2776111200208
 21
711.60715168856257
  0
LINE
  8
_0-0_0
  6
CONTINUOUS
 62
    7
 10
1116.331832095922
 20
715.28882994006176
 11
1116.0378501062066
 21
714.95120765498223
  0
LINE
  8
_0-0_0
  6
CONTINUOUS
 62
    7
 10
1089.1980751171377
 20
718.93147459404281
 11
1090.2132353212317
 21
718.93147459404281
  0
LINE
  8
_0-0_0
  6
CONTINUOUS
 62
    7
 10
1090.7231187722014
 20
719.43905136273384
 11
1089.7906391277022
 21
719.43905136273384
  0
LINE
  8
_0-0_0
  6
CONTINUOUS
 62
    7
 10
1090.7231187722014
 20
719.43905136273384
 11
1089.7906391277022
 21
719.43905136273384
  0
LINE
  8
_0-0_0
  6
CONTINUOUS
 62
    7
 10
1186.6903482932082
 20
719.86165422297518
 11
1190.2457056897488
 21
719.86165422297518
  0
LINE
  8
_0-0_0
  6
CONTINUOUS
 62
    7
 10
1186.6903482932082
 20
719.86165422297518
 11
1190.2457056897488
 21
719.86165422297518
  0
LINE
  8
_0-0_0
  6
CONTINUOUS
 62
    7
 10
1179.8322618766219
 20
719.98797507793415
 11
1186.1391245624411
 21
719.98797507793415
  0
LINE
  8
_0-0_0
  6
CONTINUOUS
 62
    7
 10
1190.7969294205159
 20
719.98797507793415
 11
1197.103792106335
 21
719.98797507793415
  0
LINE
  8
_0-0_0
  6
CONTINUOUS
 62
    7
 10
1186.8189624970225
 20
720.11658928174825
 11
1190.0803445705592
 21
720.11658928174825
  0
LINE
  8
_0-0_0
  6
CONTINUOUS
 62
    7
 10
1111.6326869580498
 20
720.87911444263591
 11
1110.6175267539559
 21
720.87911444263591
  0
LINE
  8
_0-0_0
  6
CONTINUOUS
 62
    7
 10
1111.6326869580498
 20
720.87911444263591
 11
1110.6175267539559
 21
720.87911444263591
  0
LINE
  8
_0-0_0
  6
CONTINUOUS
 62
    7
 10
1116.331832095922
 20
720.87911444263591
 11
1115.2339846655213
 21
720.87911444263591
  0
LINE
  8
_0-0_0
  6
CONTINUOUS
 62
    7
 10
1107.020822410906
 20
720.87911444263591
 11
1106.0470024866092
 21
720.87911444263591
  0
LINE
  8
_0-0_0
  6
CONTINUOUS
 62
    7
 10
1102.4457047791377
 20
720.87911444263591
 11
1101.4305445750438
 21
720.87911444263591
  0
LINE
  8
_0-0_0
  6
CONTINUOUS
 62
    7
 10
1097.8338402319941
 20
720.87911444263591
 11
1096.8186800279
 21
720.87911444263591
  0
LINE
  8
_0-0_0
  6
CONTINUOUS
 62
    7
 10
1116.331832095922
 20
720.87911444263591
 11
1115.2339846655213
 21
720.87911444263591
  0
LINE
  8
_0-0_0
  6
CONTINUOUS
 62
    7
 10
1106.3409844763248
 20
720.87911444263591
 11
1106.0470024866092
 21
720.87911444263591
  0
LINE
  8
_0-0_0
  6
CONTINUOUS
 62
    7
 10
1102.4457047791377
 20
720.87911444263591
 11
1101.4305445750438
 21
720.87911444263591
  0
LINE
  8
_0-0_0
  6
CONTINUOUS
 62
    7
 10
1097.8338402319941
 20
720.87911444263591
 11
1096.8186800279
 21
720.87911444263591
  0
LINE
  8
_0-0_0
  6
CONTINUOUS
 62
    7
 10
1109.6437068296589
 20
749.32660697965184
 11
1109.5150926258448
 21
749.45292783461105
  0
LINE
  8
_0-0_0
  6
CONTINUOUS
 62
    7
 10
1110.1535836139169
 20
748.81673019539392
 11
1110.2776111200208
 21
748.69270268928994
  0
LINE
  8
_0-0_0
  6
CONTINUOUS
 62
    7
 10
1111.6326869580498
 20
720.07524900195085
 11
1115.2339846655213
 21
720.58053242178698
  0
LINE
  8
_0-0_0
  6
CONTINUOUS
 62
    7
 10
1111.6326869580498
 20
720.07524900195085
 11
1115.2339846655213
 21
720.58053242178698
  0
LINE
  8
_0-0_0
  6
CONTINUOUS
 62
    7
 10
1107.020822410906
 20
720.07524900195085
 11
1110.6175267539559
 21
720.58053242178698
  0
LINE
  8
_0-0_0
  6
CONTINUOUS
 62
    7
 10
1107.1035096372125
 20
720.07524900195085
 11
1110.6175267539559
 21
720.58053242178698
  0
LINE
  8
_0-0_0
  6
CONTINUOUS
 62
    7
 10
1102.4457047791377
 20
720.07524900195085
 11
1106.0470024866092
 21
720.58053242178698
  0
LINE
  8
_0-0_0
  6
CONTINUOUS
 62
    7
 10
1102.4457047791377
 20
720.07524900195085
 11
1106.0470024866092
 21
720.58053242178698
  0
LINE
  8
_0-0_0
  6
CONTINUOUS
 62
    7
 10
1097.8338402319941
 20
720.07524900195085
 11
1101.4305445750438
 21
720.58053242178698
  0
LINE
  8
_0-0_0
  6
CONTINUOUS
 62
    7
 10
1097.8338402319941
 20
720.07524900195085
 11
1101.4305445750438
 21
720.58053242178698
  0
LINE
  8
_0-0_0
  6
CONTINUOUS
 62
    7
 10
1110.6175267539559
 20
714.27366973596793
 11
1111.6326869580498
 21
714.78354652022608
  0
LINE
  8
_0-0_0
  6
CONTINUOUS
 62
    7
 10
1093.2173823204287
 20
720.07524900195085
 11
1096.8186800279
 21
720.58053242178698
  0
LINE
  8
_0-0_0
  6
CONTINUOUS
 62
    7
 10
1093.2173823204287
 20
720.07524900195085
 11
1096.8186800279
 21
720.58053242178698
  0
LINE
  8
_0-0_0
  6
CONTINUOUS
 62
    7
 10
1096.8186800279
 20
739.67568166070123
 11
1093.2173823204287
 21
740.18096508053748
  0
LINE
  8
_0-0_0
  6
CONTINUOUS
 62
    7
 10
1101.4305445750438
 20
739.67568166070123
 11
1097.8338402319941
 21
740.18096508053748
  0
LINE
  8
_0-0_0
  6
CONTINUOUS
 62
    7
 10
1106.0470024866092
 20
739.67568166070123
 11
1102.4457047791377
 21
740.18096508053748
  0
LINE
  8
_0-0_0
  6
CONTINUOUS
 62
    7
 10
1110.6175267539559
 20
739.67568166070123
 11
1107.020822410906
 21
740.18096508053748
  0
LINE
  8
_0-0_0
  6
CONTINUOUS
 62
    7
 10
1115.2339846655213
 20
739.67568166070123
 11
1111.6326869580498
 21
740.18096508053748
  0
LINE
  8
_0-0_0
  6
CONTINUOUS
 62
    7
 10
1116.331832095922
 20
739.37710630656397
 11
1115.2339846655213
 21
739.37710630656397
  0
LINE
  8
_0-0_0
  6
CONTINUOUS
 62
    7
 10
1106.3409844763248
 20
739.37710630656397
 11
1106.0470024866092
 21
739.37710630656397
  0
LINE
  8
_0-0_0
  6
CONTINUOUS
 62
    7
 10
1102.4457047791377
 20
739.37710630656397
 11
1101.4305445750438
 21
739.37710630656397
  0
LINE
  8
_0-0_0
  6
CONTINUOUS
 62
    7
 10
1097.8338402319941
 20
739.37710630656397
 11
1096.8186800279
 21
739.37710630656397
  0
LINE
  8
_0-0_0
  6
CONTINUOUS
 62
    7
 10
1111.6326869580498
 20
739.37710630656397
 11
1110.6175267539559
 21
739.37710630656397
  0
LINE
  8
_0-0_0
  6
CONTINUOUS
 62
    7
 10
1107.020822410906
 20
739.58840106997286
 11
1106.3823314228339
 21
739.58840106997286
  0
LINE
  8
_0-0_0
  6
CONTINUOUS
 62
    7
 10
1179.8322618766219
 20
740.30957928435157
 11
1197.103792106335
 21
740.30957928435157
  0
LINE
  8
_0-0_0
  6
CONTINUOUS
 62
    7
 10
1090.7231187722014
 20
740.81716271975438
 11
1089.7906391277022
 21
740.81716271975438
  0
LINE
  8
_0-0_0
  6
CONTINUOUS
 62
    7
 10
1089.1980751171377
 20
741.3247461551573
 11
1090.2132353212317
 21
741.3247461551573
  0
LINE
  8
_0-0_0
  6
CONTINUOUS
 62
    7
 10
1112.2252509686143
 20
741.87596321921296
 11
1092.2435623961317
 21
741.87596321921296
  0
LINE
  8
_0-0_0
  6
CONTINUOUS
 62
    7
 10
1089.5425907822059
 20
742.84978314350951
 11
1106.2628972811517
 21
742.84978314350951
  0
LINE
  8
_0-0_0
  6
CONTINUOUS
 62
    7
 10
1105.1145228421101
 20
742.84978314350951
 11
1108.6698869053621
 21
742.84978314350951
  0
LINE
  8
_0-0_0
  6
CONTINUOUS
 62
    7
 10
1112.2252509686143
 20
742.84978314350951
 11
1128.9501508319822
 21
742.84978314350951
  0
LINE
  8
_0-0_0
  6
CONTINUOUS
 62
    7
 10
1177.2920580174637
 20
738.15063800563735
 11
1179.8322618766219
 21
740.30957928435157
  0
LINE
  8
_0-0_0
  6
CONTINUOUS
 62
    7
 10
1092.2435623961317
 20
743.78226278800889
 11
1112.2252509686143
 21
743.78226278800889
  0
LINE
  8
_0-0_0
  6
CONTINUOUS
 62
    7
 10
1089.1980751171377
 20
744.33118650320921
 11
1090.2132353212317
 21
744.33118650320921
  0
LINE
  8
_0-0_0
  6
CONTINUOUS
 62
    7
 10
1090.7231187722014
 20
744.83876327190046
 11
1089.7906391277022
 21
744.83876327190046
  0
LINE
  8
_0-0_0
  6
CONTINUOUS
 62
    7
 10
1090.7231187722014
 20
744.83876327190046
 11
1089.7906391277022
 21
744.83876327190046
  0
LINE
  8
_0-0_0
  6
CONTINUOUS
 62
    7
 10
1111.6326869580498
 20
746.27652633623586
 11
1110.6175267539559
 21
746.27652633623586
  0
LINE
  8
_0-0_0
  6
CONTINUOUS
 62
    7
 10
1111.6326869580498
 20
746.27652633623586
 11
1110.6175267539559
 21
746.27652633623586
  0
LINE
  8
_0-0_0
  6
CONTINUOUS
 62
    7
 10
1116.331832095922
 20
746.27652633623586
 11
1115.2339846655213
 21
746.27652633623586
  0
LINE
  8
_0-0_0
  6
CONTINUOUS
 62
    7
 10
1107.020822410906
 20
746.27652633623586
 11
1106.0470024866092
 21
746.27652633623586
  0
LINE
  8
_0-0_0
  6
CONTINUOUS
 62
    7
 10
1102.4457047791377
 20
746.27652633623586
 11
1101.4305445750438
 21
746.27652633623586
  0
LINE
  8
_0-0_0
  6
CONTINUOUS
 62
    7
 10
1097.8338402319941
 20
746.27652633623586
 11
1096.8186800279
 21
746.27652633623586
  0
LINE
  8
_0-0_0
  6
CONTINUOUS
 62
    7
 10
1116.0378501062066
 20
746.27652633623586
 11
1115.2339846655213
 21
746.27652633623586
  0
LINE
  8
_0-0_0
  6
CONTINUOUS
 62
    7
 10
1106.3409844763248
 20
746.27652633623586
 11
1106.0470024866092
 21
746.27652633623586
  0
LINE
  8
_0-0_0
  6
CONTINUOUS
 62
    7
 10
1102.4457047791377
 20
746.27652633623586
 11
1101.4305445750438
 21
746.27652633623586
  0
LINE
  8
_0-0_0
  6
CONTINUOUS
 62
    7
 10
1097.8338402319941
 20
746.27652633623586
 11
1096.8186800279
 21
746.27652633623586
  0
LINE
  8
_0-0_0
  6
CONTINUOUS
 62
    7
 10
1177.2920580174637
 20
722.10557607685109
 11
1179.8322618766219
 21
719.98797507793415
  0
LINE
  8
_0-0_0
  6
CONTINUOUS
 62
    7
 10
1111.6326869580498
 20
745.47266756226236
 11
1115.2339846655213
 21
745.9825443465204
  0
LINE
  8
_0-0_0
  6
CONTINUOUS
 62
    7
 10
1111.6326869580498
 20
745.47266756226236
 11
1115.2339846655213
 21
745.9825443465204
  0
LINE
  8
_0-0_0
  6
CONTINUOUS
 62
    7
 10
1107.020822410906
 20
745.47266756226236
 11
1110.6175267539559
 21
745.9825443465204
  0
LINE
  8
_0-0_0
  6
CONTINUOUS
 62
    7
 10
1107.1035096372125
 20
745.47266756226236
 11
1110.6175267539559
 21
745.9825443465204
  0
LINE
  8
_0-0_0
  6
CONTINUOUS
 62
    7
 10
1102.4457047791377
 20
745.47266756226236
 11
1106.0470024866092
 21
745.9825443465204
  0
LINE
  8
_0-0_0
  6
CONTINUOUS
 62
    7
 10
1102.4457047791377
 20
745.47266756226236
 11
1106.0470024866092
 21
745.9825443465204
  0
LINE
  8
_0-0_0
  6
CONTINUOUS
 62
    7
 10
1097.8338402319941
 20
745.47266756226236
 11
1101.4305445750438
 21
745.9825443465204
  0
LINE
  8
_0-0_0
  6
CONTINUOUS
 62
    7
 10
1097.8338402319941
 20
745.47266756226236
 11
1101.4305445750438
 21
745.9825443465204
  0
LINE
  8
_0-0_0
  6
CONTINUOUS
 62
    7
 10
1093.2173823204287
 20
745.47266756226236
 11
1096.8186800279
 21
745.9825443465204
  0
LINE
  8
_0-0_0
  6
CONTINUOUS
 62
    7
 10
1093.2173823204287
 20
745.47266756226236
 11
1096.8186800279
 21
745.9825443465204
  0
LINE
  8
_0-0_0
  6
CONTINUOUS
 62
    7
 10
1121.1595914376082
 20
751.61186911332504
 11
1119.1292710294199
 21
751.61186911332504
  0
LINE
  8
_0-0_0
  6
CONTINUOUS
 62
    7
 10
1118.87203595508
 20
752.92331132270169
 11
1119.1292710294199
 21
752.92331132270169
  0
LINE
  8
_0-0_0
  6
CONTINUOUS
 62
    7
 10
1116.331832095922
 20
753.26322695663634
 11
1117.094350590098
 21
753.26322695663634
  0
LINE
  8
_0-0_0
  6
CONTINUOUS
 62
    7
 10
1116.331832095922
 20
753.64448953708006
 11
1117.094350590098
 21
753.64448953708006
  0
LINE
  8
_0-0_0
  6
CONTINUOUS
 62
    7
 10
1186.6903482932082
 20
719.86165422297518
 11
1186.4790468630874
 21
720.03161537329845
  0
LINE
  8
_0-0_0
  6
CONTINUOUS
 62
    7
 10
1177.2920580174637
 20
739.2944190802574
 11
1177.2920580174637
 21
721.00543529759511
  0
LINE
  8
_0-0_0
  6
CONTINUOUS
 62
    7
 10
1179.8322618766219
 20
740.30957928435157
 11
1179.8322618766219
 21
719.98797507793415
  0
LINE
  8
_0-0_0
  6
CONTINUOUS
 62
    7
 10
1190.2457056897488
 20
719.86165422297518
 11
1190.4570071198693
 21
720.03161537329845
  0
LINE
  8
_0-0_0
  6
CONTINUOUS
 62
    7
 10
1186.396359636781
 20
720.03161537329845
 11
1186.396359636781
 21
719.98797507793415
  0
LINE
  8
_0-0_0
  6
CONTINUOUS
 62
    7
 10
1186.6903482932082
 20
720.07524900195085
 11
1186.6903482932082
 21
719.86165422297518
  0
LINE
  8
_0-0_0
  6
CONTINUOUS
 62
    7
 10
1190.2457056897488
 20
720.07524900195085
 11
1190.2457056897488
 21
719.86165422297518
  0
LINE
  8
_0-0_0
  6
CONTINUOUS
 62
    7
 10
1190.5442877105979
 20
720.03161537329845
 11
1190.5442877105979
 21
719.98797507793415
  0
LINE
  8
_0-0_0
  6
CONTINUOUS
 62
    7
 10
1197.103792106335
 20
740.30957928435157
 11
1197.103792106335
 21
719.98797507793415
  0
LINE
  8
_0-0_0
  6
CONTINUOUS
 62
    7
 10
1117.1081306833639
 20
707.0389207700714
 11
1118.8995961416117
 21
707.44085015705787
  0
LINE
  8
_0-0_0
  6
CONTINUOUS
 62
    7
 10
1117.1035373189418
 20
706.65766485633924
 11
1118.9087828704555
 21
707.09634115870131
  0
LINE
  8
_0-0_0
  6
CONTINUOUS
 62
    7
 10
1110.4475722703442
 20
711.20062227044195
 11
1110.2913912132867
 21
711.57958483531934
  0
LINE
  8
_0-0_0
  6
CONTINUOUS
 62
    7
 10
1109.5426528123764
 20
710.83314644997586
 11
1110.0571229610564
 21
710.69304550175104
  0
LINE
  8
_0-0_0
  6
CONTINUOUS
 62
    7
 10
1110.0571229610564
 20
710.69304550175104
 11
1110.4291921459446
 21
711.06741470220595
  0
LINE
  8
_0-0_0
  6
CONTINUOUS
 62
    7
 10
1110.4291921459446
 20
711.06741470220595
 11
1110.2913912132867
 21
711.57958483531934
  0
LINE
  8
_0-0_0
  6
CONTINUOUS
 62
    7
 10
1110.4475722703442
 20
723.69262681825512
 11
1110.1214300629633
 21
724.18183012925851
  0
LINE
  8
_0-0_0
  6
CONTINUOUS
 62
    7
 10
1110.1214300629633
 20
724.18183012925851
 11
1109.5472461767981
 21
724.06699601871026
  0
LINE
  8
_0-0_0
  6
CONTINUOUS
 62
    7
 10
1110.2913912132867
 20
723.31825761779987
 11
1110.2913912132867
 21
724.06699601871026
  0
LINE
  8
_0-0_0
  6
CONTINUOUS
 62
    7
 10
1110.2913912132867
 20
724.06699601871026
 11
1109.5472461767981
 21
724.06699601871026
  0
LINE
  8
_0-0_0
  6
CONTINUOUS
 62
    7
 10
1118.9179695992993
 20
707.11241460082215
 11
1119.1292710294199
 21
707.43855680820297
  0
LINE
  8
_0-0_0
  6
CONTINUOUS
 62
    7
 10
1109.6620802873467
 20
710.95257392494602
 11
1110.0111893168369
 21
710.85611327208539
  0
LINE
  8
_0-0_0
  6
CONTINUOUS
 62
    7
 10
1110.0111893168369
 20
710.85611327208539
 11
1110.2684243911769
 21
711.11105499757036
  0
LINE
  8
_0-0_0
  6
CONTINUOUS
 62
    7
 10
1110.2684243911769
 20
711.11105499757036
 11
1110.1719570716048
 21
711.46015736034883
  0
LINE
  8
_0-0_0
  6
CONTINUOUS
 62
    7
 10
1110.1719570716048
 20
723.43768509277027
 11
1110.1719570716048
 21
723.94756187702808
  0
LINE
  8
_0-0_0
  6
CONTINUOUS
 62
    7
 10
1110.1719570716048
 20
723.94756187702808
 11
1109.6666736517686
 21
723.94756187702808
  0
LINE
  8
_0-0_0
  6
CONTINUOUS
 62
    7
 10
1118.9087828704555
 20
752.94168478038932
 11
1117.1127240477856
 21
753.26322695663634
  0
LINE
  8
_0-0_0
  6
CONTINUOUS
 62
    7
 10
1118.9041895060334
 20
753.29538050758993
 11
1117.1173174122075
 21
753.64448953708006
  0
LINE
  8
_0-0_0
  6
CONTINUOUS
 62
    7
 10
1118.9041895060334
 20
753.29538050758993
 11
1117.1173174122075
 21
753.64448953708006
  0
LINE
  8
_0-0_0
  6
CONTINUOUS
 62
    7
 10
1110.4475722703442
 20
736.6026341951756
 11
1110.2913912132867
 21
736.97930341119763
  0
LINE
  8
_0-0_0
  6
CONTINUOUS
 62
    7
 10
1109.5426528123764
 20
736.23055834357558
 11
1110.0571229610564
 21
736.09275741091767
  0
LINE
  8
_0-0_0
  6
CONTINUOUS
 62
    7
 10
1110.0571229610564
 20
736.09275741091767
 11
1110.4291921459446
 21
736.47171997579449
  0
LINE
  8
_0-0_0
  6
CONTINUOUS
 62
    7
 10
1110.4291921459446
 20
736.47171997579449
 11
1110.2913912132867
 21
736.97930341119763
  0
LINE
  8
_0-0_0
  6
CONTINUOUS
 62
    7
 10
1110.4475722703442
 20
749.09233872742163
 11
1110.1214300629633
 21
749.58384205399182
  0
LINE
  8
_0-0_0
  6
CONTINUOUS
 62
    7
 10
1110.1214300629633
 20
749.58384205399182
 11
1109.5472461767981
 21
749.46900794344356
  0
LINE
  8
_0-0_0
  6
CONTINUOUS
 62
    7
 10
1110.2913912132867
 20
748.72026287582173
 11
1110.2913912132867
 21
749.46900794344356
  0
LINE
  8
_0-0_0
  6
CONTINUOUS
 62
    7
 10
1110.2913912132867
 20
749.46900794344356
 11
1109.5472461767981
 21
749.46900794344356
  0
LINE
  8
_0-0_0
  6
CONTINUOUS
 62
    7
 10
1119.1292710294199
 20
752.94627814481123
 11
1118.9041895060334
 21
753.27930706546886
  0
LINE
  8
_0-0_0
  6
CONTINUOUS
 62
    7
 10
1119.1292710294199
 20
752.94627814481123
 11
1118.9041895060334
 21
753.27930706546886
  0
LINE
  8
_0-0_0
  6
CONTINUOUS
 62
    7
 10
1109.6620802873467
 20
736.34999248525742
 11
1110.0111893168369
 21
736.25812519681881
  0
LINE
  8
_0-0_0
  6
CONTINUOUS
 62
    7
 10
1110.0111893168369
 20
736.25812519681881
 11
1110.2684243911769
 21
736.51076690673699
  0
LINE
  8
_0-0_0
  6
CONTINUOUS
 62
    7
 10
1110.2684243911769
 20
736.51076690673699
 11
1110.1719570716048
 21
736.85986926951557
  0
LINE
  8
_0-0_0
  6
CONTINUOUS
 62
    7
 10
1110.1719570716048
 20
748.83969701750357
 11
1110.1719570716048
 21
749.34727378619471
  0
LINE
  8
_0-0_0
  6
CONTINUOUS
 62
    7
 10
1110.1719570716048
 20
749.34727378619471
 11
1109.6666736517686
 21
749.34727378619471
  0
LINE
  8
_0-0_0
  6
CONTINUOUS
 62
    7
 10
1118.9271563281432
 20
753.29538050758993
 11
1118.9179695992993
 21
753.29997387201183
  0
LINE
  8
_0-0_0
  6
CONTINUOUS
 62
    7
 10
1177.3196248707072
 20
720.9939485531844
 11
1121.1917449885618
 21
708.67649852011664
  0
LINE
  8
_0-0_0
  6
CONTINUOUS
 62
    7
 10
1190.792336056094
 20
720.02472199330964
 11
1190.4799739419791
 21
720.0890290952168
  0
LINE
  8
_0-0_0
  6
CONTINUOUS
 62
    7
 10
1186.5295738717289
 20
720.09362245963871
 11
1186.1574980201287
 21
720.01553526446571
  0
LINE
  8
_0-0_0
  6
CONTINUOUS
 62
    7
 10
1121.1595914376082
 20
751.61186911332504
 11
1126.0286910590919
 21
749.62288898493421
  0
LINE
  8
_0-0_0
  6
CONTINUOUS
 62
    7
 10
1126.0286910590919
 20
749.62288898493421
 11
1130.9391376270846
 21
747.80156999129986
  0
LINE
  8
_0-0_0
  6
CONTINUOUS
 62
    7
 10
1130.9391376270846
 20
747.80156999129986
 11
1135.9322580879607
 21
746.15250549684379
  0
LINE
  8
_0-0_0
  6
CONTINUOUS
 62
    7
 10
1135.9322580879607
 20
746.15250549684379
 11
1140.9713188597675
 21
744.66880878828897
  0
LINE
  8
_0-0_0
  6
CONTINUOUS
 62
    7
 10
1140.9713188597675
 20
744.66880878828897
 11
1146.093066857881
 21
743.35736657891243
  0
LINE
  8
_0-0_0
  6
CONTINUOUS
 62
    7
 10
1146.093066857881
 20
743.35736657891243
 11
1151.2148081892828
 21
742.2158788531475
  0
LINE
  8
_0-0_0
  6
CONTINUOUS
 62
    7
 10
1151.2148081892828
 20
742.2158788531475
 11
1156.3824898316157
 21
741.28339920864823
  0
LINE
  8
_0-0_0
  6
CONTINUOUS
 62
    7
 10
1156.3824898316157
 20
741.28339920864823
 11
1161.5869117226121
 21
740.52088071447213
  0
LINE
  8
_0-0_0
  6
CONTINUOUS
 62
    7
 10
1161.5869117226121
 20
740.52088071447213
 11
1166.7959336447425
 21
739.9283233706193
  0
LINE
  8
_0-0_0
  6
CONTINUOUS
 62
    7
 10
1166.7959336447425
 20
739.9283233706193
 11
1172.0462958466699
 21
739.50572051037796
  0
LINE
  8
_0-0_0
  6
CONTINUOUS
 62
    7
 10
1172.0462958466699
 20
739.50572051037796
 11
1177.2920580174637
 21
739.2944190802574
  0
LINE
  8
_0-0_0
  6
CONTINUOUS
 62
    7
 10
1197.1267589284446
 20
720.02012862888773
 11
1197.1267589284446
 21
740.31876601319539
  0
LINE
  8
_0-0_0
  6
CONTINUOUS
 62
    7
 10
1186.5203871428848
 20
719.98797507793415
 11
1186.396359636781
 21
719.98797507793415
  0
LINE
  8
_0-0_0
  6
CONTINUOUS
 62
    7
 10
1186.396359636781
 20
719.98797507793415
 11
1186.5203871428848
 21
719.98797507793415
  0
LINE
  8
_0-0_0
  6
CONTINUOUS
 62
    7
 10
1190.3743265602745
 20
719.98797507793415
 11
1190.5442877105979
 21
719.98797507793415
  0
LINE
  8
_0-0_0
  6
CONTINUOUS
 62
    7
 10
1190.5442877105979
 20
719.98797507793415
 11
1190.3743265602745
 21
719.98797507793415
  0
LINE
  8
_0-0_0
  6
CONTINUOUS
 62
    7
 10
1118.87203595508
 20
753.26322695663634
 11
1118.9133762348772
 21
753.09327247302485
  0
LINE
  8
_0-0_0
  6
CONTINUOUS
 62
    7
 10
1118.9133762348772
 20
753.09327247302485
 11
1118.87203595508
 21
752.92101130713468
  0
LINE
  8
_0-0_0
  6
CONTINUOUS
 62
    7
 10
1118.9133762348772
 20
707.07796770101368
 11
1118.9593098790967
 21
707.24562883576993
  0
LINE
  8
_0-0_0
  6
CONTINUOUS
 62
    7
 10
1118.9593098790967
 20
707.24562883576993
 11
1118.87203595508
 21
707.41558998609332
  0
LINE
  8
_0-0_0
  6
CONTINUOUS
 62
    7
 10
1117.094350590098
 20
707.03432740564949
 11
1117.094350590098
 21
706.65306482520532
  0
LINE
  8
_0-0_0
  6
CONTINUOUS
 62
    7
 10
1109.5150926258448
 20
736.20299815704402
 11
1109.6437068296589
 21
736.37295930736718
  0
LINE
  8
_0-0_0
  6
CONTINUOUS
 62
    7
 10
1106.1710299927131
 20
739.54706079017546
 11
1106.3823314228339
 21
739.58840106997286
  0
LINE
  8
_0-0_0
  6
CONTINUOUS
 62
    7
 10
1109.5150926258448
 20
710.80099289902228
 11
1109.6437068296589
 21
710.97094738263365
  0
LINE
  8
_0-0_0
  6
CONTINUOUS
 62
    7
 10
1106.1710299927131
 20
714.14734888100861
 11
1106.3823314228339
 21
714.19098917637314
  0
LINE
  8
_0-0_0
  6
CONTINUOUS
 62
    7
 10
1188.4680269914784
 20
720.24291013670734
 11
1189.4418469157752
 21
720.19927650805482
  0
LINE
  8
_0-0_0
  6
CONTINUOUS
 62
    7
 10
1189.4418469157752
 20
720.19927650805482
 11
1190.4570071198693
 21
720.03161537329845
  0
LINE
  8
_0-0_0
  6
CONTINUOUS
 62
    7
 10
1190.7555824740066
 20
719.98797507793415
 11
1190.7969294205159
 21
719.98797507793415
  0
LINE
  8
_0-0_0
  6
CONTINUOUS
 62
    7
 10
1186.4790468630874
 20
720.03161537329845
 11
1187.4942070671816
 21
720.19927650805482
  0
LINE
  8
_0-0_0
  6
CONTINUOUS
 62
    7
 10
1187.4942070671816
 20
720.19927650805482
 11
1188.4680269914784
 21
720.24291013670734
  0
LINE
  8
_0-0_0
  6
CONTINUOUS
 62
    7
 10
1170.9438550518471
 20
720.70915329231298
 11
1171.4950721159028
 21
722.02059550168929
  0
LINE
  8
_0-0_0
  6
CONTINUOUS
 62
    7
 10
1171.4950721159028
 20
722.02059550168929
 11
1172.1703166860623
 21
723.29069743126843
  0
LINE
  8
_0-0_0
  6
CONTINUOUS
 62
    7
 10
1172.1703166860623
 20
723.29069743126843
 11
1172.932835180238
 21
724.47581878568576
  0
LINE
  8
_0-0_0
  6
CONTINUOUS
 62
    7
 10
1172.932835180238
 20
724.47581878568576
 11
1173.7780409007207
 21
725.6586401245363
  0
LINE
  8
_0-0_0
  6
CONTINUOUS
 62
    7
 10
1173.7780409007207
 20
725.6586401245363
 11
1175.6016532432104
 21
727.8635150474696
  0
LINE
  8
_0-0_0
  6
CONTINUOUS
 62
    7
 10
1175.6016532432104
 20
727.8635150474696
 11
1176.5295395232879
 21
728.96365582672524
  0
LINE
  8
_0-0_0
  6
CONTINUOUS
 62
    7
 10
1176.5295395232879
 20
728.96365582672524
 11
1176.9980760277483
 21
729.51487955749258
  0
LINE
  8
_0-0_0
  6
CONTINUOUS
 62
    7
 10
1176.9980760277483
 20
729.51487955749258
 11
1177.1680371780717
 21
729.80886154720815
  0
LINE
  8
_0-0_0
  6
CONTINUOUS
 62
    7
 10
1177.1680371780717
 20
729.80886154720815
 11
1177.2920580174637
 21
730.14877718114292
  0
LINE
  8
_0-0_0
  6
CONTINUOUS
 62
    7
 10
1177.2920580174637
 20
730.14877718114292
 11
1177.1680371780717
 21
730.48869948178935
  0
LINE
  8
_0-0_0
  6
CONTINUOUS
 62
    7
 10
1177.1680371780717
 20
730.48869948178935
 11
1176.9980760277483
 21
730.78268147150482
  0
LINE
  8
_0-0_0
  6
CONTINUOUS
 62
    7
 10
1176.9980760277483
 20
730.78268147150482
 11
1176.5295395232879
 21
731.33389853556025
  0
LINE
  8
_0-0_0
  6
CONTINUOUS
 62
    7
 10
1176.5295395232879
 20
731.33389853556025
 11
1175.6016532432104
 21
732.3926990350185
  0
LINE
  8
_0-0_0
  6
CONTINUOUS
 62
    7
 10
1175.6016532432104
 20
732.3926990350185
 11
1173.7780409007207
 21
734.5952806090969
  0
LINE
  8
_0-0_0
  6
CONTINUOUS
 62
    7
 10
1173.7780409007207
 20
734.5952806090969
 11
1172.932835180238
 21
735.78040196351458
  0
LINE
  8
_0-0_0
  6
CONTINUOUS
 62
    7
 10
1172.932835180238
 20
735.78040196351458
 11
1172.1703166860623
 21
737.00686359772919
  0
LINE
  8
_0-0_0
  6
CONTINUOUS
 62
    7
 10
1172.1703166860623
 20
737.00686359772919
 11
1171.4950721159028
 21
738.27695886059644
  0
LINE
  8
_0-0_0
  6
CONTINUOUS
 62
    7
 10
1171.4950721159028
 20
738.27695886059644
 11
1170.9438550518471
 21
739.58840106997286
  0
LINE
  8
_0-0_0
  6
CONTINUOUS
 62
    7
 10
1112.7397211172943
 20
713.6765190276933
 11
1078.9132455078247
 21
713.6765190276933
  0
LINE
  8
_0-0_0
  6
CONTINUOUS
 62
    7
 10
1112.7397211172943
 20
720.57593905736508
 11
1078.9132455078247
 21
720.57593905736508
  0
LINE
  8
_0-1_レイヤ___1
  6
CONTINUOUS
 62
    7
 10
1062.3973937808771
 20
717.44777121877621
 11
1062.3973937808771
 21
742.84978314350951
  0
LINE
  8
_0-1_レイヤ___1
  6
CONTINUOUS
 62
    7
 10
1062.3973937808771
 20
717.44777121877621
 11
1061.5291528925425
 21
722.37180998383724
  0
LINE
  8
_0-1_レイヤ___1
  6
CONTINUOUS
 62
    7
 10
1062.3973937808771
 20
717.44777121877621
 11
1063.265634669212
 21
722.37180998383724
  0
LINE
  8
_0-1_レイヤ___1
  6
CONTINUOUS
 62
    7
 10
1062.3973937808771
 20
742.84978314350951
 11
1063.265634669212
 21
737.92574437844848
  0
LINE
  8
_0-1_レイヤ___1
  6
CONTINUOUS
 62
    7
 10
1062.3973937808771
 20
742.84978314350951
 11
1061.5291528925425
 21
737.92574437844848
  0
LINE
  8
_0-1_レイヤ___1
  6
CONTINUOUS
 62
    7
 10
1087.3790561390701
 20
665.56217299614048
 11
1116.331832095922
 21
665.56217299614048
  0
LINE
  8
_0-1_レイヤ___1
  6
CONTINUOUS
 62
    7
 10
1087.3790561390701
 20
665.56217299614048
 11
1092.3030949041311
 21
666.43041388447512
  0
LINE
  8
_0-1_レイヤ___1
  6
CONTINUOUS
 62
    7
 10
1087.3790561390701
 20
665.56217299614048
 11
1092.3030949041311
 21
664.69393210780584
  0
LINE
  8
_0-1_レイヤ___1
  6
CONTINUOUS
 62
    7
 10
1116.331832095922
 20
665.56217299614048
 11
1111.4077933308608
 21
664.69393210780584
  0
LINE
  8
_0-1_レイヤ___1
  6
CONTINUOUS
 62
    7
 10
1116.331832095922
 20
665.56217299614048
 11
1111.4077933308608
 21
666.43041388447512
  0
TEXT
  8
_0-1_レイヤ___1
 62
    7
 10
1095.6054441174961
 20
668.06217299614048
 40
15
 41
1
 50
0
  1
33
  0
LINE
  8
_0-1_レイヤ___1
  6
CONTINUOUS
 62
    7
 10
1080.3969488830915
 20
720.57593905736508
 11
1081.2651897714261
 21
725.4999778224261
  0
LINE
  8
_0-1_レイヤ___1
  6
CONTINUOUS
 62
    7
 10
1080.3969488830915
 20
720.57593905736508
 11
1079.5287079947568
 21
725.4999778224261
  0
LINE
  8
_0-1_レイヤ___1
  6
CONTINUOUS
 62
    7
 10
1080.3969488830915
 20
713.6765190276933
 11
1079.5287079947568
 21
708.75248026263205
  0
LINE
  8
_0-1_レイヤ___1
  6
CONTINUOUS
 62
    7
 10
1080.3969488830915
 20
713.6765190276933
 11
1081.2651897714261
 21
708.75248026263205
  0
TEXT
  8
_0-1_レイヤ___1
 62
    7
 10
1059.8973937808771
 20
723.89877718114292
 40
15
 41
1
 50
90
  1
25
  0
LINE
  8
_0-1_レイヤ___1
  6
CONTINUOUS
 62
    7
 10
1062.3973937808771
 20
717.44777121877621
 11
1087.3790561390701
 21
717.44777121877621
  0
LINE
  8
_0-1_レイヤ___1
  6
CONTINUOUS
 62
    7
 10
1080.3969488830915
 20
699.6377488140306
 11
1080.3969488830915
 21
720.57593905736508
  0
LINE
  8
_0-1_レイヤ___1
  6
CONTINUOUS
 62
    7
 10
1062.3973937808771
 20
742.84978314350951
 11
1087.3790561390701
 21
742.84978314350951
  0
LINE
  8
_0-1_レイヤ___1
  6
CONTINUOUS
 62
    7
 10
1116.331832095922
 20
665.56217299614048
 11
1116.331832095922
 21
706.65306482520532
  0
LINE
  8
_0-1_レイヤ___1
  6
CONTINUOUS
 62
    7
 10
1087.3790561390701
 20
665.56217299614048
 11
1087.3790561390701
 21
717.44777121877621
  0
TEXT
  8
_0-1_レイヤ___1
 62
    7
 10
1077.4934283366747
 20
686.75829933762373
 40
15
 41
1
 50
90
  1
φ7
  0
LINE
  8
_0-0_0
  6
CONTINUOUS
 62
    7
 10
239.341102893303
 20
475.65259360690675
 11
239.341102893303
 21
474.89007511273053
  0
LINE
  8
_0-0_0
  6
CONTINUOUS
 62
    7
 10
239.72235880703516
 20
475.65259360690675
 11
239.72235880703516
 21
474.89007511273053
  0
LINE
  8
_0-0_0
  6
CONTINUOUS
 62
    7
 10
240.06228110768163
 20
473.07104946795113
 11
240.06228110768163
 21
472.85974803783057
  0
LINE
  8
_0-0_0
  6
CONTINUOUS
 62
    7
 10
241.37372331705814
 20
470.82942762964223
 11
241.37372331705814
 21
472.85974803783057
  0
LINE
  8
_0-0_0
  6
CONTINUOUS
 62
    7
 10
252.67600647931985
 20
394.83929331669623
 11
252.67600647931985
 21
412.15216382620667
  0
LINE
  8
_0-0_0
  6
CONTINUOUS
 62
    7
 10
259.40777204094724
 20
475.65259360690675
 11
259.40777204094724
 21
479.7178344544169
  0
LINE
  8
_0-0_0
  6
CONTINUOUS
 62
    7
 10
259.53409289590616
 20
479.7178344544169
 11
259.53409289590616
 21
498.72455642817522
  0
LINE
  8
_0-0_0
  6
CONTINUOUS
 62
    7
 10
260.84782845413775
 20
502.19723326512081
 11
260.84782845413775
 21
501.26475362062143
  0
LINE
  8
_0-0_0
  6
CONTINUOUS
 62
    7
 10
262.66685409891704
 20
480.35173207806702
 11
262.66685409891704
 21
481.32555200236374
  0
LINE
  8
_0-0_0
  6
CONTINUOUS
 62
    7
 10
262.83680858252859
 20
481.74815486260508
 11
262.83680858252859
 21
485.34945257007672
  0
LINE
  8
_0-0_0
  6
CONTINUOUS
 62
    7
 10
263.04811001264932
 20
481.53685343248458
 11
263.04811001264932
 21
485.64343455979213
  0
LINE
  8
_0-0_0
  6
CONTINUOUS
 62
    7
 10
263.85197545333455
 20
485.77205543031801
 11
263.85197545333455
 21
481.53685343248458
  0
LINE
  8
_0-0_0
  6
CONTINUOUS
 62
    7
 10
264.06327021674338
 20
485.56075400019728
 11
264.06327021674338
 21
481.74815486260508
  0
LINE
  8
_0-0_0
  6
CONTINUOUS
 62
    7
 10
264.86713565742861
 20
502.19723326512081
 11
264.86713565742861
 21
501.26475362062143
  0
LINE
  8
_0-0_0
  6
CONTINUOUS
 62
    7
 10
266.18087121566015
 20
479.7178344544169
 11
266.18087121566015
 21
498.72455642817522
  0
LINE
  8
_0-0_0
  6
CONTINUOUS
 62
    7
 10
266.30719207061918
 20
475.65259360690675
 11
266.30719207061918
 21
479.7178344544169
  0
LINE
  8
_0-0_0
  6
CONTINUOUS
 62
    7
 10
272.99761735244908
 20
394.83929331669623
 11
272.99761735244908
 21
397.7607530895865
  0
LINE
  8
_0-0_0
  6
CONTINUOUS
 62
    7
 10
272.99761735244908
 20
409.2766376975357
 11
272.99761735244908
 21
412.15216382620667
  0
LINE
  8
_0-0_0
  6
CONTINUOUS
 62
    7
 10
260.84782845413775
 20
501.26475362062143
 11
260.00032938480001
 21
499.7420099811244
  0
LINE
  8
_0-0_0
  6
CONTINUOUS
 62
    7
 10
284.29990051471094
 20
470.82942762964223
 11
284.29990051471094
 21
472.85974803783057
  0
LINE
  8
_0-0_0
  6
CONTINUOUS
 62
    7
 10
285.65268300388476
 20
473.07104946795113
 11
285.65268300388476
 21
472.85974803783057
  0
LINE
  8
_0-0_0
  6
CONTINUOUS
 62
    7
 10
285.95125835802207
 20
475.65259360690675
 11
285.95125835802207
 21
474.89007511273053
  0
LINE
  8
_0-0_0
  6
CONTINUOUS
 62
    7
 10
286.33252093846608
 20
475.65259360690675
 11
286.33252093846608
 21
474.89007511273053
  0
LINE
  8
_0-0_0
  6
CONTINUOUS
 62
    7
 10
262.83680858252859
 20
504.56747597395565
 11
260.84782845413775
 21
502.19723326512081
  0
LINE
  8
_0-0_0
  6
CONTINUOUS
 62
    7
 10
245.39532386920399
 20
475.951168961044
 11
245.09904186392177
 21
475.65259360690675
  0
LINE
  8
_0-0_0
  6
CONTINUOUS
 62
    7
 10
272.99761735244908
 20
412.15216382620667
 11
270.88001635353231
 21
414.69236101865295
  0
LINE
  8
_0-0_0
  6
CONTINUOUS
 62
    7
 10
278.03437810868911
 20
475.951168961044
 11
277.69675582360952
 21
475.65259360690675
  0
LINE
  8
_0-0_0
  6
CONTINUOUS
 62
    7
 10
264.86713565742861
 20
501.26475362062143
 11
265.71463472676635
 21
499.7420099811244
  0
LINE
  8
_0-0_0
  6
CONTINUOUS
 62
    7
 10
252.67600647931985
 20
412.15216382620667
 11
254.83494775803408
 21
414.69236101865295
  0
LINE
  8
_0-0_0
  6
CONTINUOUS
 62
    7
 10
247.68058600287725
 20
475.951168961044
 11
248.01820828795684
 21
475.65259360690675
  0
LINE
  8
_0-0_0
  6
CONTINUOUS
 62
    7
 10
262.83680858252859
 20
504.56747597395565
 11
264.86713565742861
 21
502.19723326512081
  0
LINE
  8
_0-0_0
  6
CONTINUOUS
 62
    7
 10
280.31964024236231
 20
475.951168961044
 11
280.61821559649968
 21
475.65259360690675
  0
LINE
  8
_0-0_0
  6
CONTINUOUS
 62
    7
 10
252.67600647931985
 20
394.83929331669623
 11
272.99761735244908
 21
394.83929331669623
  0
LINE
  8
_0-0_0
  6
CONTINUOUS
 62
    7
 10
861.68458834330613
 20
394.83929331669623
 11
882.00619254972344
 21
394.83929331669623
  0
LINE
  8
_0-0_0
  6
CONTINUOUS
 62
    7
 10
272.9103367617206
 20
397.93071423990966
 11
861.81320254712023
 21
397.93071423990966
  0
LINE
  8
_0-0_0
  6
CONTINUOUS
 62
    7
 10
272.9103367617206
 20
409.06533626741515
 11
861.81320254712023
 21
409.06533626741515
  0
LINE
  8
_0-0_0
  6
CONTINUOUS
 62
    7
 10
252.67600647931985
 20
412.15216382620667
 11
272.99761735244908
 21
412.15216382620667
  0
LINE
  8
_0-0_0
  6
CONTINUOUS
 62
    7
 10
861.68458834330613
 20
412.15216382620667
 11
882.00619254972344
 21
412.15216382620667
  0
LINE
  8
_0-0_0
  6
CONTINUOUS
 62
    7
 10
880.99103234562926
 20
414.69236101865295
 11
862.70434191182221
 21
414.69236101865295
  0
LINE
  8
_0-0_0
  6
CONTINUOUS
 62
    7
 10
271.98015713278812
 20
414.69236101865295
 11
253.69116668341405
 21
414.69236101865295
  0
LINE
  8
_0-0_0
  6
CONTINUOUS
 62
    7
 10
893.31077572755225
 20
470.82942762964223
 11
850.38459852989934
 21
470.82942762964223
  0
LINE
  8
_0-0_0
  6
CONTINUOUS
 62
    7
 10
284.29990051471094
 20
470.82942762964223
 11
241.37372331705814
 21
470.82942762964223
  0
LINE
  8
_0-0_0
  6
CONTINUOUS
 62
    7
 10
894.62451795249535
 20
472.85974803783057
 11
849.07085630495601
 21
472.85974803783057
  0
LINE
  8
_0-0_0
  6
CONTINUOUS
 62
    7
 10
285.65268300388476
 20
472.85974803783057
 11
240.06228110768163
 21
472.85974803783057
  0
LINE
  8
_0-0_0
  6
CONTINUOUS
 62
    7
 10
894.62451795249535
 20
473.07104946795113
 11
849.07085630495601
 21
473.07104946795113
  0
LINE
  8
_0-0_0
  6
CONTINUOUS
 62
    7
 10
285.65268300388476
 20
473.07104946795113
 11
240.06228110768163
 21
473.07104946795113
  0
LINE
  8
_0-0_0
  6
CONTINUOUS
 62
    7
 10
239.341102893303
 20
474.89007511273053
 11
286.33252093846608
 21
474.89007511273053
  0
LINE
  8
_0-0_0
  6
CONTINUOUS
 62
    7
 10
895.34110280245216
 20
474.89007511273053
 11
848.35427145499921
 21
474.89007511273053
  0
LINE
  8
_0-0_0
  6
CONTINUOUS
 62
    7
 10
239.341102893303
 20
475.65259360690675
 11
286.33252093846608
 21
475.65259360690675
  0
LINE
  8
_0-0_0
  6
CONTINUOUS
 62
    7
 10
848.3496780905773
 20
475.65259360690675
 11
895.34110280245216
 21
475.65259360690675
  0
LINE
  8
_0-0_0
  6
CONTINUOUS
 62
    7
 10
889.28688182655128
 20
475.951168961044
 11
887.00391304173309
 21
475.951168961044
  0
LINE
  8
_0-0_0
  6
CONTINUOUS
 62
    7
 10
856.69146121571839
 20
475.951168961044
 11
854.40390573319019
 21
475.951168961044
  0
LINE
  8
_0-0_0
  6
CONTINUOUS
 62
    7
 10
280.31964024236231
 20
475.951168961044
 11
278.03437810868911
 21
475.951168961044
  0
LINE
  8
_0-0_0
  6
CONTINUOUS
 62
    7
 10
247.68058600287725
 20
475.951168961044
 11
245.39532386920399
 21
475.951168961044
  0
LINE
  8
_0-0_0
  6
CONTINUOUS
 62
    7
 10
261.44039246470237
 20
476.75502773501739
 11
264.23323136706671
 21
476.75502773501739
  0
LINE
  8
_0-0_0
  6
CONTINUOUS
 62
    7
 10
870.44896766197667
 20
476.75502773501739
 11
873.24181323105279
 21
476.75502773501739
  0
LINE
  8
_0-0_0
  6
CONTINUOUS
 62
    7
 10
259.40777204094724
 20
479.7178344544169
 11
259.53409289590616
 21
479.7178344544169
  0
LINE
  8
_0-0_0
  6
CONTINUOUS
 62
    7
 10
266.18087121566015
 20
479.7178344544169
 11
266.30719207061918
 21
479.7178344544169
  0
LINE
  8
_0-0_0
  6
CONTINUOUS
 62
    7
 10
868.41864725378844
 20
479.7178344544169
 11
868.54266809318062
 21
479.7178344544169
  0
LINE
  8
_0-0_0
  6
CONTINUOUS
 62
    7
 10
875.14811279984895
 20
479.7178344544169
 11
875.31806728346032
 21
479.7178344544169
  0
LINE
  8
_0-0_0
  6
CONTINUOUS
 62
    7
 10
260.63652702401703
 20
480.35173207806702
 11
265.07843708754933
 21
480.35173207806702
  0
LINE
  8
_0-0_0
  6
CONTINUOUS
 62
    7
 10
869.64510888800328
 20
480.35173207806702
 11
874.0502653694482
 21
480.35173207806702
  0
LINE
  8
_0-0_0
  6
CONTINUOUS
 62
    7
 10
261.44039246470237
 20
481.32555200236374
 11
264.23323136706671
 21
481.32555200236374
  0
LINE
  8
_0-0_0
  6
CONTINUOUS
 62
    7
 10
870.44896766197667
 20
481.32555200236374
 11
873.24181323105279
 21
481.32555200236374
  0
LINE
  8
_0-0_0
  6
CONTINUOUS
 62
    7
 10
263.04811001264932
 20
481.53685343248458
 11
263.85197545333455
 21
481.53685343248458
  0
LINE
  8
_0-0_0
  6
CONTINUOUS
 62
    7
 10
872.05669187663534
 20
481.53685343248458
 11
872.86514401503086
 21
481.53685343248458
  0
LINE
  8
_0-0_0
  6
CONTINUOUS
 62
    7
 10
263.04811001264932
 20
482.46933307698384
 11
263.85197545333455
 21
482.46933307698384
  0
LINE
  8
_0-0_0
  6
CONTINUOUS
 62
    7
 10
872.05669187663534
 20
482.46933307698384
 11
872.86514401503086
 21
482.46933307698384
  0
LINE
  8
_0-0_0
  6
CONTINUOUS
 62
    7
 10
260.63652702401703
 20
484.92684970983527
 11
262.83680858252859
 21
484.92684970983527
  0
LINE
  8
_0-0_0
  6
CONTINUOUS
 62
    7
 10
264.06327021674338
 20
484.92684970983527
 11
265.07843708754933
 21
484.92684970983527
  0
LINE
  8
_0-0_0
  6
CONTINUOUS
 62
    7
 10
869.64510888800328
 20
484.92684970983527
 11
871.84539044651478
 21
484.92684970983527
  0
LINE
  8
_0-0_0
  6
CONTINUOUS
 62
    7
 10
873.03051180093212
 20
484.92684970983527
 11
874.0502653694482
 21
484.92684970983527
  0
LINE
  8
_0-0_0
  6
CONTINUOUS
 62
    7
 10
261.44039246470237
 20
485.94201658064117
 11
264.23323136706671
 21
485.94201658064117
  0
LINE
  8
_0-0_0
  6
CONTINUOUS
 62
    7
 10
870.44896766197667
 20
485.94201658064117
 11
873.24181323105279
 21
485.94201658064117
  0
LINE
  8
_0-0_0
  6
CONTINUOUS
 62
    7
 10
260.63652702401703
 20
489.53872092369073
 11
265.07843708754933
 21
489.53872092369073
  0
LINE
  8
_0-0_0
  6
CONTINUOUS
 62
    7
 10
869.64510888800328
 20
489.53872092369073
 11
874.0502653694482
 21
489.53872092369073
  0
LINE
  8
_0-0_0
  6
CONTINUOUS
 62
    7
 10
261.44039246470237
 20
490.55388112778485
 11
264.23323136706671
 21
490.55388112778485
  0
LINE
  8
_0-0_0
  6
CONTINUOUS
 62
    7
 10
870.44896766197667
 20
490.55388112778485
 11
873.24181323105279
 21
490.55388112778485
  0
LINE
  8
_0-0_0
  6
CONTINUOUS
 62
    7
 10
260.63652702401703
 20
494.15403216082893
 11
265.07843708754933
 21
494.15403216082893
  0
LINE
  8
_0-0_0
  6
CONTINUOUS
 62
    7
 10
869.64510888800328
 20
494.15403216082893
 11
874.0502653694482
 21
494.15403216082893
  0
LINE
  8
_0-0_0
  6
CONTINUOUS
 62
    7
 10
261.44039246470237
 20
495.12785208512571
 11
264.23323136706671
 21
495.12785208512571
  0
LINE
  8
_0-0_0
  6
CONTINUOUS
 62
    7
 10
870.44896766197667
 20
495.12785208512571
 11
873.24181323105279
 21
495.12785208512571
  0
LINE
  8
_0-0_0
  6
CONTINUOUS
 62
    7
 10
259.53409289590616
 20
498.72455642817522
 11
266.18087121566015
 21
498.72455642817522
  0
LINE
  8
_0-0_0
  6
CONTINUOUS
 62
    7
 10
868.54266809318062
 20
498.72455642817522
 11
875.14811279984895
 21
498.72455642817522
  0
LINE
  8
_0-0_0
  6
CONTINUOUS
 62
    7
 10
874.72550993960749
 20
499.7420099811244
 11
874.55554878928433
 21
499.7420099811244
  0
LINE
  8
_0-0_0
  6
CONTINUOUS
 62
    7
 10
869.13523210374524
 20
499.7420099811244
 11
868.96986431784387
 21
499.7420099811244
  0
LINE
  8
_0-0_0
  6
CONTINUOUS
 62
    7
 10
265.71463472676635
 20
499.7420099811244
 11
265.54697359200992
 21
499.7420099811244
  0
LINE
  8
_0-0_0
  6
CONTINUOUS
 62
    7
 10
260.1266502397591
 20
499.7420099811244
 11
260.00032938480001
 21
499.7420099811244
  0
LINE
  8
_0-0_0
  6
CONTINUOUS
 62
    7
 10
260.84782845413775
 20
502.19723326512081
 11
264.86713565742861
 21
502.19723326512081
  0
LINE
  8
_0-0_0
  6
CONTINUOUS
 62
    7
 10
869.85641031812395
 20
502.19723326512081
 11
873.83437057490551
 21
502.19723326512081
  0
LINE
  8
_0-0_0
  6
CONTINUOUS
 62
    7
 10
873.3290871550696
 20
502.78979060897365
 11
870.36628710238188
 21
502.78979060897365
  0
LINE
  8
_0-0_0
  6
CONTINUOUS
 62
    7
 10
264.36185223759253
 20
502.78979060897365
 11
261.35311187397377
 21
502.78979060897365
  0
LINE
  8
_0-0_0
  6
CONTINUOUS
 62
    7
 10
871.84539044651478
 20
504.56747597395565
 11
869.85641031812395
 21
502.19723326512081
  0
LINE
  8
_0-0_0
  6
CONTINUOUS
 62
    7
 10
854.40390573319019
 20
475.951168961044
 11
854.06857679696554
 21
475.65259360690675
  0
LINE
  8
_0-0_0
  6
CONTINUOUS
 62
    7
 10
887.00391304173309
 20
475.951168961044
 11
886.7053376875956
 21
475.65259360690675
  0
LINE
  8
_0-0_0
  6
CONTINUOUS
 62
    7
 10
856.69146121571839
 20
475.951168961044
 11
856.99003656985565
 21
475.65259360690675
  0
LINE
  8
_0-0_0
  6
CONTINUOUS
 62
    7
 10
882.00619254972344
 20
412.15216382620667
 11
879.88859155080661
 21
414.69236101865295
  0
LINE
  8
_0-0_0
  6
CONTINUOUS
 62
    7
 10
869.85641031812395
 20
501.26475362062143
 11
868.96986431784387
 21
499.7420099811244
  0
LINE
  8
_0-0_0
  6
CONTINUOUS
 62
    7
 10
861.68458834330613
 20
412.15216382620667
 11
863.80218934222273
 21
414.69236101865295
  0
LINE
  8
_0-0_0
  6
CONTINUOUS
 62
    7
 10
889.28688182655128
 20
475.951168961044
 11
889.62679746048593
 21
475.65259360690675
  0
LINE
  8
_0-0_0
  6
CONTINUOUS
 62
    7
 10
848.3496780905773
 20
475.65259360690675
 11
848.3496780905773
 21
474.89007511273053
  0
LINE
  8
_0-0_0
  6
CONTINUOUS
 62
    7
 10
848.73094067102113
 20
475.65259360690675
 11
848.73094067102113
 21
474.89007511273053
  0
LINE
  8
_0-0_0
  6
CONTINUOUS
 62
    7
 10
849.07085630495601
 20
473.07104946795113
 11
849.07085630495601
 21
472.85974803783057
  0
LINE
  8
_0-0_0
  6
CONTINUOUS
 62
    7
 10
850.38459852989934
 20
470.82942762964223
 11
850.38459852989934
 21
472.85974803783057
  0
LINE
  8
_0-0_0
  6
CONTINUOUS
 62
    7
 10
871.84539044651478
 20
504.56747597395565
 11
873.83437057490551
 21
502.19723326512081
  0
LINE
  8
_0-0_0
  6
CONTINUOUS
 62
    7
 10
861.68458834330613
 20
394.83929331669623
 11
861.68458834330613
 21
397.7607530895865
  0
LINE
  8
_0-0_0
  6
CONTINUOUS
 62
    7
 10
861.68458834330613
 20
409.2766376975357
 11
861.68458834330613
 21
412.15216382620667
  0
LINE
  8
_0-0_0
  6
CONTINUOUS
 62
    7
 10
868.41864725378844
 20
475.65259360690675
 11
868.41864725378844
 21
479.7178344544169
  0
LINE
  8
_0-0_0
  6
CONTINUOUS
 62
    7
 10
868.54266809318062
 20
479.7178344544169
 11
868.54266809318062
 21
498.72455642817522
  0
LINE
  8
_0-0_0
  6
CONTINUOUS
 62
    7
 10
869.85641031812395
 20
502.19723326512081
 11
869.85641031812395
 21
501.26475362062143
  0
LINE
  8
_0-0_0
  6
CONTINUOUS
 62
    7
 10
871.634089016394
 20
480.35173207806702
 11
871.634089016394
 21
481.32555200236374
  0
LINE
  8
_0-0_0
  6
CONTINUOUS
 62
    7
 10
871.84539044651478
 20
481.74815486260508
 11
871.84539044651478
 21
485.34945257007672
  0
LINE
  8
_0-0_0
  6
CONTINUOUS
 62
    7
 10
872.05669187663534
 20
481.53685343248458
 11
872.05669187663534
 21
485.64343455979213
  0
LINE
  8
_0-0_0
  6
CONTINUOUS
 62
    7
 10
872.86514401503086
 20
485.77205543031801
 11
872.86514401503086
 21
481.53685343248458
  0
LINE
  8
_0-0_0
  6
CONTINUOUS
 62
    7
 10
873.03051180093212
 20
485.56075400019728
 11
873.03051180093212
 21
481.74815486260508
  0
LINE
  8
_0-0_0
  6
CONTINUOUS
 62
    7
 10
873.83437057490551
 20
502.19723326512081
 11
873.83437057490551
 21
501.26475362062143
  0
LINE
  8
_0-0_0
  6
CONTINUOUS
 62
    7
 10
875.14811279984895
 20
479.7178344544169
 11
875.14811279984895
 21
498.72455642817522
  0
LINE
  8
_0-0_0
  6
CONTINUOUS
 62
    7
 10
875.31806728346032
 20
475.65259360690675
 11
875.31806728346032
 21
479.7178344544169
  0
LINE
  8
_0-0_0
  6
CONTINUOUS
 62
    7
 10
882.00619254972344
 20
394.83929331669623
 11
882.00619254972344
 21
412.15216382620667
  0
LINE
  8
_0-0_0
  6
CONTINUOUS
 62
    7
 10
893.31077572755225
 20
470.82942762964223
 11
893.31077572755225
 21
472.85974803783057
  0
LINE
  8
_0-0_0
  6
CONTINUOUS
 62
    7
 10
894.62451795249535
 20
473.07104946795113
 11
894.62451795249535
 21
472.85974803783057
  0
LINE
  8
_0-0_0
  6
CONTINUOUS
 62
    7
 10
894.9598402220081
 20
475.65259360690675
 11
894.9598402220081
 21
474.89007511273053
  0
LINE
  8
_0-0_0
  6
CONTINUOUS
 62
    7
 10
895.34110280245216
 20
475.65259360690675
 11
895.34110280245216
 21
474.89007511273053
  0
LINE
  8
_0-0_0
  6
CONTINUOUS
 62
    7
 10
873.83437057490551
 20
501.26475362062143
 11
874.72550993960749
 21
499.7420099811244
  0
LINE
  8
_0-0_0
  6
CONTINUOUS
 62
    7
 10
284.352727538919
 20
470.83861435848621
 11
272.03298415699624
 21
414.71074114305236
  0
LINE
  8
_0-0_0
  6
CONTINUOUS
 62
    7
 10
253.69116668341405
 20
414.69236101865295
 11
253.47986525329338
 21
419.9427232205806
  0
LINE
  8
_0-0_0
  6
CONTINUOUS
 62
    7
 10
253.47986525329338
 20
419.9427232205806
 11
253.05726905976394
 21
425.15174514271087
  0
LINE
  8
_0-0_0
  6
CONTINUOUS
 62
    7
 10
253.05726905976394
 20
425.15174514271087
 11
252.46470504919932
 21
430.3975139802165
  0
LINE
  8
_0-0_0
  6
CONTINUOUS
 62
    7
 10
252.46470504919932
 20
430.3975139802165
 11
251.70218655502325
 21
435.60652923563498
  0
LINE
  8
_0-0_0
  6
CONTINUOUS
 62
    7
 10
251.70218655502325
 20
435.60652923563498
 11
250.76970691052389
 21
440.76961751354577
  0
LINE
  8
_0-0_0
  6
CONTINUOUS
 62
    7
 10
250.76970691052389
 20
440.76961751354577
 11
249.62592583590393
 21
445.8959522093694
  0
LINE
  8
_0-0_0
  6
CONTINUOUS
 62
    7
 10
249.62592583590393
 20
445.8959522093694
 11
248.31678364209424
 21
450.97175989655193
  0
LINE
  8
_0-0_0
  6
CONTINUOUS
 62
    7
 10
248.31678364209424
 20
450.97175989655193
 11
246.83308693353951
 21
456.01082066835886
  0
LINE
  8
_0-0_0
  6
CONTINUOUS
 62
    7
 10
246.83308693353951
 20
456.01082066835886
 11
245.18402243908341
 21
461.0085411603684
  0
LINE
  8
_0-0_0
  6
CONTINUOUS
 62
    7
 10
245.18402243908341
 20
461.0085411603684
 11
243.36270344544891
 21
465.96032800815863
  0
LINE
  8
_0-0_0
  6
CONTINUOUS
 62
    7
 10
243.36270344544891
 20
465.96032800815863
 11
241.37372331705814
 21
470.82942762964223
  0
LINE
  8
_0-0_0
  6
CONTINUOUS
 62
    7
 10
266.18087121566015
 20
498.72455642817522
 11
265.54467357644307
 21
499.7420099811244
  0
LINE
  8
_0-0_0
  6
CONTINUOUS
 62
    7
 10
260.15191707743566
 20
499.74890336111315
 11
259.54787298917205
 21
498.75211661470678
  0
LINE
  8
_0-0_0
  6
CONTINUOUS
 62
    7
 10
272.92871021940834
 20
397.9628677908633
 11
273.01369079456998
 21
397.81128009822771
  0
LINE
  8
_0-0_0
  6
CONTINUOUS
 62
    7
 10
272.99761735244908
 20
409.2720443331138
 11
272.9103367617206
 21
409.11126991163451
  0
LINE
  8
_0-0_0
  6
CONTINUOUS
 62
    7
 10
252.70816003027349
 20
394.90360041860328
 11
273.0068040812929
 21
394.90360041860328
  0
LINE
  8
_0-0_0
  6
CONTINUOUS
 62
    7
 10
285.67105646157239
 20
473.12157647659257
 11
285.99260530453125
 21
474.91763529926226
  0
LINE
  8
_0-0_0
  6
CONTINUOUS
 62
    7
 10
239.76369908683245
 20
474.91763529926226
 11
240.08524792979131
 21
473.12157647659257
  0
LINE
  8
_0-0_0
  6
CONTINUOUS
 62
    7
 10
239.38244317310046
 20
474.91304193484018
 11
239.73154553587898
 21
473.12616984101442
  0
LINE
  8
_0-0_0
  6
CONTINUOUS
 62
    7
 10
286.02475885548472
 20
473.12616984101442
 11
286.37386121826341
 21
474.91304193484018
  0
LINE
  8
_0-0_0
  6
CONTINUOUS
 62
    7
 10
239.74991899356667
 20
473.12616984101442
 11
240.08065456536946
 21
472.90108831762802
  0
LINE
  8
_0-0_0
  6
CONTINUOUS
 62
    7
 10
285.67564982599436
 20
472.90108831762802
 11
286.00867874665209
 21
473.12616984101442
  0
LINE
  8
_0-0_0
  6
CONTINUOUS
 62
    7
 10
262.87815552903783
 20
481.77112168471473
 11
263.06878348590385
 21
481.58279374341561
  0
LINE
  8
_0-0_0
  6
CONTINUOUS
 62
    7
 10
263.87494227544425
 20
481.58279374341561
 11
264.06327021674338
 21
481.77112168471473
  0
LINE
  8
_0-0_0
  6
CONTINUOUS
 62
    7
 10
893.36130940290514
 20
470.83861435848621
 11
881.04155935427059
 21
414.71074114305236
  0
LINE
  8
_0-0_0
  6
CONTINUOUS
 62
    7
 10
862.69056181855626
 20
414.72452123631825
 11
850.36622507221159
 21
470.85239445175193
  0
LINE
  8
_0-0_0
  6
CONTINUOUS
 62
    7
 10
875.1710796219586
 20
498.76589670797267
 11
874.56473551812815
 21
499.76038343881214
  0
LINE
  8
_0-0_0
  6
CONTINUOUS
 62
    7
 10
869.1627922902768
 20
499.74890336111315
 11
868.56104155086837
 21
498.75211661470678
  0
LINE
  8
_0-0_0
  6
CONTINUOUS
 62
    7
 10
861.80401581827618
 20
409.1158632760563
 11
861.71674189425948
 21
409.2766376975357
  0
LINE
  8
_0-0_0
  6
CONTINUOUS
 62
    7
 10
861.71214852983769
 20
397.81128009822771
 11
861.79482908943237
 21
397.9628677908633
  0
LINE
  8
_0-0_0
  6
CONTINUOUS
 62
    7
 10
861.71674189425948
 20
394.90360041860328
 11
882.01537927856737
 21
394.90360041860328
  0
LINE
  8
_0-0_0
  6
CONTINUOUS
 62
    7
 10
894.67963832555847
 20
473.12157647659257
 11
895.00118050180561
 21
474.91763529926226
  0
LINE
  8
_0-0_0
  6
CONTINUOUS
 62
    7
 10
848.73094067102113
 20
474.91763529926226
 11
849.05707621169029
 21
473.12157647659257
  0
LINE
  8
_0-0_0
  6
CONTINUOUS
 62
    7
 10
848.39561840150839
 20
474.91304193484018
 11
848.74472076428697
 21
473.12616984101442
  0
LINE
  8
_0-0_0
  6
CONTINUOUS
 62
    7
 10
894.99199377296168
 20
473.12616984101442
 11
895.34110280245216
 21
474.91304193484018
  0
LINE
  8
_0-0_0
  6
CONTINUOUS
 62
    7
 10
848.75850085755292
 20
473.12616984101442
 11
849.09382312706589
 21
472.90108831762802
  0
LINE
  8
_0-0_0
  6
CONTINUOUS
 62
    7
 10
894.6428914101831
 20
472.90108831762802
 11
894.97821367969595
 21
473.12616984101442
  0
LINE
  8
_0-0_0
  6
CONTINUOUS
 62
    7
 10
871.88673072631218
 20
481.77112168471473
 11
872.07965869874499
 21
481.58279374341561
  0
LINE
  8
_0-0_0
  6
CONTINUOUS
 62
    7
 10
872.88351747271849
 20
481.58279374341561
 11
873.07644544515142
 21
481.77112168471473
  0
LINE
  8
_0-0_0
  6
CONTINUOUS
 62
    7
 10
285.99260530453125
 20
473.07104946795113
 11
285.82264415420804
 21
473.0297091881539
  0
LINE
  8
_0-0_0
  6
CONTINUOUS
 62
    7
 10
285.82264415420804
 20
473.0297091881539
 11
285.65268300388476
 21
473.07104946795113
  0
LINE
  8
_0-0_0
  6
CONTINUOUS
 62
    7
 10
240.06228110768163
 20
473.07104946795113
 11
239.89231995735835
 21
473.0297091881539
  0
LINE
  8
_0-0_0
  6
CONTINUOUS
 62
    7
 10
239.89231995735835
 20
473.0297091881539
 11
239.72235880703516
 21
473.07104946795113
  0
LINE
  8
_0-0_0
  6
CONTINUOUS
 62
    7
 10
895.00118050180561
 20
473.07104946795113
 11
894.83581938261614
 21
473.0297091881539
  0
LINE
  8
_0-0_0
  6
CONTINUOUS
 62
    7
 10
894.83581938261614
 20
473.0297091881539
 11
894.62451795249535
 21
473.07104946795113
  0
LINE
  8
_0-0_0
  6
CONTINUOUS
 62
    7
 10
849.07085630495601
 20
473.07104946795113
 11
848.85955487483534
 21
473.0297091881539
  0
LINE
  8
_0-0_0
  6
CONTINUOUS
 62
    7
 10
848.85955487483534
 20
473.0297091881539
 11
848.68960039122396
 21
473.07104946795113
  0
LINE
  8
_0-0_0
  6
CONTINUOUS
 62
    7
 10
262.83680858252859
 20
482.34531223759166
 11
262.91949580883522
 21
482.42799279718645
  0
LINE
  8
_0-0_0
  6
CONTINUOUS
 62
    7
 10
262.91949580883522
 20
482.42799279718645
 11
263.04811001264932
 21
482.46933307698384
  0
LINE
  8
_0-0_0
  6
CONTINUOUS
 62
    7
 10
262.83680858252859
 20
485.34945257007672
 11
262.91949580883522
 21
485.56075400019728
  0
LINE
  8
_0-0_0
  6
CONTINUOUS
 62
    7
 10
262.91949580883522
 20
485.56075400019728
 11
263.04811001264932
 21
485.64343455979213
  0
LINE
  8
_0-0_0
  6
CONTINUOUS
 62
    7
 10
264.06327021674338
 20
482.34531223759166
 11
263.98058965714876
 21
482.42799279718645
  0
LINE
  8
_0-0_0
  6
CONTINUOUS
 62
    7
 10
263.98058965714876
 20
482.42799279718645
 11
263.85197545333455
 21
482.46933307698384
  0
LINE
  8
_0-0_0
  6
CONTINUOUS
 62
    7
 10
263.85197545333455
 20
485.77205543031801
 11
264.02192993694604
 21
485.73071515052061
  0
LINE
  8
_0-0_0
  6
CONTINUOUS
 62
    7
 10
264.02192993694604
 20
485.73071515052061
 11
264.06327021674338
 21
485.56075400019728
  0
LINE
  8
_0-0_0
  6
CONTINUOUS
 62
    7
 10
871.84539044651478
 20
482.34531223759166
 11
871.93266437053148
 21
482.42799279718645
  0
LINE
  8
_0-0_0
  6
CONTINUOUS
 62
    7
 10
871.93266437053148
 20
482.42799279718645
 11
872.05669187663534
 21
482.46933307698384
  0
LINE
  8
_0-0_0
  6
CONTINUOUS
 62
    7
 10
871.84539044651478
 20
485.34945257007672
 11
871.88673072631218
 21
485.56075400019728
  0
LINE
  8
_0-0_0
  6
CONTINUOUS
 62
    7
 10
871.88673072631218
 20
485.56075400019728
 11
872.05669187663534
 21
485.64343455979213
  0
LINE
  8
_0-0_0
  6
CONTINUOUS
 62
    7
 10
873.03051180093212
 20
482.34531223759166
 11
872.98917152113472
 21
482.42799279718645
  0
LINE
  8
_0-0_0
  6
CONTINUOUS
 62
    7
 10
872.98917152113472
 20
482.42799279718645
 11
872.86514401503086
 21
482.46933307698384
  0
LINE
  8
_0-0_0
  6
CONTINUOUS
 62
    7
 10
872.86514401503086
 20
485.77205543031801
 11
872.98917152113472
 21
485.73071515052061
  0
LINE
  8
_0-0_0
  6
CONTINUOUS
 62
    7
 10
872.98917152113472
 20
485.73071515052061
 11
873.03051180093212
 21
485.56075400019728
  0
LINE
  8
_0-0_0
  6
CONTINUOUS
 62
    7
 10
861.68458834330613
 20
409.2766376975357
 11
861.68458834330613
 21
409.23070405331646
  0
LINE
  8
_0-0_0
  6
CONTINUOUS
 62
    7
 10
861.81320254712023
 20
409.06533626741515
 11
862.44710683748212
 21
407.75160070918366
  0
LINE
  8
_0-0_0
  6
CONTINUOUS
 62
    7
 10
862.44710683748212
 20
407.75160070918366
 11
862.99832390153756
 21
406.39651820444305
  0
LINE
  8
_0-0_0
  6
CONTINUOUS
 62
    7
 10
862.99832390153756
 20
406.39651820444305
 11
863.33824620218388
 21
404.95875514010754
  0
LINE
  8
_0-0_0
  6
CONTINUOUS
 62
    7
 10
863.33824620218388
 20
404.95875514010754
 11
863.4668604059982
 21
403.51639871135023
  0
LINE
  8
_0-0_0
  6
CONTINUOUS
 62
    7
 10
863.4668604059982
 20
403.51639871135023
 11
863.33824620218388
 21
402.03729536721733
  0
LINE
  8
_0-0_0
  6
CONTINUOUS
 62
    7
 10
863.33824620218388
 20
402.03729536721733
 11
862.99832390153756
 21
400.64087258267921
  0
LINE
  8
_0-0_0
  6
CONTINUOUS
 62
    7
 10
862.99832390153756
 20
400.64087258267921
 11
862.44710683748212
 21
399.23985643371918
  0
LINE
  8
_0-0_0
  6
CONTINUOUS
 62
    7
 10
862.44710683748212
 20
399.23985643371918
 11
861.81320254712023
 21
397.93071423990966
  0
LINE
  8
_0-0_0
  6
CONTINUOUS
 62
    7
 10
861.73052198752544
 20
397.80209336938378
 11
861.68458834330613
 21
397.7607530895865
  0
LINE
  8
_0-0_0
  6
CONTINUOUS
 62
    7
 10
272.99761735244908
 20
397.7607530895865
 11
272.99761735244908
 21
397.80209336938378
  0
LINE
  8
_0-0_0
  6
CONTINUOUS
 62
    7
 10
272.9103367617206
 20
397.93071423990966
 11
272.23509219156119
 21
399.23985643371918
  0
LINE
  8
_0-0_0
  6
CONTINUOUS
 62
    7
 10
272.23509219156119
 20
399.23985643371918
 11
271.72521540730315
 21
400.64087258267921
  0
LINE
  8
_0-0_0
  6
CONTINUOUS
 62
    7
 10
271.72521540730315
 20
400.64087258267921
 11
271.34395949357111
 21
402.03729536721733
  0
LINE
  8
_0-0_0
  6
CONTINUOUS
 62
    7
 10
271.34395949357111
 20
402.03729536721733
 11
271.21993198746702
 21
403.51639871135023
  0
LINE
  8
_0-0_0
  6
CONTINUOUS
 62
    7
 10
271.21993198746702
 20
403.51639871135023
 11
271.34395949357111
 21
404.95875514010754
  0
LINE
  8
_0-0_0
  6
CONTINUOUS
 62
    7
 10
271.34395949357111
 20
404.95875514010754
 11
271.72521540730315
 21
406.39651820444305
  0
LINE
  8
_0-0_0
  6
CONTINUOUS
 62
    7
 10
271.72521540730315
 20
406.39651820444305
 11
272.23509219156119
 21
407.75160070918366
  0
LINE
  8
_0-0_0
  6
CONTINUOUS
 62
    7
 10
272.23509219156119
 20
407.75160070918366
 11
272.9103367617206
 21
409.06533626741515
  0
LINE
  8
_0-0_0
  6
CONTINUOUS
 62
    7
 10
272.99761735244908
 20
409.23070405331646
 11
272.99761735244908
 21
409.2766376975357
  0
LINE
  8
_0-0_0
  6
CONTINUOUS
 62
    7
 10
253.39718469369865
 20
421.0451640154032
 11
254.70862690307499
 21
420.45260000483864
  0
LINE
  8
_0-0_0
  6
CONTINUOUS
 62
    7
 10
254.70862690307499
 20
420.45260000483864
 11
255.9787288326541
 21
419.772768736969
  0
LINE
  8
_0-0_0
  6
CONTINUOUS
 62
    7
 10
255.9787288326541
 20
419.772768736969
 11
257.20519046686883
 21
419.05618388701225
  0
LINE
  8
_0-0_0
  6
CONTINUOUS
 62
    7
 10
257.20519046686883
 20
419.05618388701225
 11
258.39031182128628
 21
418.20638480210783
  0
LINE
  8
_0-0_0
  6
CONTINUOUS
 62
    7
 10
258.39031182128628
 20
418.20638480210783
 11
260.59289339536463
 21
416.38735915732843
  0
LINE
  8
_0-0_0
  6
CONTINUOUS
 62
    7
 10
260.59289339536463
 20
416.38735915732843
 11
261.65168722811126
 21
415.45488617954084
  0
LINE
  8
_0-0_0
  6
CONTINUOUS
 62
    7
 10
261.65168722811126
 20
415.45488617954084
 11
262.20291095887842
 21
414.99094303950216
  0
LINE
  8
_0-0_0
  6
CONTINUOUS
 62
    7
 10
262.20291095887842
 20
414.99094303950216
 11
262.49689294859388
 21
414.77964160938137
  0
LINE
  8
_0-0_0
  6
CONTINUOUS
 62
    7
 10
262.49689294859388
 20
414.77964160938137
 11
262.83680858252859
 21
414.69236101865295
  0
LINE
  8
_0-0_0
  6
CONTINUOUS
 62
    7
 10
262.83680858252859
 20
414.69236101865295
 11
263.17902423203014
 21
414.77964160938137
  0
LINE
  8
_0-0_0
  6
CONTINUOUS
 62
    7
 10
263.17902423203014
 20
414.77964160938137
 11
263.47301288845733
 21
414.99094303950216
  0
LINE
  8
_0-0_0
  6
CONTINUOUS
 62
    7
 10
263.47301288845733
 20
414.99094303950216
 11
264.02192993694604
 21
415.45488617954084
  0
LINE
  8
_0-0_0
  6
CONTINUOUS
 62
    7
 10
264.02192993694604
 20
415.45488617954084
 11
265.12207071620173
 21
416.38735915732843
  0
LINE
  8
_0-0_0
  6
CONTINUOUS
 62
    7
 10
265.12207071620173
 20
416.38735915732843
 11
267.32465229028008
 21
418.20638480210783
  0
LINE
  8
_0-0_0
  6
CONTINUOUS
 62
    7
 10
267.32465229028008
 20
418.20638480210783
 11
268.50977364469759
 21
419.05618388701225
  0
LINE
  8
_0-0_0
  6
CONTINUOUS
 62
    7
 10
268.50977364469759
 20
419.05618388701225
 11
269.73623527891232
 21
419.772768736969
  0
LINE
  8
_0-0_0
  6
CONTINUOUS
 62
    7
 10
269.73623527891232
 20
419.772768736969
 11
270.96499692869395
 21
420.45260000483864
  0
LINE
  8
_0-0_0
  6
CONTINUOUS
 62
    7
 10
270.96499692869395
 20
420.45260000483864
 11
272.27643913807043
 21
421.0451640154032
  0
LINE
  8
_0-0_0
  6
CONTINUOUS
 62
    7
 10
862.40576655768461
 20
421.0451640154032
 11
863.71950211591638
 21
420.45260000483864
  0
LINE
  8
_0-0_0
  6
CONTINUOUS
 62
    7
 10
863.71950211591638
 20
420.45260000483864
 11
864.98731069664018
 21
419.772768736969
  0
LINE
  8
_0-0_0
  6
CONTINUOUS
 62
    7
 10
864.98731069664018
 20
419.772768736969
 11
866.21836569527682
 21
419.05618388701225
  0
LINE
  8
_0-0_0
  6
CONTINUOUS
 62
    7
 10
866.21836569527682
 20
419.05618388701225
 11
867.35754673876318
 21
418.20638480210783
  0
LINE
  8
_0-0_0
  6
CONTINUOUS
 62
    7
 10
867.35754673876318
 20
418.20638480210783
 11
869.60376860820588
 21
416.38735915732843
  0
LINE
  8
_0-0_0
  6
CONTINUOUS
 62
    7
 10
869.60376860820588
 20
416.38735915732843
 11
870.66026909209722
 21
415.45488617954084
  0
LINE
  8
_0-0_0
  6
CONTINUOUS
 62
    7
 10
870.66026909209722
 20
415.45488617954084
 11
871.21148615615289
 21
414.99094303950216
  0
LINE
  8
_0-0_0
  6
CONTINUOUS
 62
    7
 10
871.21148615615289
 20
414.99094303950216
 11
871.51006817700193
 21
414.77964160938137
  0
LINE
  8
_0-0_0
  6
CONTINUOUS
 62
    7
 10
871.51006817700193
 20
414.77964160938137
 11
871.84539044651478
 21
414.69236101865295
  0
LINE
  8
_0-0_0
  6
CONTINUOUS
 62
    7
 10
871.84539044651478
 20
414.69236101865295
 11
872.18530608044944
 21
414.77964160938137
  0
LINE
  8
_0-0_0
  6
CONTINUOUS
 62
    7
 10
872.18530608044944
 20
414.77964160938137
 11
872.48388810129882
 21
414.99094303950216
  0
LINE
  8
_0-0_0
  6
CONTINUOUS
 62
    7
 10
872.48388810129882
 20
414.99094303950216
 11
873.03051180093212
 21
415.45488617954084
  0
LINE
  8
_0-0_0
  6
CONTINUOUS
 62
    7
 10
873.03051180093212
 20
415.45488617954084
 11
874.13295259575477
 21
416.38735915732843
  0
LINE
  8
_0-0_0
  6
CONTINUOUS
 62
    7
 10
874.13295259575477
 20
416.38735915732843
 11
876.33323415426628
 21
418.20638480210783
  0
LINE
  8
_0-0_0
  6
CONTINUOUS
 62
    7
 10
876.33323415426628
 20
418.20638480210783
 11
877.47700856217443
 21
419.05618388701225
  0
LINE
  8
_0-0_0
  6
CONTINUOUS
 62
    7
 10
877.47700856217443
 20
419.05618388701225
 11
878.70347686310106
 21
419.772768736969
  0
LINE
  8
_0-0_0
  6
CONTINUOUS
 62
    7
 10
878.70347686310106
 20
419.772768736969
 11
879.97587214153509
 21
420.45260000483864
  0
LINE
  8
_0-0_0
  6
CONTINUOUS
 62
    7
 10
879.97587214153509
 20
420.45260000483864
 11
881.28501433534461
 21
421.0451640154032
  0
LINE
  8
_0-0_0
  6
CONTINUOUS
 62
    7
 10
260.63652702401703
 20
494.15403216082893
 11
260.88916873393509
 21
492.75875605071832
  0
LINE
  8
_0-0_0
  6
CONTINUOUS
 62
    7
 10
260.88916873393509
 20
492.75875605071832
 11
261.18545073921734
 21
491.57363469630099
  0
LINE
  8
_0-0_0
  6
CONTINUOUS
 62
    7
 10
261.18545073921734
 20
491.57363469630099
 11
261.44039246470237
 21
490.55388112778485
  0
LINE
  8
_0-0_0
  6
CONTINUOUS
 62
    7
 10
264.23323136706671
 20
495.12785208512571
 11
264.52951337234902
 21
496.14301228921988
  0
LINE
  8
_0-0_0
  6
CONTINUOUS
 62
    7
 10
264.52951337234902
 20
496.14301228921988
 11
264.82579537763127
 21
497.3694739234345
  0
LINE
  8
_0-0_0
  6
CONTINUOUS
 62
    7
 10
264.82579537763127
 20
497.3694739234345
 11
265.07843708754933
 21
498.72455642817522
  0
LINE
  8
_0-0_0
  6
CONTINUOUS
 62
    7
 10
260.63652702401703
 20
489.53872092369073
 11
260.88916873393509
 21
488.14229813915267
  0
LINE
  8
_0-0_0
  6
CONTINUOUS
 62
    7
 10
260.88916873393509
 20
488.14229813915267
 11
261.18545073921734
 21
486.95717678473534
  0
LINE
  8
_0-0_0
  6
CONTINUOUS
 62
    7
 10
261.18545073921734
 20
486.95717678473534
 11
261.44039246470237
 21
485.94201658064117
  0
LINE
  8
_0-0_0
  6
CONTINUOUS
 62
    7
 10
264.23323136706671
 20
485.94201658064117
 11
264.52951337234902
 21
486.95717678473534
  0
LINE
  8
_0-0_0
  6
CONTINUOUS
 62
    7
 10
264.52951337234902
 20
486.95717678473534
 11
264.82579537763127
 21
488.14229813915267
  0
LINE
  8
_0-0_0
  6
CONTINUOUS
 62
    7
 10
264.82579537763127
 20
488.14229813915267
 11
265.07843708754933
 21
489.53872092369073
  0
LINE
  8
_0-0_0
  6
CONTINUOUS
 62
    7
 10
260.63652702401703
 20
484.92684970983527
 11
260.88916873393509
 21
483.57177387180656
  0
LINE
  8
_0-0_0
  6
CONTINUOUS
 62
    7
 10
260.88916873393509
 20
483.57177387180656
 11
261.18545073921734
 21
482.34531223759166
  0
LINE
  8
_0-0_0
  6
CONTINUOUS
 62
    7
 10
261.18545073921734
 20
482.34531223759166
 11
261.44039246470237
 21
481.32555200236374
  0
LINE
  8
_0-0_0
  6
CONTINUOUS
 62
    7
 10
260.63652702401703
 20
480.35173207806702
 11
260.88916873393509
 21
478.95531596024091
  0
LINE
  8
_0-0_0
  6
CONTINUOUS
 62
    7
 10
260.88916873393509
 20
478.95531596024091
 11
261.18545073921734
 21
477.77019460582335
  0
LINE
  8
_0-0_0
  6
CONTINUOUS
 62
    7
 10
261.18545073921734
 20
477.77019460582335
 11
261.44039246470237
 21
476.75502773501739
  0
LINE
  8
_0-0_0
  6
CONTINUOUS
 62
    7
 10
264.23323136706671
 20
476.75502773501739
 11
264.52951337234902
 21
477.77019460582335
  0
LINE
  8
_0-0_0
  6
CONTINUOUS
 62
    7
 10
264.52951337234902
 20
477.77019460582335
 11
264.82579537763127
 21
478.95531596024091
  0
LINE
  8
_0-0_0
  6
CONTINUOUS
 62
    7
 10
264.82579537763127
 20
478.95531596024091
 11
265.07843708754933
 21
480.35173207806702
  0
LINE
  8
_0-0_0
  6
CONTINUOUS
 62
    7
 10
265.07843708754933
 20
480.35173207806702
 11
264.65583422730793
 21
480.90295580883424
  0
LINE
  8
_0-0_0
  6
CONTINUOUS
 62
    7
 10
264.65583422730793
 20
480.90295580883424
 11
264.23323136706671
 21
481.32555200236374
  0
LINE
  8
_0-0_0
  6
CONTINUOUS
 62
    7
 10
264.23323136706671
 20
481.32555200236374
 11
264.52951337234902
 21
482.34531223759166
  0
LINE
  8
_0-0_0
  6
CONTINUOUS
 62
    7
 10
264.52951337234902
 20
482.34531223759166
 11
264.82579537763127
 21
483.57177387180656
  0
LINE
  8
_0-0_0
  6
CONTINUOUS
 62
    7
 10
264.82579537763127
 20
483.57177387180656
 11
265.07843708754933
 21
484.92684970983527
  0
LINE
  8
_0-0_0
  6
CONTINUOUS
 62
    7
 10
263.04811001264932
 20
485.64343455979213
 11
263.4707128728906
 21
485.68937487072321
  0
LINE
  8
_0-0_0
  6
CONTINUOUS
 62
    7
 10
263.4707128728906
 20
485.68937487072321
 11
263.85197545333455
 21
485.77205543031801
  0
LINE
  8
_0-0_0
  6
CONTINUOUS
 62
    7
 10
264.23323136706671
 20
490.55388112778485
 11
264.52951337234902
 21
491.57363469630099
  0
LINE
  8
_0-0_0
  6
CONTINUOUS
 62
    7
 10
264.52951337234902
 20
491.57363469630099
 11
264.82579537763127
 21
492.75875605071832
  0
LINE
  8
_0-0_0
  6
CONTINUOUS
 62
    7
 10
264.82579537763127
 20
492.75875605071832
 11
265.07843708754933
 21
494.15403216082893
  0
LINE
  8
_0-0_0
  6
CONTINUOUS
 62
    7
 10
260.63652702401703
 20
498.72455642817522
 11
260.88916873393509
 21
497.3694739234345
  0
LINE
  8
_0-0_0
  6
CONTINUOUS
 62
    7
 10
260.88916873393509
 20
497.3694739234345
 11
261.18545073921734
 21
496.14301228921988
  0
LINE
  8
_0-0_0
  6
CONTINUOUS
 62
    7
 10
261.18545073921734
 20
496.14301228921988
 11
261.44039246470237
 21
495.12785208512571
  0
LINE
  8
_0-0_0
  6
CONTINUOUS
 62
    7
 10
869.64510888800328
 20
494.15403216082893
 11
869.89775059792123
 21
492.75875605071832
  0
LINE
  8
_0-0_0
  6
CONTINUOUS
 62
    7
 10
869.89775059792123
 20
492.75875605071832
 11
870.15498567226132
 21
491.57363469630099
  0
LINE
  8
_0-0_0
  6
CONTINUOUS
 62
    7
 10
870.15498567226132
 20
491.57363469630099
 11
870.44896766197667
 21
490.55388112778485
  0
LINE
  8
_0-0_0
  6
CONTINUOUS
 62
    7
 10
873.24181323105279
 20
495.12785208512571
 11
873.54038858519016
 21
496.14301228921988
  0
LINE
  8
_0-0_0
  6
CONTINUOUS
 62
    7
 10
873.54038858519016
 20
496.14301228921988
 11
873.79303029510811
 21
497.3694739234345
  0
LINE
  8
_0-0_0
  6
CONTINUOUS
 62
    7
 10
873.79303029510811
 20
497.3694739234345
 11
874.0502653694482
 21
498.72455642817522
  0
LINE
  8
_0-0_0
  6
CONTINUOUS
 62
    7
 10
869.64510888800328
 20
489.53872092369073
 11
869.89775059792123
 21
488.14229813915267
  0
LINE
  8
_0-0_0
  6
CONTINUOUS
 62
    7
 10
869.89775059792123
 20
488.14229813915267
 11
870.15498567226132
 21
486.95717678473534
  0
LINE
  8
_0-0_0
  6
CONTINUOUS
 62
    7
 10
870.15498567226132
 20
486.95717678473534
 11
870.44896766197667
 21
485.94201658064117
  0
LINE
  8
_0-0_0
  6
CONTINUOUS
 62
    7
 10
873.24181323105279
 20
485.94201658064117
 11
873.54038858519016
 21
486.95717678473534
  0
LINE
  8
_0-0_0
  6
CONTINUOUS
 62
    7
 10
873.54038858519016
 20
486.95717678473534
 11
873.79303029510811
 21
488.14229813915267
  0
LINE
  8
_0-0_0
  6
CONTINUOUS
 62
    7
 10
873.79303029510811
 20
488.14229813915267
 11
874.0502653694482
 21
489.53872092369073
  0
LINE
  8
_0-0_0
  6
CONTINUOUS
 62
    7
 10
869.64510888800328
 20
484.92684970983527
 11
869.89775059792123
 21
483.57177387180656
  0
LINE
  8
_0-0_0
  6
CONTINUOUS
 62
    7
 10
869.89775059792123
 20
483.57177387180656
 11
870.15498567226132
 21
482.34531223759166
  0
LINE
  8
_0-0_0
  6
CONTINUOUS
 62
    7
 10
870.15498567226132
 20
482.34531223759166
 11
870.44896766197667
 21
481.32555200236374
  0
LINE
  8
_0-0_0
  6
CONTINUOUS
 62
    7
 10
869.64510888800328
 20
480.35173207806702
 11
869.89775059792123
 21
478.95531596024091
  0
LINE
  8
_0-0_0
  6
CONTINUOUS
 62
    7
 10
869.89775059792123
 20
478.95531596024091
 11
870.15498567226132
 21
477.77019460582335
  0
LINE
  8
_0-0_0
  6
CONTINUOUS
 62
    7
 10
870.15498567226132
 20
477.77019460582335
 11
870.44896766197667
 21
476.75502773501739
  0
LINE
  8
_0-0_0
  6
CONTINUOUS
 62
    7
 10
873.24181323105279
 20
476.75502773501739
 11
873.54038858519016
 21
477.77019460582335
  0
LINE
  8
_0-0_0
  6
CONTINUOUS
 62
    7
 10
873.54038858519016
 20
477.77019460582335
 11
873.79303029510811
 21
478.95531596024091
  0
LINE
  8
_0-0_0
  6
CONTINUOUS
 62
    7
 10
873.79303029510811
 20
478.95531596024091
 11
874.0502653694482
 21
480.35173207806702
  0
LINE
  8
_0-0_0
  6
CONTINUOUS
 62
    7
 10
874.0502653694482
 20
480.35173207806702
 11
873.66900945571615
 21
480.90295580883424
  0
LINE
  8
_0-0_0
  6
CONTINUOUS
 62
    7
 10
873.66900945571615
 20
480.90295580883424
 11
873.24181323105279
 21
481.32555200236374
  0
LINE
  8
_0-0_0
  6
CONTINUOUS
 62
    7
 10
873.24181323105279
 20
481.32555200236374
 11
873.54038858519016
 21
482.34531223759166
  0
LINE
  8
_0-0_0
  6
CONTINUOUS
 62
    7
 10
873.54038858519016
 20
482.34531223759166
 11
873.79303029510811
 21
483.57177387180656
  0
LINE
  8
_0-0_0
  6
CONTINUOUS
 62
    7
 10
873.79303029510811
 20
483.57177387180656
 11
874.0502653694482
 21
484.92684970983527
  0
LINE
  8
_0-0_0
  6
CONTINUOUS
 62
    7
 10
872.05669187663534
 20
485.64343455979213
 11
872.43795445707917
 21
485.68937487072321
  0
LINE
  8
_0-0_0
  6
CONTINUOUS
 62
    7
 10
872.43795445707917
 20
485.68937487072321
 11
872.86514401503086
 21
485.77205543031801
  0
LINE
  8
_0-0_0
  6
CONTINUOUS
 62
    7
 10
873.24181323105279
 20
490.55388112778485
 11
873.54038858519016
 21
491.57363469630099
  0
LINE
  8
_0-0_0
  6
CONTINUOUS
 62
    7
 10
873.54038858519016
 20
491.57363469630099
 11
873.79303029510811
 21
492.75875605071832
  0
LINE
  8
_0-0_0
  6
CONTINUOUS
 62
    7
 10
873.79303029510811
 20
492.75875605071832
 11
874.0502653694482
 21
494.15403216082893
  0
LINE
  8
_0-0_0
  6
CONTINUOUS
 62
    7
 10
869.64510888800328
 20
498.72455642817522
 11
869.89775059792123
 21
497.3694739234345
  0
LINE
  8
_0-0_0
  6
CONTINUOUS
 62
    7
 10
869.89775059792123
 20
497.3694739234345
 11
870.15498567226132
 21
496.14301228921988
  0
LINE
  8
_0-0_0
  6
CONTINUOUS
 62
    7
 10
870.15498567226132
 20
496.14301228921988
 11
870.44896766197667
 21
495.12785208512571
  0
LINE
  8
_0-1_レイヤ___1
  6
CONTINUOUS
 62
    7
 10
918.91404169692589
 20
475.65259360690675
 11
918.91404169692589
 21
403.51639871135023
  0
LINE
  8
_0-1_レイヤ___1
  6
CONTINUOUS
 62
    7
 10
918.91404169692589
 20
475.65259360690675
 11
919.78228258526065
 21
470.72855484184566
  0
LINE
  8
_0-1_レイヤ___1
  6
CONTINUOUS
 62
    7
 10
918.91404169692589
 20
475.65259360690675
 11
918.04580080859125
 21
470.72855484184566
  0
LINE
  8
_0-1_レイヤ___1
  6
CONTINUOUS
 62
    7
 10
918.91404169692589
 20
403.51639871135023
 11
918.04580080859125
 21
408.44043747641126
  0
LINE
  8
_0-1_レイヤ___1
  6
CONTINUOUS
 62
    7
 10
918.91404169692589
 20
403.51639871135023
 11
919.78228258526065
 21
408.44043747641126
  0
LINE
  8
_0-1_レイヤ___1
  6
CONTINUOUS
 62
    7
 10
952.24737503025926
 20
475.65259360690675
 11
952.24737503025926
 21
391.83514631749949
  0
LINE
  8
_0-1_レイヤ___1
  6
CONTINUOUS
 62
    7
 10
952.24737503025926
 20
475.65259360690675
 11
953.1156159185939
 21
470.72855484184566
  0
LINE
  8
_0-1_レイヤ___1
  6
CONTINUOUS
 62
    7
 10
952.24737503025926
 20
475.65259360690675
 11
951.37913414192451
 21
470.72855484184566
  0
LINE
  8
_0-1_レイヤ___1
  6
CONTINUOUS
 62
    7
 10
952.24737503025926
 20
391.83514631749949
 11
951.37913414192451
 21
396.75918508256052
  0
LINE
  8
_0-1_レイヤ___1
  6
CONTINUOUS
 62
    7
 10
952.24737503025926
 20
391.83514631749949
 11
953.1156159185939
 21
396.75918508256052
  0
TEXT
  8
_0-1_レイヤ___1
 62
    7
 10
916.41404169692589
 20
433.33449615912843
 40
15
 41
1
 50
90
  1
72
  0
TEXT
  8
_0-1_レイヤ___1
 62
    7
 10
949.74737503025926
 20
427.49386996220312
 40
15
 41
1
 50
90
  1
84
  0
LINE
  8
_0-1_レイヤ___1
  6
CONTINUOUS
 62
    7
 10
918.91404169692589
 20
475.65259360690675
 11
895.34110280245216
 21
475.65259360690675
  0
LINE
  8
_0-1_レイヤ___1
  6
CONTINUOUS
 62
    7
 10
952.24737503025926
 20
475.65259360690675
 11
918.91404169692589
 21
475.65259360690675
  0
LINE
  8
_0-1_レイヤ___1
  6
CONTINUOUS
 62
    7
 10
918.91404169692589
 20
403.51639871135023
 11
882.1761537000466
 21
403.51639871135023
  0
ARC
  8
_0-0_0
  6
CONTINUOUS
 62
    7
 10
871.84539044651478
 20
410.51925859643075
 40
18.684303855221597
 50
237.05628746943796
 51
302.94371253056204
  0
LINE
  8
_0-1_レイヤ___1
  6
CONTINUOUS
 62
    7
 10
952.24737503025926
 20
391.83514631749949
 11
874.14832867493919
 21
391.83514631749949
  0
ARC
  8
_0-0_0
  6
CONTINUOUS
 62
    7
 10
262.83681524924049
 20
410.51925859643075
 40
18.684303855221597
 50
237.05628746943796
 51
302.94371253056204
  0
LINE
  8
_0-1_レイヤ___1
  6
CENTER1
 62
    7
 10
882.1761537000466
 20
403.51639871135023
 11
232.22427357812506
 21
403.51639871135023
  0
LINE
  8
ADD_LINE
  6
DOT
 62
    9
 10
72.960954729070977
 20
106.29765795200051
 11
1391.280690635117
 21
106.29765795200051
  0
LINE
  8
ADD_LINE
  6
DOT
 62
    9
 10
72.960954729070977
 20
87.882020092000559
 11
1391.280690635117
 21
87.882020092000559
  0
LINE
  8
ADD_LINE
  6
DOT
 62
    9
 10
552.26534132157099
 20
136.08845421350054
 11
552.26534132157099
 21
77.315689013500446
  0
LINE
  8
ADD_LINE
  6
DOT
 62
    9
 10
1021.2649782135711
 20
136.08845421350054
 11
1021.2649782135711
 21
77.315689013500446
  0
LINE
  8
ADD_LINE
  6
DOT
 62
    9
 10
992.80637254901967
 20
114.19374848700052
 11
1391.280690635117
 21
114.19374848700052
  0
TEXT
  8
_f-0_
 62
    7
 10
552.26534132157099
 20
87.882020092000559
 40
17.308493026288048
 41
1.0000000000000056
 50
0
  1
486T
  0
TEXT
  8
_f-0_
 62
    7
 10
552.26534132157099
 20
106.29765795200051
 40
17.308493026288048
 41
1.0000000000000056
 50
0
  1
タオルバー
  0
TEXT
  8
_f-0_
 62
    7
 10
1021.2649782135711
 20
114.19374848700052
 40
17.308493026288048
 41
1.000000000000008
 50
0
  1
KOHLER　メモワーズ
  0
ENDSEC
  0
EOF
