  0
SECTION
  2
HEADER
  9
$ACADVER
  1
AC1009
  9
$INSBASE
 10
0
 20
0
 30
0
  9
$EXTMIN
 10
0
 20
0
  9
$EXTMAX
 10
1485
 20
1050
  9
$LIMMIN
 10
0
 20
0
  9
$LIMMAX
 10
1485
 20
1050
  9
$LTSCALE
 40
5
  0
ENDSEC
  0
SECTION
  2
TABLES
  0
TABLE
  2
LTYPE
 70
     9
  0
LTYPE
  2
CONTINUOUS
 70
    64
  3
実線
 72
    65
 73
     0
 40
0.0
  0
LTYPE
  2
DASHED1
 70
    64
  3
--  --  --  --  --  --  --  --  
 72
    65
 73
     2
 40
2.5
 49
1.25
 49
-1.25
  0
LTYPE
  2
DASHED2
 70
    64
  3
----    ----    ----    ----    
 72
    65
 73
     2
 40
5.0
 49
2.5
 49
-2.5
  0
LTYPE
  2
DASHED3
 70
    64
  3
------  ------  ------  ------  
 72
    65
 73
     2
 40
5.0
 49
3.75
 49
-1.25
  0
LTYPE
  2
CENTER1
 70
    64
  3
----- - ----- - ----- - ----- - 
 72
    65
 73
     4
 40
10.0
 49
6.25
 49
-1.25
 49
1.25
 49
-1.25
  0
LTYPE
  2
CENTER2
 70
    64
  3
----------  --  ----------  --  
 72
    65
 73
     4
 40
20.0
 49
12.5
 49
-2.5
 49
2.5
 49
-2.5
  0
LTYPE
  2
PHANTOM1
 70
    64
  3
--- - - --- - - --- - - --- - - 
 72
    65
 73
     6
 40
10.0
 49
3.25
 49
-1.25
 49
1.25
 49
-1.25
 49
1.25
 49
-1.25
  0
LTYPE
  2
PHANTOM2
 70
    64
  3
--------  -  -  --------  -  -  
 72
    65
 73
     6
 40
20.0
 49
10.0
 49
-2.5
 49
1.25
 49
-2.5
 49
1.25
 49
-2.5
  0
LTYPE
  2
DOT
 70
    64
  3
-   -   -   -   -   -   -   -   
 72
    65
 73
     2
 40
2.5
 49
0.625
 49
-1.875
  0
LTYPE
  2
DUMMY
 70
    64
  3
ダミー
 72
    65
 73
     0
 40
0.0
  0
LTYPE
  2
RAND1
 70
    64
  3
ランダム線1
 72
    65
 73
     4
 40
10.0
 49
1.0
 49
-2.0
 49
3.0
 49
-4.0
  0
LTYPE
  2
RAND2
 70
    64
  3
ランダム線2
 72
    65
 73
     4
 40
14.0
 49
2.0
 49
-3.0
 49
4.0
 49
-5.0
  0
LTYPE
  2
RAND3
 70
    64
  3
ランダム線3
 72
    65
 73
     4
 40
18.0
 49
3.0
 49
-4.0
 49
5.0
 49
-6.0
  0
LTYPE
  2
RAND4
 70
    64
  3
ランダム線4
 72
    65
 73
     4
 40
22.0
 49
4.0
 49
-5.0
 49
6.0
 49
-7.0
  0
LTYPE
  2
RAND5
 70
    64
  3
ランダム線5
 72
    65
 73
     4
 40
26.0
 49
5.0
 49
-6.0
 49
7.0
 49
-8.0
  0
LTYPE
  2
LONG1
 70
    64
  3
----------  --  ----------  --  
 72
    65
 73
     4
 40
40.0
 49
32.5
 49
-2.5
 49
2.5
 49
-2.5
  0
LTYPE
  2
LONG2
 70
    64
  3
--------  -  -  --------  -  -  
 72
    65
 73
     6
 40
40.0
 49
30.0
 49
-2.5
 49
1.25
 49
-2.5
 49
1.25
 49
-2.5
  0
LTYPE
  2
LONG3
 70
    64
  3
+++++++++++++++..+++++++++++++++
 72
    65
 73
     2
 40
40.0
 49
37.5
 49
-2.5
  0
LTYPE
  2
LONG4
 70
    64
  3
+++++++++++++++..+++++++++++++++
 72
    65
 73
     2
 40
80.0
 49
75.0
 49
-5.0
  0
LTYPE
  2
LONG5
 70
    64
  3
----------  --  ----------  --  
 72
    65
 73
     4
 40
60.0
 49
37.5
 49
-7.5
 49
7.5
 49
-7.5
  0
LTYPE
  2
dashed
 70
   64
  3
-------   -------------   ------
 72
   65
 73
    2
 40
7.5
 49
6
 49
-1.5
  0
LTYPE
  2
dashed_spaced
 70
   64
  3
----        --------        ----
 72
   65
 73
    2
 40
12
 49
6
 49
-6
  0
LTYPE
  2
long_dashed_dotted
 70
   64
  3
------------- --- --------------
 72
   65
 73
    4
 40
15.25
 49
12
 49
-1.5
 49
0.25
 49
-1.5
  0
LTYPE
  2
long_dashed_double-dotted
 70
   64
  3
----------- --- --- ------------
 72
   65
 73
    6
 40
17
 49
12
 49
-1.5
 49
0.25
 49
-1.5
 49
0.25
 49
-1.5
  0
LTYPE
  2
long_dashed_triplicate-dotted
 70
   64
  3
--------- --- --- --- ----------
 72
   65
 73
    8
 40
18.75
 49
12
 49
-1.5
 49
0.25
 49
-1.5
 49
0.25
 49
-1.5
 49
0.25
 49
-1.5
  0
LTYPE
  2
dotted
 70
   64
  3
   -       -       -       -    
 72
   65
 73
    2
 40
1.75
 49
0.25
 49
-1.5
  0
LTYPE
  2
chain
 70
   64
  3
-------------- -- --------------
 72
   65
 73
    4
 40
18.5
 49
12
 49
-1.5
 49
3.5
 49
-1.5
  0
LTYPE
  2
chain_double_dash
 70
   64
  3
------------ -- -- -------------
 72
   65
 73
    6
 40
23.5
 49
12
 49
-1.5
 49
3.5
 49
-1.5
 49
3.5
 49
-1.5
  0
LTYPE
  2
dashed_dotted
 70
   64
  3
-----------     -     ----------
 72
   65
 73
    4
 40
9.25
 49
6
 49
-1.5
 49
0.25
 49
-1.5
  0
LTYPE
  2
double-dashed_dotted
 70
   64
  3
------   -----------   -   -----
 72
   65
 73
    6
 40
16.75
 49
6
 49
-1.5
 49
6
 49
-1.5
 49
0.25
 49
-1.5
  0
LTYPE
  2
dashed_double-dotted
 70
   64
  3
---------    -    -    ---------
 72
   65
 73
    6
 40
11
 49
6
 49
-1.5
 49
0.25
 49
-1.5
 49
0.25
 49
-1.5
  0
LTYPE
  2
double-dashed_double-dotted
 70
   64
  3
-----   ---------   -   -   ----
 72
   65
 73
    8
 40
18.5
 49
6
 49
-1.5
 49
6
 49
-1.5
 49
0.25
 49
-1.5
 49
0.25
 49
-1.5
  0
LTYPE
  2
dashed_triplicate-dotted
 70
   64
  3
-------    -    -    -    ------
 72
   65
 73
    8
 40
12.75
 49
6
 49
-1.5
 49
0.25
 49
-1.5
 49
0.25
 49
-1.5
 49
0.25
 49
-1.5
  0
LTYPE
  2
double-dashed_triplicate-dotted
 70
   64
  3
-----  ---------  -  -  -  -----
 72
   65
 73
   10
 40
20.25
 49
6
 49
-1.5
 49
6
 49
-1.5
 49
0.25
 49
-1.5
 49
0.25
 49
-1.5
 49
0.25
 49
-1.5
  0
LTYPE
  2
undefined
 70
   64
  3
--------------------------------
 72
   65
 73
    0
 40
0
  0
LTYPE
  2
_
 70
   64
  3
                                
 72
   65
 73
    0
 40
0
  0
LTYPE
  2
__18
 70
   64
  3
                                
 72
   65
 73
    0
 40
0
  0
LTYPE
  2
__19
 70
   64
  3
                                
 72
   65
 73
    0
 40
0
  0
LTYPE
  2
__20
 70
   64
  3
                                
 72
   65
 73
    0
 40
0
  0
LTYPE
  2
__21
 70
   64
  3
                                
 72
   65
 73
    0
 40
0
  0
LTYPE
  2
__22
 70
   64
  3
                                
 72
   65
 73
    0
 40
0
  0
LTYPE
  2
__23
 70
   64
  3
                                
 72
   65
 73
    0
 40
0
  0
LTYPE
  2
__24
 70
   64
  3
                                
 72
   65
 73
    0
 40
0
  0
LTYPE
  2
__25
 70
   64
  3
                                
 72
   65
 73
    0
 40
0
  0
LTYPE
  2
__26
 70
   64
  3
                                
 72
   65
 73
    0
 40
0
  0
LTYPE
  2
__27
 70
   64
  3
                                
 72
   65
 73
    0
 40
0
  0
LTYPE
  2
__28
 70
   64
  3
                                
 72
   65
 73
    0
 40
0
  0
LTYPE
  2
__29
 70
   64
  3
                                
 72
   65
 73
    0
 40
0
  0
LTYPE
  2
__30
 70
   64
  3
                                
 72
   65
 73
    0
 40
0
  0
LTYPE
  2
__31
 70
   64
  3
                                
 72
   65
 73
    0
 40
0
  0
LTYPE
  2
__32
 70
   64
  3
                                
 72
   65
 73
    0
 40
0
  0
ENDTAB
  0
TABLE
  2
STYLE
  5
3
100
AcDbSymbolTable
 70
     1
  0
STYLE
  5
10
100
AcDbSymbolTableRecord
100
AcDbTextStyleTableRecord
  2
STANDARD
 70
     0
 40
0.0
 41
1.0
 50
0.0
 71
     0
 42
0.2
  3
txt
  4
bigfont.shx
  0
STYLE
  5
26
100
AcDbSymbolTableRecord
100
AcDbTextStyleTableRecord
  2
TATEGAKI
 70
    68
 40
0.0
 41
1.0
 50
0.0
 71
     0
 42
1.0
  3
txt
  4
bigfont.shx
  0
ENDTAB
  0
TABLE
  2
LAYER
 70
    4
  0
LAYER
  2
_0-0_0
 70
   64
 62
    7
  6
CONTINUOUS
  0
LAYER
  2
_0-1_DEFPOINTS
 70
   64
 62
    7
  6
CONTINUOUS
  0
LAYER
  2
_f-0____-240
 70
   64
 62
    7
  6
CONTINUOUS
  0
LAYER
  2
ADD_LINE
 70
   64
 62
    7
  6
CONTINUOUS
  0
ENDTAB
  0
ENDSEC
  0
SECTION
  2
BLOCKS
  0
ENDSEC
  0
SECTION
  2
ENTITIES
  0
LINE
  8
_f-0____-240
  6
CONTINUOUS
 62
    7
 10
72.960954729070977
 20
136.08845421350054
 11
1391.280690635117
 21
136.08845421350054
  0
LINE
  8
_f-0____-240
  6
CONTINUOUS
 62
    7
 10
46.749389292405112
 20
1020.5715019247659
 11
1417.582036974429
 21
1020.5715019247659
  0
LINE
  8
_f-0____-240
  6
CONTINUOUS
 62
    7
 10
1417.582036974429
 20
1020.5715019247659
 11
1417.582036974429
 21
51.295892452627641
  0
LINE
  8
_f-0____-240
  6
CONTINUOUS
 62
    7
 10
1417.582036974429
 20
51.295892452627641
 11
46.749389292405112
 21
51.295892452627641
  0
LINE
  8
_f-0____-240
  6
CONTINUOUS
 62
    7
 10
46.749389292405112
 20
51.295892452627641
 11
46.749389292405112
 21
1020.5715019247659
  0
TEXT
  8
_f-0____-240
 62
    7
 10
916.45209236573589
 20
94.288290398999095
 40
17.308493026288119
 41
1.0000000000000038
 50
0
  1
19/04/18
  0
LINE
  8
_f-0____-240
  6
CONTINUOUS
 62
    7
 10
72.960954729070977
 20
77.315689013500446
 11
1391.280690635117
 21
77.315689013500446
  0
LINE
  8
_f-0____-240
  6
CONTINUOUS
 62
    7
 10
72.960954729070977
 20
136.08845421350054
 11
72.960954729070977
 21
77.315689013500446
  0
LINE
  8
_f-0____-240
  6
CONTINUOUS
 62
    7
 10
542.27986562907085
 20
136.08845421350054
 11
542.27986562907085
 21
77.315689013500446
  0
LINE
  8
_f-0____-240
  6
CONTINUOUS
 62
    7
 10
760.6622185790709
 20
136.08845421350054
 11
760.6622185790709
 21
77.315689013500446
  0
LINE
  8
_f-0____-240
  6
CONTINUOUS
 62
    7
 10
877.57398327907083
 20
136.08845421350054
 11
877.57398327907083
 21
77.315689013500446
  0
LINE
  8
_f-0____-240
  6
CONTINUOUS
 62
    7
 10
1013.235747979071
 20
136.08845421350054
 11
1013.235747979071
 21
77.315689013500446
  0
LINE
  8
_f-0____-240
  6
CONTINUOUS
 62
    7
 10
1391.2806906290709
 20
136.08845421350054
 11
1391.2806906290709
 21
77.315689013500446
  0
TEXT
  8
_f-0____-240
 62
    7
 10
1087.3767701525044
 20
82.145288671023877
 40
17.308493026287977
 41
1.000000000000012
 50
0
  1
日鉄物産マテックス株式会社
  0
TEXT
  8
_f-0____-240
 62
    7
 10
788.6214691444618
 20
94.076925831733931
 40
17.308493026288048
 41
1.0000000000000095
 50
0
  1
S=1/5
  0
LINE
  8
_0-1_DEFPOINTS
  6
CONTINUOUS
 62
    7
 10
526.40770993273566
 20
420.94430674977218
 11
505.91837981834669
 21
420.94430674977218
  0
LINE
  8
_0-1_DEFPOINTS
  6
CONTINUOUS
 62
    7
 10
505.91837981834669
 20
420.94430674977218
 11
485.42790180381672
 21
420.94430674977218
  0
LINE
  8
_0-1_DEFPOINTS
  6
CONTINUOUS
 62
    7
 10
485.42790180381672
 20
420.94430674977218
 11
464.93742378928664
 21
420.94430674977218
  0
LINE
  8
_0-1_DEFPOINTS
  6
CONTINUOUS
 62
    7
 10
464.93742378928664
 20
420.94430674977218
 11
444.44694577475661
 21
420.94430674977218
  0
LINE
  8
_0-1_DEFPOINTS
  6
CONTINUOUS
 62
    7
 10
549.54686741542207
 20
337.0326729542154
 11
523.27274793036156
 21
337.0326729542154
  0
LINE
  8
_0-1_DEFPOINTS
  6
CONTINUOUS
 62
    7
 10
523.27274793036156
 20
337.0326729542154
 11
496.99748054515993
 21
337.0326729542154
  0
LINE
  8
_0-1_DEFPOINTS
  6
CONTINUOUS
 62
    7
 10
496.99748054515993
 20
337.0326729542154
 11
470.72221315995824
 21
337.0326729542154
  0
LINE
  8
_0-1_DEFPOINTS
  6
CONTINUOUS
 62
    7
 10
470.72221315995824
 20
337.0326729542154
 11
444.44694577475661
 21
337.0326729542154
  0
LINE
  8
_0-1_DEFPOINTS
  6
CONTINUOUS
 62
    7
 10
638.29487145920689
 20
346.24327018860868
 11
638.29487145920689
 21
338.72718045154659
  0
LINE
  8
_0-1_DEFPOINTS
  6
CONTINUOUS
 62
    7
 10
638.29487145920689
 20
338.72718045154659
 11
638.29487145920689
 21
331.21109071448461
  0
LINE
  8
_0-1_DEFPOINTS
  6
CONTINUOUS
 62
    7
 10
638.29487145920689
 20
331.21109071448461
 11
638.29487145920689
 21
323.69500765126048
  0
LINE
  8
_0-1_DEFPOINTS
  6
CONTINUOUS
 62
    7
 10
475.6425002475757
 20
348.00905427610007
 11
475.6425002475757
 21
340.05152352254379
  0
LINE
  8
_0-1_DEFPOINTS
  6
CONTINUOUS
 62
    7
 10
475.6425002475757
 20
340.05152352254379
 11
475.6425002475757
 21
332.09398609514926
  0
LINE
  8
_0-1_DEFPOINTS
  6
CONTINUOUS
 62
    7
 10
475.6425002475757
 20
332.09398609514926
 11
475.6425002475757
 21
324.13644866775491
  0
LINE
  8
_0-1_DEFPOINTS
  6
CONTINUOUS
 62
    7
 10
551.79778613699034
 20
428.42590609189506
 11
551.79778613699034
 21
436.81799046109893
  0
LINE
  8
_0-1_DEFPOINTS
  6
CONTINUOUS
 62
    7
 10
551.79778613699034
 20
436.81799046109893
 11
551.79778613699034
 21
445.20777235618243
  0
LINE
  8
_0-1_DEFPOINTS
  6
CONTINUOUS
 62
    7
 10
551.79778613699034
 20
445.20777235618243
 11
551.79778613699034
 21
453.59756092510383
  0
LINE
  8
_0-1_DEFPOINTS
  6
CONTINUOUS
 62
    7
 10
551.79778613699034
 20
453.59756092510383
 11
551.79778613699034
 21
461.98964529430771
  0
LINE
  8
_0-1_DEFPOINTS
  6
CONTINUOUS
 62
    7
 10
558.70573573124466
 20
428.42590609189506
 11
558.70573573124466
 21
436.81799046109893
  0
LINE
  8
_0-1_DEFPOINTS
  6
CONTINUOUS
 62
    7
 10
558.70573573124466
 20
436.81799046109893
 11
558.70573573124466
 21
445.20777235618243
  0
LINE
  8
_0-1_DEFPOINTS
  6
CONTINUOUS
 62
    7
 10
558.70573573124466
 20
445.20777235618243
 11
558.70573573124466
 21
453.59756092510383
  0
LINE
  8
_0-1_DEFPOINTS
  6
CONTINUOUS
 62
    7
 10
558.70573573124466
 20
453.59756092510383
 11
558.70573573124466
 21
461.98964529430771
  0
LINE
  8
_0-1_DEFPOINTS
  6
CONTINUOUS
 62
    7
 10
531.1164697239924
 20
420.94430674977218
 11
513.99547238021057
 21
420.94430674977218
  0
LINE
  8
_0-1_DEFPOINTS
  6
CONTINUOUS
 62
    7
 10
513.99547238021057
 20
420.94430674977218
 11
496.87447503642892
 21
420.94430674977218
  0
LINE
  8
_0-1_DEFPOINTS
  6
CONTINUOUS
 62
    7
 10
496.87447503642892
 20
420.94430674977218
 11
479.75347101880914
 21
420.94430674977218
  0
LINE
  8
_0-1_DEFPOINTS
  6
CONTINUOUS
 62
    7
 10
479.75347101880914
 20
420.94430674977218
 11
462.63247367502748
 21
420.94430674977218
  0
LINE
  8
_0-1_DEFPOINTS
  6
CONTINUOUS
 62
    7
 10
474.54118349586508
 20
348.73100337883341
 11
471.56371739716093
 21
348.73100337883341
  0
LINE
  8
_0-1_DEFPOINTS
  6
CONTINUOUS
 62
    7
 10
471.56371739716093
 20
348.73100337883341
 11
468.58625797229467
 21
348.73100337883341
  0
LINE
  8
_0-1_DEFPOINTS
  6
CONTINUOUS
 62
    7
 10
468.58625797229467
 20
348.73100337883341
 11
465.60879187359058
 21
348.73100337883341
  0
LINE
  8
_0-1_DEFPOINTS
  6
CONTINUOUS
 62
    7
 10
545.10251173923791
 20
340.0837114433624
 11
550.18719547904846
 21
340.0837114433624
  0
LINE
  8
_0-1_DEFPOINTS
  6
CONTINUOUS
 62
    7
 10
550.18719547904846
 20
340.0837114433624
 11
555.27302711900006
 21
340.0837114433624
  0
LINE
  8
_0-1_DEFPOINTS
  6
CONTINUOUS
 62
    7
 10
555.27302711900006
 20
340.0837114433624
 11
560.35885875895178
 21
340.0837114433624
  0
LINE
  8
_0-1_DEFPOINTS
  6
CONTINUOUS
 62
    7
 10
560.35885875895178
 20
340.0837114433624
 11
565.44469039890328
 21
340.0837114433624
  0
LINE
  8
_0-1_DEFPOINTS
  6
CONTINUOUS
 62
    7
 10
481.23645789361746
 20
343.98315491823507
 11
497.24464613660086
 21
343.98315491823507
  0
LINE
  8
_0-1_DEFPOINTS
  6
CONTINUOUS
 62
    7
 10
497.24464613660086
 20
343.98315491823507
 11
513.25283437958444
 21
343.98315491823507
  0
LINE
  8
_0-1_DEFPOINTS
  6
CONTINUOUS
 62
    7
 10
513.25283437958444
 20
343.98315491823507
 11
529.26217052270897
 21
343.98315491823507
  0
LINE
  8
_0-1_DEFPOINTS
  6
CONTINUOUS
 62
    7
 10
529.26217052270897
 20
343.98315491823507
 11
545.27035209185442
 21
343.98315491823507
  0
LINE
  8
_0-1_DEFPOINTS
  6
CONTINUOUS
 62
    7
 10
565.23201520240139
 20
343.98315491823507
 11
582.31162807655903
 21
343.98315491823507
  0
LINE
  8
_0-1_DEFPOINTS
  6
CONTINUOUS
 62
    7
 10
582.31162807655903
 20
343.98315491823507
 11
599.3900930505755
 21
343.98315491823507
  0
LINE
  8
_0-1_DEFPOINTS
  6
CONTINUOUS
 62
    7
 10
599.3900930505755
 20
343.98315491823507
 11
616.46855802459208
 21
343.98315491823507
  0
LINE
  8
_0-1_DEFPOINTS
  6
CONTINUOUS
 62
    7
 10
616.46855802459208
 20
343.98315491823507
 11
633.54702299860855
 21
343.98315491823507
  0
LINE
  8
_0-1_DEFPOINTS
  6
CONTINUOUS
 62
    7
 10
475.55858340818645
 20
348.73100337883341
 11
478.98094089764663
 21
348.73100337883341
  0
LINE
  8
_0-1_DEFPOINTS
  6
CONTINUOUS
 62
    7
 10
478.98094089764663
 20
348.73100337883341
 11
482.40215048696547
 21
348.73100337883341
  0
LINE
  8
_0-1_DEFPOINTS
  6
CONTINUOUS
 62
    7
 10
482.40215048696547
 20
348.73100337883341
 11
485.8245146502635
 21
348.73100337883341
  0
LINE
  8
_0-1_DEFPOINTS
  6
CONTINUOUS
 62
    7
 10
485.8245146502635
 20
348.73100337883341
 11
489.24687213972362
 21
348.73100337883341
  0
LINE
  8
_0-1_DEFPOINTS
  6
CONTINUOUS
 62
    7
 10
491.53457705651329
 20
348.73100337883341
 11
492.11743002702525
 21
348.73100337883341
  0
LINE
  8
_0-1_DEFPOINTS
  6
CONTINUOUS
 62
    7
 10
492.11743002702525
 20
348.73100337883341
 11
492.70027632369931
 21
348.73100337883341
  0
LINE
  8
_0-1_DEFPOINTS
  6
CONTINUOUS
 62
    7
 10
492.70027632369931
 20
348.73100337883341
 11
493.28197472023203
 21
348.73100337883341
  0
LINE
  8
_0-1_DEFPOINTS
  6
CONTINUOUS
 62
    7
 10
493.28197472023203
 20
348.73100337883341
 11
493.86482101690603
 21
348.73100337883341
  0
LINE
  8
_0-1_DEFPOINTS
  6
CONTINUOUS
 62
    7
 10
496.15482173397794
 20
348.73100337883341
 11
499.04721641931388
 21
348.73100337883341
  0
LINE
  8
_0-1_DEFPOINTS
  6
CONTINUOUS
 62
    7
 10
499.04721641931388
 20
348.73100337883341
 11
501.9396111046496
 21
348.73100337883341
  0
LINE
  8
_0-1_DEFPOINTS
  6
CONTINUOUS
 62
    7
 10
501.9396111046496
 20
348.73100337883341
 11
504.83200578998537
 21
348.73100337883341
  0
LINE
  8
_0-1_DEFPOINTS
  6
CONTINUOUS
 62
    7
 10
504.83200578998537
 20
348.73100337883341
 11
507.7244004753212
 21
348.73100337883341
  0
LINE
  8
_0-1_DEFPOINTS
  6
CONTINUOUS
 62
    7
 10
510.0121053921107
 20
348.73100337883341
 11
510.58345933969701
 21
348.73100337883341
  0
LINE
  8
_0-1_DEFPOINTS
  6
CONTINUOUS
 62
    7
 10
510.58345933969701
 20
348.73100337883341
 11
511.15596118742462
 21
348.73100337883341
  0
LINE
  8
_0-1_DEFPOINTS
  6
CONTINUOUS
 62
    7
 10
511.15596118742462
 20
348.73100337883341
 11
511.72846303515212
 21
348.73100337883341
  0
LINE
  8
_0-1_DEFPOINTS
  6
CONTINUOUS
 62
    7
 10
511.72846303515212
 20
348.73100337883341
 11
512.3009648828795
 21
348.73100337883341
  0
LINE
  8
_0-1_DEFPOINTS
  6
CONTINUOUS
 62
    7
 10
514.63120216943435
 20
348.73100337883341
 11
517.51325240582355
 21
348.73100337883341
  0
LINE
  8
_0-1_DEFPOINTS
  6
CONTINUOUS
 62
    7
 10
517.51325240582355
 20
348.73100337883341
 11
520.39414806823379
 21
348.73100337883341
  0
LINE
  8
_0-1_DEFPOINTS
  6
CONTINUOUS
 62
    7
 10
520.39414806823379
 20
348.73100337883341
 11
523.27619830462299
 21
348.73100337883341
  0
LINE
  8
_0-1_DEFPOINTS
  6
CONTINUOUS
 62
    7
 10
523.27619830462299
 20
348.73100337883341
 11
526.15824854101231
 21
348.73100337883341
  0
LINE
  8
_0-1_DEFPOINTS
  6
CONTINUOUS
 62
    7
 10
528.48963372770834
 20
348.73100337883341
 11
529.06213557543583
 21
348.73100337883341
  0
LINE
  8
_0-1_DEFPOINTS
  6
CONTINUOUS
 62
    7
 10
529.06213557543583
 20
348.73100337883341
 11
529.63463742316333
 21
348.73100337883341
  0
LINE
  8
_0-1_DEFPOINTS
  6
CONTINUOUS
 62
    7
 10
529.63463742316333
 20
348.73100337883341
 11
530.20713927089082
 21
348.73100337883341
  0
LINE
  8
_0-1_DEFPOINTS
  6
CONTINUOUS
 62
    7
 10
530.20713927089082
 20
348.73100337883341
 11
530.77849321847714
 21
348.73100337883341
  0
LINE
  8
_0-1_DEFPOINTS
  6
CONTINUOUS
 62
    7
 10
533.06619813526675
 20
348.73100337883341
 11
535.95859282060258
 21
348.73100337883341
  0
LINE
  8
_0-1_DEFPOINTS
  6
CONTINUOUS
 62
    7
 10
535.95859282060258
 20
348.73100337883341
 11
538.85098750593829
 21
348.73100337883341
  0
LINE
  8
_0-1_DEFPOINTS
  6
CONTINUOUS
 62
    7
 10
538.85098750593829
 20
348.73100337883341
 11
541.74338219127412
 21
348.73100337883341
  0
LINE
  8
_0-1_DEFPOINTS
  6
CONTINUOUS
 62
    7
 10
541.74338219127412
 20
348.73100337883341
 11
544.63577687660984
 21
348.73100337883341
  0
LINE
  8
_0-1_DEFPOINTS
  6
CONTINUOUS
 62
    7
 10
546.92462969354062
 20
348.73100337883341
 11
547.50747599021463
 21
348.73100337883341
  0
LINE
  8
_0-1_DEFPOINTS
  6
CONTINUOUS
 62
    7
 10
547.50747599021463
 20
348.73100337883341
 11
548.09032228688864
 21
348.73100337883341
  0
LINE
  8
_0-1_DEFPOINTS
  6
CONTINUOUS
 62
    7
 10
548.09032228688864
 20
348.73100337883341
 11
548.67316858356264
 21
348.73100337883341
  0
LINE
  8
_0-1_DEFPOINTS
  6
CONTINUOUS
 62
    7
 10
548.67316858356264
 20
348.73100337883341
 11
549.25602155407455
 21
348.73100337883341
  0
LINE
  8
_0-1_DEFPOINTS
  6
CONTINUOUS
 62
    7
 10
551.54372647086427
 20
348.73100337883341
 11
554.42577003341557
 21
348.73100337883341
  0
LINE
  8
_0-1_DEFPOINTS
  6
CONTINUOUS
 62
    7
 10
554.42577003341557
 20
348.73100337883341
 11
557.30782026980478
 21
348.73100337883341
  0
LINE
  8
_0-1_DEFPOINTS
  6
CONTINUOUS
 62
    7
 10
557.30782026980478
 20
348.73100337883341
 11
560.1887159322149
 21
348.73100337883341
  0
LINE
  8
_0-1_DEFPOINTS
  6
CONTINUOUS
 62
    7
 10
560.1887159322149
 20
348.73100337883341
 11
563.07076616860411
 21
348.73100337883341
  0
LINE
  8
_0-1_DEFPOINTS
  6
CONTINUOUS
 62
    7
 10
565.40101012899697
 20
348.73100337883341
 11
565.97350530288645
 21
348.73100337883341
  0
LINE
  8
_0-1_DEFPOINTS
  6
CONTINUOUS
 62
    7
 10
565.97350530288645
 20
348.73100337883341
 11
566.54600715061395
 21
348.73100337883341
  0
LINE
  8
_0-1_DEFPOINTS
  6
CONTINUOUS
 62
    7
 10
566.54600715061395
 20
348.73100337883341
 11
567.11850899834144
 21
348.73100337883341
  0
LINE
  8
_0-1_DEFPOINTS
  6
CONTINUOUS
 62
    7
 10
567.11850899834144
 20
348.73100337883341
 11
567.68986294592776
 21
348.73100337883341
  0
LINE
  8
_0-1_DEFPOINTS
  6
CONTINUOUS
 62
    7
 10
570.0212548064618
 20
348.73100337883341
 11
572.9032983690131
 21
348.73100337883341
  0
LINE
  8
_0-1_DEFPOINTS
  6
CONTINUOUS
 62
    7
 10
572.9032983690131
 20
348.73100337883341
 11
575.78420070526124
 21
348.73100337883341
  0
LINE
  8
_0-1_DEFPOINTS
  6
CONTINUOUS
 62
    7
 10
575.78420070526124
 20
348.73100337883341
 11
578.66624426781243
 21
348.73100337883341
  0
LINE
  8
_0-1_DEFPOINTS
  6
CONTINUOUS
 62
    7
 10
578.66624426781243
 20
348.73100337883341
 11
581.54829450420175
 21
348.73100337883341
  0
LINE
  8
_0-1_DEFPOINTS
  6
CONTINUOUS
 62
    7
 10
583.83599942099136
 20
348.73100337883341
 11
584.41884571766536
 21
348.73100337883341
  0
LINE
  8
_0-1_DEFPOINTS
  6
CONTINUOUS
 62
    7
 10
584.41884571766536
 20
348.73100337883341
 11
585.00169868817738
 21
348.73100337883341
  0
LINE
  8
_0-1_DEFPOINTS
  6
CONTINUOUS
 62
    7
 10
585.00169868817738
 20
348.73100337883341
 11
585.5833904108722
 21
348.73100337883341
  0
LINE
  8
_0-1_DEFPOINTS
  6
CONTINUOUS
 62
    7
 10
585.5833904108722
 20
348.73100337883341
 11
586.16624338138411
 21
348.73100337883341
  0
LINE
  8
_0-1_DEFPOINTS
  6
CONTINUOUS
 62
    7
 10
588.45509619831489
 20
348.73100337883341
 11
591.33714643470421
 21
348.73100337883341
  0
LINE
  8
_0-1_DEFPOINTS
  6
CONTINUOUS
 62
    7
 10
591.33714643470421
 20
348.73100337883341
 11
594.21918999725551
 21
348.73100337883341
  0
LINE
  8
_0-1_DEFPOINTS
  6
CONTINUOUS
 62
    7
 10
594.21918999725551
 20
348.73100337883341
 11
597.10009233350365
 21
348.73100337883341
  0
LINE
  8
_0-1_DEFPOINTS
  6
CONTINUOUS
 62
    7
 10
597.10009233350365
 20
348.73100337883341
 11
599.98213589605484
 21
348.73100337883341
  0
LINE
  8
_0-1_DEFPOINTS
  6
CONTINUOUS
 62
    7
 10
602.31352775658888
 20
348.73100337883341
 11
602.8848817041752
 21
348.73100337883341
  0
LINE
  8
_0-1_DEFPOINTS
  6
CONTINUOUS
 62
    7
 10
602.8848817041752
 20
348.73100337883341
 11
603.45738355190269
 21
348.73100337883341
  0
LINE
  8
_0-1_DEFPOINTS
  6
CONTINUOUS
 62
    7
 10
603.45738355190269
 20
348.73100337883341
 11
604.02988539963007
 21
348.73100337883341
  0
LINE
  8
_0-1_DEFPOINTS
  6
CONTINUOUS
 62
    7
 10
604.02988539963007
 20
348.73100337883341
 11
604.60238057351967
 21
348.73100337883341
  0
LINE
  8
_0-1_DEFPOINTS
  6
CONTINUOUS
 62
    7
 10
606.93262453391242
 20
348.73100337883341
 11
609.81467477030174
 21
348.73100337883341
  0
LINE
  8
_0-1_DEFPOINTS
  6
CONTINUOUS
 62
    7
 10
609.81467477030174
 20
348.73100337883341
 11
612.69557043271175
 21
348.73100337883341
  0
LINE
  8
_0-1_DEFPOINTS
  6
CONTINUOUS
 62
    7
 10
612.69557043271175
 20
348.73100337883341
 11
615.57876856924236
 21
348.73100337883341
  0
LINE
  8
_0-1_DEFPOINTS
  6
CONTINUOUS
 62
    7
 10
615.57876856924236
 20
348.73100337883341
 11
618.45966423165237
 21
348.73100337883341
  0
LINE
  8
_0-1_DEFPOINTS
  6
CONTINUOUS
 62
    7
 10
620.79105609218641
 20
348.73100337883341
 11
621.36355793991379
 21
348.73100337883341
  0
LINE
  8
_0-1_DEFPOINTS
  6
CONTINUOUS
 62
    7
 10
621.36355793991379
 20
348.73100337883341
 11
621.93375731352103
 21
348.73100337883341
  0
LINE
  8
_0-1_DEFPOINTS
  6
CONTINUOUS
 62
    7
 10
621.93375731352103
 20
348.73100337883341
 11
622.50625916124841
 21
348.73100337883341
  0
LINE
  8
_0-1_DEFPOINTS
  6
CONTINUOUS
 62
    7
 10
622.50625916124841
 20
348.73100337883341
 11
623.07876100897602
 21
348.73100337883341
  0
LINE
  8
_0-1_DEFPOINTS
  6
CONTINUOUS
 62
    7
 10
625.36876839988599
 20
348.73100337883341
 11
628.80147033829257
 21
348.73100337883341
  0
LINE
  8
_0-1_DEFPOINTS
  6
CONTINUOUS
 62
    7
 10
628.80147033829257
 20
348.73100337883341
 11
632.23417895053717
 21
348.73100337883341
  0
LINE
  8
_0-1_DEFPOINTS
  6
CONTINUOUS
 62
    7
 10
632.23417895053717
 20
348.73100337883341
 11
635.66688756278165
 21
348.73100337883341
  0
LINE
  8
_0-1_DEFPOINTS
  6
CONTINUOUS
 62
    7
 10
635.66688756278165
 20
348.73100337883341
 11
639.09959617502625
 21
348.73100337883341
  0
LINE
  8
_0-1_DEFPOINTS
  6
CONTINUOUS
 62
    7
 10
481.23645789361746
 20
353.51794050877345
 11
497.24464613660086
 21
353.51794050877345
  0
LINE
  8
_0-1_DEFPOINTS
  6
CONTINUOUS
 62
    7
 10
497.24464613660086
 20
353.51794050877345
 11
513.25283437958444
 21
353.51794050877345
  0
LINE
  8
_0-1_DEFPOINTS
  6
CONTINUOUS
 62
    7
 10
513.25283437958444
 20
353.51794050877345
 11
529.26217052270897
 21
353.51794050877345
  0
LINE
  8
_0-1_DEFPOINTS
  6
CONTINUOUS
 62
    7
 10
529.26217052270897
 20
353.51794050877345
 11
545.27035209185442
 21
353.51794050877345
  0
LINE
  8
_0-1_DEFPOINTS
  6
CONTINUOUS
 62
    7
 10
565.23201520240139
 20
353.51794050877345
 11
582.31162807655903
 21
353.51794050877345
  0
LINE
  8
_0-1_DEFPOINTS
  6
CONTINUOUS
 62
    7
 10
582.31162807655903
 20
353.51794050877345
 11
599.3900930505755
 21
353.51794050877345
  0
LINE
  8
_0-1_DEFPOINTS
  6
CONTINUOUS
 62
    7
 10
599.3900930505755
 20
353.51794050877345
 11
616.46855802459208
 21
353.51794050877345
  0
LINE
  8
_0-1_DEFPOINTS
  6
CONTINUOUS
 62
    7
 10
616.46855802459208
 20
353.51794050877345
 11
633.54702299860855
 21
353.51794050877345
  0
LINE
  8
_0-1_DEFPOINTS
  6
CONTINUOUS
 62
    7
 10
555.23049474923494
 20
449.93033364448513
 11
554.7327131920913
 21
449.33484042474419
  0
LINE
  8
_0-1_DEFPOINTS
  6
CONTINUOUS
 62
    7
 10
554.7327131920913
 20
449.33484042474419
 11
554.2337904086445
 21
448.74164300528577
  0
LINE
  8
_0-1_DEFPOINTS
  6
CONTINUOUS
 62
    7
 10
554.2337904086445
 20
448.74164300528577
 11
553.73600885150097
 21
448.14845225966519
  0
LINE
  8
_0-1_DEFPOINTS
  6
CONTINUOUS
 62
    7
 10
553.73600885150097
 20
448.14845225966519
 11
553.23823396819535
 21
447.55526151404467
  0
LINE
  8
_0-1_DEFPOINTS
  6
CONTINUOUS
 62
    7
 10
537.77035965212076
 20
421.28228992912534
 11
537.69563936153691
 21
421.19721851575696
  0
LINE
  8
_0-1_DEFPOINTS
  6
CONTINUOUS
 62
    7
 10
537.69563936153691
 20
421.19721851575696
 11
537.62206029725598
 21
421.11444957650889
  0
LINE
  8
_0-1_DEFPOINTS
  6
CONTINUOUS
 62
    7
 10
537.62206029725598
 20
421.11444957650889
 11
537.54848790681331
 21
421.02937816314056
  0
LINE
  8
_0-1_DEFPOINTS
  6
CONTINUOUS
 62
    7
 10
537.54848790681331
 20
421.02937816314056
 11
537.47376094239144
 21
420.94430674977218
  0
LINE
  8
_0-1_DEFPOINTS
  6
CONTINUOUS
 62
    7
 10
545.10251173923791
 20
357.37599951402211
 11
550.18719547904846
 21
357.37599951402211
  0
LINE
  8
_0-1_DEFPOINTS
  6
CONTINUOUS
 62
    7
 10
550.18719547904846
 20
357.37599951402211
 11
555.27302711900006
 21
357.37599951402211
  0
LINE
  8
_0-1_DEFPOINTS
  6
CONTINUOUS
 62
    7
 10
555.27302711900006
 20
357.37599951402211
 11
560.35885875895178
 21
357.37599951402211
  0
LINE
  8
_0-1_DEFPOINTS
  6
CONTINUOUS
 62
    7
 10
560.35885875895178
 20
357.37599951402211
 11
565.44469039890328
 21
357.37599951402211
  0
LINE
  8
_0-1_DEFPOINTS
  6
CONTINUOUS
 62
    7
 10
564.42614926027886
 20
359.91891867091687
 11
559.84958485272045
 21
359.91891867091687
  0
LINE
  8
_0-1_DEFPOINTS
  6
CONTINUOUS
 62
    7
 10
559.84958485272045
 20
359.91891867091687
 11
555.27302711900006
 21
359.91891867091687
  0
LINE
  8
_0-1_DEFPOINTS
  6
CONTINUOUS
 62
    7
 10
555.27302711900006
 20
359.91891867091687
 11
550.69532148513861
 21
359.91891867091687
  0
LINE
  8
_0-1_DEFPOINTS
  6
CONTINUOUS
 62
    7
 10
550.69532148513861
 20
359.91891867091687
 11
546.11875707758009
 21
359.91891867091687
  0
LINE
  8
_0-1_DEFPOINTS
  6
CONTINUOUS
 62
    7
 10
553.23823396819535
 20
446.58269644560892
 11
553.02670667183452
 21
446.21252534543692
  0
LINE
  8
_0-1_DEFPOINTS
  6
CONTINUOUS
 62
    7
 10
553.02670667183452
 20
446.21252534543692
 11
552.81517937547369
 21
445.84005177114454
  0
LINE
  8
_0-1_DEFPOINTS
  6
CONTINUOUS
 62
    7
 10
552.81517937547369
 20
445.84005177114454
 11
552.60365207911275
 21
445.4698806709726
  0
LINE
  8
_0-1_DEFPOINTS
  6
CONTINUOUS
 62
    7
 10
552.60365207911275
 20
445.4698806709726
 11
552.39097688261086
 21
445.09970957080071
  0
LINE
  8
_0-1_DEFPOINTS
  6
CONTINUOUS
 62
    7
 10
531.75219951321606
 20
420.94430674977218
 11
531.75219951321606
 21
420.75347502514234
  0
LINE
  8
_0-1_DEFPOINTS
  6
CONTINUOUS
 62
    7
 10
531.75219951321606
 20
420.75347502514234
 11
531.75219951321606
 21
420.56263662667436
  0
LINE
  8
_0-1_DEFPOINTS
  6
CONTINUOUS
 62
    7
 10
531.75219951321606
 20
420.56263662667436
 11
531.75219951321606
 21
420.37180490204446
  0
LINE
  8
_0-1_DEFPOINTS
  6
CONTINUOUS
 62
    7
 10
531.75219951321606
 20
420.37180490204446
 11
531.75219951321606
 21
420.18097317741478
  0
LINE
  8
_0-1_DEFPOINTS
  6
CONTINUOUS
 62
    7
 10
532.13386963631376
 20
420.94430674977218
 11
532.13386963631376
 21
420.75347502514234
  0
LINE
  8
_0-1_DEFPOINTS
  6
CONTINUOUS
 62
    7
 10
532.13386963631376
 20
420.75347502514234
 11
532.13386963631376
 21
420.56263662667436
  0
LINE
  8
_0-1_DEFPOINTS
  6
CONTINUOUS
 62
    7
 10
532.13386963631376
 20
420.56263662667436
 11
532.13386963631376
 21
420.37180490204446
  0
LINE
  8
_0-1_DEFPOINTS
  6
CONTINUOUS
 62
    7
 10
532.13386963631376
 20
420.37180490204446
 11
532.13386963631376
 21
420.18097317741478
  0
LINE
  8
_0-1_DEFPOINTS
  6
CONTINUOUS
 62
    7
 10
532.43046834604297
 20
418.40138759287726
 11
532.43046834604297
 21
418.33701175123974
  0
LINE
  8
_0-1_DEFPOINTS
  6
CONTINUOUS
 62
    7
 10
532.43046834604297
 20
418.33701175123974
 11
532.43046834604297
 21
418.27493170988481
  0
LINE
  8
_0-1_DEFPOINTS
  6
CONTINUOUS
 62
    7
 10
532.43046834604297
 20
418.27493170988481
 11
532.43046834604297
 21
418.21285834236789
  0
LINE
  8
_0-1_DEFPOINTS
  6
CONTINUOUS
 62
    7
 10
532.43046834604297
 20
418.21285834236789
 11
532.43046834604297
 21
418.14847582689242
  0
LINE
  8
_0-1_DEFPOINTS
  6
CONTINUOUS
 62
    7
 10
533.78699266402077
 20
416.11138687580535
 11
533.78699266402077
 21
416.61951288189556
  0
LINE
  8
_0-1_DEFPOINTS
  6
CONTINUOUS
 62
    7
 10
533.78699266402077
 20
416.61951288189556
 11
533.78699266402077
 21
417.12763221414752
  0
LINE
  8
_0-1_DEFPOINTS
  6
CONTINUOUS
 62
    7
 10
533.78699266402077
 20
417.12763221414752
 11
533.78699266402077
 21
417.63805402052003
  0
LINE
  8
_0-1_DEFPOINTS
  6
CONTINUOUS
 62
    7
 10
533.78699266402077
 20
417.63805402052003
 11
533.78699266402077
 21
418.14618002661007
  0
LINE
  8
_0-1_DEFPOINTS
  6
CONTINUOUS
 62
    7
 10
565.44354249876221
 20
357.37599951402211
 11
564.90322857185345
 21
358.0105814031046
  0
LINE
  8
_0-1_DEFPOINTS
  6
CONTINUOUS
 62
    7
 10
564.90322857185345
 20
358.0105814031046
 11
564.3629213187827
 21
358.6474590924696
  0
LINE
  8
_0-1_DEFPOINTS
  6
CONTINUOUS
 62
    7
 10
564.3629213187827
 20
358.6474590924696
 11
563.82260739187382
 21
359.28433678183444
  0
LINE
  8
_0-1_DEFPOINTS
  6
CONTINUOUS
 62
    7
 10
563.82260739187382
 20
359.28433678183444
 11
563.28229346496505
 21
359.91891867091687
  0
LINE
  8
_0-1_DEFPOINTS
  6
CONTINUOUS
 62
    7
 10
545.10251173923791
 20
340.0837114433624
 11
545.10251173923791
 21
340.9643043499068
  0
LINE
  8
_0-1_DEFPOINTS
  6
CONTINUOUS
 62
    7
 10
545.10251173923791
 20
340.9643043499068
 11
545.10251173923791
 21
341.84260145616895
  0
LINE
  8
_0-1_DEFPOINTS
  6
CONTINUOUS
 62
    7
 10
545.10251173923791
 20
341.84260145616895
 11
545.10251173923791
 21
342.72089188859292
  0
LINE
  8
_0-1_DEFPOINTS
  6
CONTINUOUS
 62
    7
 10
545.10251173923791
 20
342.72089188859292
 11
545.10251173923791
 21
343.60148479513731
  0
LINE
  8
_0-1_DEFPOINTS
  6
CONTINUOUS
 62
    7
 10
545.10251173923791
 20
353.8996106318711
 11
545.10251173923791
 21
354.76870451548996
  0
LINE
  8
_0-1_DEFPOINTS
  6
CONTINUOUS
 62
    7
 10
545.10251173923791
 20
354.76870451548996
 11
545.10251173923791
 21
355.63780507294666
  0
LINE
  8
_0-1_DEFPOINTS
  6
CONTINUOUS
 62
    7
 10
545.10251173923791
 20
355.63780507294666
 11
545.10251173923791
 21
356.50689895656541
  0
LINE
  8
_0-1_DEFPOINTS
  6
CONTINUOUS
 62
    7
 10
545.10251173923791
 20
356.50689895656541
 11
545.10251173923791
 21
357.37599951402211
  0
LINE
  8
_0-1_DEFPOINTS
  6
CONTINUOUS
 62
    7
 10
570.44430272534544
 20
421.28228992912534
 11
570.36038588595625
 21
421.19721851575696
  0
LINE
  8
_0-1_DEFPOINTS
  6
CONTINUOUS
 62
    7
 10
570.36038588595625
 20
421.19721851575696
 11
570.27531447258775
 21
421.11444957650889
  0
LINE
  8
_0-1_DEFPOINTS
  6
CONTINUOUS
 62
    7
 10
570.27531447258775
 20
421.11444957650889
 11
570.19024305921937
 21
421.02937816314056
  0
LINE
  8
_0-1_DEFPOINTS
  6
CONTINUOUS
 62
    7
 10
570.19024305921937
 20
421.02937816314056
 11
570.10517164585099
 21
420.94430674977218
  0
LINE
  8
_0-1_DEFPOINTS
  6
CONTINUOUS
 62
    7
 10
551.79778613699034
 20
420.94430674977218
 11
551.79778613699034
 21
421.97205111103989
  0
LINE
  8
_0-1_DEFPOINTS
  6
CONTINUOUS
 62
    7
 10
551.79778613699034
 20
421.97205111103989
 11
551.79778613699034
 21
422.99979547230782
  0
LINE
  8
_0-1_DEFPOINTS
  6
CONTINUOUS
 62
    7
 10
551.79778613699034
 20
422.99979547230782
 11
551.79778613699034
 21
424.02753315973774
  0
LINE
  8
_0-1_DEFPOINTS
  6
CONTINUOUS
 62
    7
 10
551.79778613699034
 20
424.02753315973774
 11
551.79778613699034
 21
425.05527752100568
  0
LINE
  8
_0-1_DEFPOINTS
  6
CONTINUOUS
 62
    7
 10
551.92538992012385
 20
425.05527752100568
 11
551.92538992012385
 21
429.81232253040929
  0
LINE
  8
_0-1_DEFPOINTS
  6
CONTINUOUS
 62
    7
 10
551.92538992012385
 20
429.81232253040929
 11
551.92538992012385
 21
434.56937421365103
  0
LINE
  8
_0-1_DEFPOINTS
  6
CONTINUOUS
 62
    7
 10
551.92538992012385
 20
434.56937421365103
 11
551.92538992012385
 21
439.32641922305464
  0
LINE
  8
_0-1_DEFPOINTS
  6
CONTINUOUS
 62
    7
 10
551.92538992012385
 20
439.32641922305464
 11
551.92538992012385
 21
444.08346423245848
  0
LINE
  8
_0-1_DEFPOINTS
  6
CONTINUOUS
 62
    7
 10
553.23823396819535
 20
447.55526151404467
 11
553.23823396819535
 21
447.31154629686512
  0
LINE
  8
_0-1_DEFPOINTS
  6
CONTINUOUS
 62
    7
 10
553.23823396819535
 20
447.31154629686512
 11
553.23823396819535
 21
447.06783107968562
  0
LINE
  8
_0-1_DEFPOINTS
  6
CONTINUOUS
 62
    7
 10
553.23823396819535
 20
447.06783107968562
 11
553.23823396819535
 21
446.82411586250601
  0
LINE
  8
_0-1_DEFPOINTS
  6
CONTINUOUS
 62
    7
 10
553.23823396819535
 20
446.82411586250601
 11
553.23823396819535
 21
446.58269644560892
  0
LINE
  8
_0-1_DEFPOINTS
  6
CONTINUOUS
 62
    7
 10
555.06149982263923
 20
425.64847494046404
 11
555.06149982263923
 21
425.90138670644905
  0
LINE
  8
_0-1_DEFPOINTS
  6
CONTINUOUS
 62
    7
 10
555.06149982263923
 20
425.90138670644905
 11
555.06149982263923
 21
426.15659427271623
  0
LINE
  8
_0-1_DEFPOINTS
  6
CONTINUOUS
 62
    7
 10
555.06149982263923
 20
426.15659427271623
 11
555.06149982263923
 21
426.41180851282144
  0
LINE
  8
_0-1_DEFPOINTS
  6
CONTINUOUS
 62
    7
 10
555.06149982263923
 20
426.41180851282144
 11
555.06149982263923
 21
426.66472027880627
  0
LINE
  8
_0-1_DEFPOINTS
  6
CONTINUOUS
 62
    7
 10
555.23049474923494
 20
427.0463837280659
 11
555.23049474923494
 21
427.95686875514667
  0
LINE
  8
_0-1_DEFPOINTS
  6
CONTINUOUS
 62
    7
 10
555.23049474923494
 20
427.95686875514667
 11
555.23049474923494
 21
428.86735378222744
  0
LINE
  8
_0-1_DEFPOINTS
  6
CONTINUOUS
 62
    7
 10
555.23049474923494
 20
428.86735378222744
 11
555.23049474923494
 21
429.77783880930826
  0
LINE
  8
_0-1_DEFPOINTS
  6
CONTINUOUS
 62
    7
 10
555.23049474923494
 20
429.77783880930826
 11
555.23049474923494
 21
430.69061963667139
  0
LINE
  8
_0-1_DEFPOINTS
  6
CONTINUOUS
 62
    7
 10
555.44201537175763
 20
426.87624757516721
 11
555.44201537175763
 21
427.90398526259696
  0
LINE
  8
_0-1_DEFPOINTS
  6
CONTINUOUS
 62
    7
 10
555.44201537175763
 20
427.90398526259696
 11
555.44201537175763
 21
428.93172962386484
  0
LINE
  8
_0-1_DEFPOINTS
  6
CONTINUOUS
 62
    7
 10
555.44201537175763
 20
428.93172962386484
 11
555.44201537175763
 21
429.95947398513283
  0
LINE
  8
_0-1_DEFPOINTS
  6
CONTINUOUS
 62
    7
 10
555.44201537175763
 20
429.95947398513283
 11
555.44201537175763
 21
430.98721834640071
  0
LINE
  8
_0-1_DEFPOINTS
  6
CONTINUOUS
 62
    7
 10
556.24788798771829
 20
431.1136742293931
 11
556.24788798771829
 21
430.05374194730666
  0
LINE
  8
_0-1_DEFPOINTS
  6
CONTINUOUS
 62
    7
 10
556.24788798771829
 20
430.05374194730666
 11
556.24788798771829
 21
428.9961054655023
  0
LINE
  8
_0-1_DEFPOINTS
  6
CONTINUOUS
 62
    7
 10
556.24788798771829
 20
428.9961054655023
 11
556.24788798771829
 21
427.93617985725376
  0
LINE
  8
_0-1_DEFPOINTS
  6
CONTINUOUS
 62
    7
 10
556.24788798771829
 20
427.93617985725376
 11
556.24788798771829
 21
426.87624757516721
  0
LINE
  8
_0-1_DEFPOINTS
  6
CONTINUOUS
 62
    7
 10
556.45941528407911
 20
430.90214693303216
 11
556.45941528407911
 21
429.93877841340168
  0
LINE
  8
_0-1_DEFPOINTS
  6
CONTINUOUS
 62
    7
 10
556.45941528407911
 20
429.93877841340168
 11
556.45941528407911
 21
428.97311409348896
  0
LINE
  8
_0-1_DEFPOINTS
  6
CONTINUOUS
 62
    7
 10
556.45941528407911
 20
428.97311409348896
 11
556.45941528407911
 21
428.00975224769644
  0
LINE
  8
_0-1_DEFPOINTS
  6
CONTINUOUS
 62
    7
 10
556.45941528407911
 20
428.00975224769644
 11
556.45941528407911
 21
427.0463837280659
  0
LINE
  8
_0-1_DEFPOINTS
  6
CONTINUOUS
 62
    7
 10
557.26528790003965
 20
447.55526151404467
 11
557.26528790003965
 21
447.31154629686512
  0
LINE
  8
_0-1_DEFPOINTS
  6
CONTINUOUS
 62
    7
 10
557.26528790003965
 20
447.31154629686512
 11
557.26528790003965
 21
447.06783107968562
  0
LINE
  8
_0-1_DEFPOINTS
  6
CONTINUOUS
 62
    7
 10
557.26528790003965
 20
447.06783107968562
 11
557.26528790003965
 21
446.82411586250601
  0
LINE
  8
_0-1_DEFPOINTS
  6
CONTINUOUS
 62
    7
 10
557.26528790003965
 20
446.82411586250601
 11
557.26528790003965
 21
446.58269644560892
  0
LINE
  8
_0-1_DEFPOINTS
  6
CONTINUOUS
 62
    7
 10
558.57813194811104
 20
425.05527752100568
 11
558.57813194811104
 21
429.81232253040929
  0
LINE
  8
_0-1_DEFPOINTS
  6
CONTINUOUS
 62
    7
 10
558.57813194811104
 20
429.81232253040929
 11
558.57813194811104
 21
434.56937421365103
  0
LINE
  8
_0-1_DEFPOINTS
  6
CONTINUOUS
 62
    7
 10
558.57813194811104
 20
434.56937421365103
 11
558.57813194811104
 21
439.32641922305464
  0
LINE
  8
_0-1_DEFPOINTS
  6
CONTINUOUS
 62
    7
 10
558.57813194811104
 20
439.32641922305464
 11
558.57813194811104
 21
444.08346423245848
  0
LINE
  8
_0-1_DEFPOINTS
  6
CONTINUOUS
 62
    7
 10
558.70573573124466
 20
420.94430674977218
 11
558.70573573124466
 21
421.97205111103989
  0
LINE
  8
_0-1_DEFPOINTS
  6
CONTINUOUS
 62
    7
 10
558.70573573124466
 20
421.97205111103989
 11
558.70573573124466
 21
422.99979547230782
  0
LINE
  8
_0-1_DEFPOINTS
  6
CONTINUOUS
 62
    7
 10
558.70573573124466
 20
422.99979547230782
 11
558.70573573124466
 21
424.02753315973774
  0
LINE
  8
_0-1_DEFPOINTS
  6
CONTINUOUS
 62
    7
 10
558.70573573124466
 20
424.02753315973774
 11
558.70573573124466
 21
425.05527752100568
  0
LINE
  8
_0-1_DEFPOINTS
  6
CONTINUOUS
 62
    7
 10
565.44354249876221
 20
340.0837114433624
 11
565.44354249876221
 21
340.9643043499068
  0
LINE
  8
_0-1_DEFPOINTS
  6
CONTINUOUS
 62
    7
 10
565.44354249876221
 20
340.9643043499068
 11
565.44354249876221
 21
341.84260145616895
  0
LINE
  8
_0-1_DEFPOINTS
  6
CONTINUOUS
 62
    7
 10
565.44354249876221
 20
341.84260145616895
 11
565.44354249876221
 21
342.72089188859292
  0
LINE
  8
_0-1_DEFPOINTS
  6
CONTINUOUS
 62
    7
 10
565.44354249876221
 20
342.72089188859292
 11
565.44354249876221
 21
343.60148479513731
  0
LINE
  8
_0-1_DEFPOINTS
  6
CONTINUOUS
 62
    7
 10
565.44354249876221
 20
353.8996106318711
 11
565.44354249876221
 21
354.76870451548996
  0
LINE
  8
_0-1_DEFPOINTS
  6
CONTINUOUS
 62
    7
 10
565.44354249876221
 20
354.76870451548996
 11
565.44354249876221
 21
355.63780507294666
  0
LINE
  8
_0-1_DEFPOINTS
  6
CONTINUOUS
 62
    7
 10
565.44354249876221
 20
355.63780507294666
 11
565.44354249876221
 21
356.50689895656541
  0
LINE
  8
_0-1_DEFPOINTS
  6
CONTINUOUS
 62
    7
 10
565.44354249876221
 20
356.50689895656541
 11
565.44354249876221
 21
357.37599951402211
  0
LINE
  8
_0-1_DEFPOINTS
  6
CONTINUOUS
 62
    7
 10
540.05921246905143
 20
421.28228992912534
 11
540.14428388241993
 21
421.19721851575696
  0
LINE
  8
_0-1_DEFPOINTS
  6
CONTINUOUS
 62
    7
 10
540.14428388241993
 20
421.19721851575696
 11
540.22935529578831
 21
421.11444957650889
  0
LINE
  8
_0-1_DEFPOINTS
  6
CONTINUOUS
 62
    7
 10
540.22935529578831
 20
421.11444957650889
 11
540.31442670915669
 21
421.02937816314056
  0
LINE
  8
_0-1_DEFPOINTS
  6
CONTINUOUS
 62
    7
 10
540.31442670915669
 20
421.02937816314056
 11
540.39835022238401
 21
420.94430674977218
  0
LINE
  8
_0-1_DEFPOINTS
  6
CONTINUOUS
 62
    7
 10
576.75906157397935
 20
416.11138687580535
 11
576.75906157397935
 21
416.61951288189556
  0
LINE
  8
_0-1_DEFPOINTS
  6
CONTINUOUS
 62
    7
 10
576.75906157397935
 20
416.61951288189556
 11
576.75906157397935
 21
417.12763221414752
  0
LINE
  8
_0-1_DEFPOINTS
  6
CONTINUOUS
 62
    7
 10
576.75906157397935
 20
417.12763221414752
 11
576.75906157397935
 21
417.63805402052003
  0
LINE
  8
_0-1_DEFPOINTS
  6
CONTINUOUS
 62
    7
 10
576.75906157397935
 20
417.63805402052003
 11
576.75906157397935
 21
418.14618002661007
  0
LINE
  8
_0-1_DEFPOINTS
  6
CONTINUOUS
 62
    7
 10
545.10251173923791
 20
357.37599951402211
 11
545.63248121720017
 21
358.0105814031046
  0
LINE
  8
_0-1_DEFPOINTS
  6
CONTINUOUS
 62
    7
 10
545.63248121720017
 20
358.0105814031046
 11
546.16129612118334
 21
358.6474590924696
  0
LINE
  8
_0-1_DEFPOINTS
  6
CONTINUOUS
 62
    7
 10
546.16129612118334
 20
358.6474590924696
 11
546.69125892530769
 21
359.28433678183444
  0
LINE
  8
_0-1_DEFPOINTS
  6
CONTINUOUS
 62
    7
 10
546.69125892530769
 20
359.28433678183444
 11
547.22122840326983
 21
359.91891867091687
  0
LINE
  8
_0-1_DEFPOINTS
  6
CONTINUOUS
 62
    7
 10
578.07305352219191
 20
418.40138759287726
 11
578.07305352219191
 21
418.33701175123974
  0
LINE
  8
_0-1_DEFPOINTS
  6
CONTINUOUS
 62
    7
 10
578.07305352219191
 20
418.33701175123974
 11
578.07305352219191
 21
418.27493170988481
  0
LINE
  8
_0-1_DEFPOINTS
  6
CONTINUOUS
 62
    7
 10
578.07305352219191
 20
418.27493170988481
 11
578.07305352219191
 21
418.21285834236789
  0
LINE
  8
_0-1_DEFPOINTS
  6
CONTINUOUS
 62
    7
 10
578.07305352219191
 20
418.21285834236789
 11
578.07305352219191
 21
418.14847582689242
  0
LINE
  8
_0-1_DEFPOINTS
  6
CONTINUOUS
 62
    7
 10
578.36965223192112
 20
420.94430674977218
 11
578.36965223192112
 21
420.75347502514234
  0
LINE
  8
_0-1_DEFPOINTS
  6
CONTINUOUS
 62
    7
 10
578.36965223192112
 20
420.75347502514234
 11
578.36965223192112
 21
420.56263662667436
  0
LINE
  8
_0-1_DEFPOINTS
  6
CONTINUOUS
 62
    7
 10
578.36965223192112
 20
420.56263662667436
 11
578.36965223192112
 21
420.37180490204446
  0
LINE
  8
_0-1_DEFPOINTS
  6
CONTINUOUS
 62
    7
 10
578.36965223192112
 20
420.37180490204446
 11
578.36965223192112
 21
420.18097317741478
  0
LINE
  8
_0-1_DEFPOINTS
  6
CONTINUOUS
 62
    7
 10
578.75131568118081
 20
420.94430674977218
 11
578.75131568118081
 21
420.75347502514234
  0
LINE
  8
_0-1_DEFPOINTS
  6
CONTINUOUS
 62
    7
 10
578.75131568118081
 20
420.75347502514234
 11
578.75131568118081
 21
420.56263662667436
  0
LINE
  8
_0-1_DEFPOINTS
  6
CONTINUOUS
 62
    7
 10
578.75131568118081
 20
420.56263662667436
 11
578.75131568118081
 21
420.37180490204446
  0
LINE
  8
_0-1_DEFPOINTS
  6
CONTINUOUS
 62
    7
 10
578.75131568118081
 20
420.37180490204446
 11
578.75131568118081
 21
420.18097317741478
  0
LINE
  8
_0-1_DEFPOINTS
  6
CONTINUOUS
 62
    7
 10
576.75906157397935
 20
416.11138687580535
 11
566.01604434648971
 21
416.11138687580535
  0
LINE
  8
_0-1_DEFPOINTS
  6
CONTINUOUS
 62
    7
 10
566.01604434648971
 20
416.11138687580535
 11
555.27302711900006
 21
416.11138687580535
  0
LINE
  8
_0-1_DEFPOINTS
  6
CONTINUOUS
 62
    7
 10
555.27302711900006
 20
416.11138687580535
 11
544.53000989151042
 21
416.11138687580535
  0
LINE
  8
_0-1_DEFPOINTS
  6
CONTINUOUS
 62
    7
 10
544.53000989151042
 20
416.11138687580535
 11
533.78699266402077
 21
416.11138687580535
  0
LINE
  8
_0-1_DEFPOINTS
  6
CONTINUOUS
 62
    7
 10
578.07305352219191
 20
418.14618002661007
 11
566.66326648480106
 21
418.14618002661007
  0
LINE
  8
_0-1_DEFPOINTS
  6
CONTINUOUS
 62
    7
 10
566.66326648480106
 20
418.14618002661007
 11
555.25233154726902
 21
418.14618002661007
  0
LINE
  8
_0-1_DEFPOINTS
  6
CONTINUOUS
 62
    7
 10
555.25233154726902
 20
418.14618002661007
 11
543.841403283575
 21
418.14618002661007
  0
LINE
  8
_0-1_DEFPOINTS
  6
CONTINUOUS
 62
    7
 10
543.841403283575
 20
418.14618002661007
 11
532.43046834604297
 21
418.14618002661007
  0
LINE
  8
_0-1_DEFPOINTS
  6
CONTINUOUS
 62
    7
 10
578.07305352219191
 20
418.40138759287726
 11
566.66326648480106
 21
418.40138759287726
  0
LINE
  8
_0-1_DEFPOINTS
  6
CONTINUOUS
 62
    7
 10
566.66326648480106
 20
418.40138759287726
 11
555.25233154726902
 21
418.40138759287726
  0
LINE
  8
_0-1_DEFPOINTS
  6
CONTINUOUS
 62
    7
 10
555.25233154726902
 20
418.40138759287726
 11
543.841403283575
 21
418.40138759287726
  0
LINE
  8
_0-1_DEFPOINTS
  6
CONTINUOUS
 62
    7
 10
543.841403283575
 20
418.40138759287726
 11
532.43046834604297
 21
418.40138759287726
  0
LINE
  8
_0-1_DEFPOINTS
  6
CONTINUOUS
 62
    7
 10
531.75219951321606
 20
420.18097317741478
 11
543.50111763010136
 21
420.18097317741478
  0
LINE
  8
_0-1_DEFPOINTS
  6
CONTINUOUS
 62
    7
 10
543.50111763010136
 20
420.18097317741478
 11
555.25118364712785
 21
420.18097317741478
  0
LINE
  8
_0-1_DEFPOINTS
  6
CONTINUOUS
 62
    7
 10
555.25118364712785
 20
420.18097317741478
 11
567.00124966415433
 21
420.18097317741478
  0
LINE
  8
_0-1_DEFPOINTS
  6
CONTINUOUS
 62
    7
 10
567.00124966415433
 20
420.18097317741478
 11
578.75016778103964
 21
420.18097317741478
  0
LINE
  8
_0-1_DEFPOINTS
  6
CONTINUOUS
 62
    7
 10
557.26528790003965
 20
446.58269644560892
 11
557.47796309654166
 21
446.21252534543692
  0
LINE
  8
_0-1_DEFPOINTS
  6
CONTINUOUS
 62
    7
 10
557.47796309654166
 20
446.21252534543692
 11
557.68949039290237
 21
445.84005177114454
  0
LINE
  8
_0-1_DEFPOINTS
  6
CONTINUOUS
 62
    7
 10
557.68949039290237
 20
445.84005177114454
 11
557.9010110154253
 21
445.4698806709726
  0
LINE
  8
_0-1_DEFPOINTS
  6
CONTINUOUS
 62
    7
 10
557.9010110154253
 20
445.4698806709726
 11
558.11253831178612
 21
445.09970957080071
  0
LINE
  8
_0-1_DEFPOINTS
  6
CONTINUOUS
 62
    7
 10
531.75219951321606
 20
420.94430674977218
 11
543.50111763010136
 21
420.94430674977218
  0
LINE
  8
_0-1_DEFPOINTS
  6
CONTINUOUS
 62
    7
 10
543.50111763010136
 20
420.94430674977218
 11
555.25118364712785
 21
420.94430674977218
  0
LINE
  8
_0-1_DEFPOINTS
  6
CONTINUOUS
 62
    7
 10
555.25118364712785
 20
420.94430674977218
 11
567.00124966415433
 21
420.94430674977218
  0
LINE
  8
_0-1_DEFPOINTS
  6
CONTINUOUS
 62
    7
 10
567.00124966415433
 20
420.94430674977218
 11
578.75016778103964
 21
420.94430674977218
  0
LINE
  8
_0-1_DEFPOINTS
  6
CONTINUOUS
 62
    7
 10
572.73316221611424
 20
421.28228992912534
 11
572.16066036838674
 21
421.28228992912534
  0
LINE
  8
_0-1_DEFPOINTS
  6
CONTINUOUS
 62
    7
 10
572.16066036838674
 20
421.28228992912534
 11
571.58815852065925
 21
421.28228992912534
  0
LINE
  8
_0-1_DEFPOINTS
  6
CONTINUOUS
 62
    7
 10
571.58815852065925
 20
421.28228992912534
 11
571.01565667293175
 21
421.28228992912534
  0
LINE
  8
_0-1_DEFPOINTS
  6
CONTINUOUS
 62
    7
 10
571.01565667293175
 20
421.28228992912534
 11
570.44430272534544
 21
421.28228992912534
  0
LINE
  8
_0-1_DEFPOINTS
  6
CONTINUOUS
 62
    7
 10
540.05921246905143
 20
421.28228992912534
 11
539.48671062132394
 21
421.28228992912534
  0
LINE
  8
_0-1_DEFPOINTS
  6
CONTINUOUS
 62
    7
 10
539.48671062132394
 20
421.28228992912534
 11
538.91421544743457
 21
421.28228992912534
  0
LINE
  8
_0-1_DEFPOINTS
  6
CONTINUOUS
 62
    7
 10
538.91421544743457
 20
421.28228992912534
 11
538.34171359970708
 21
421.28228992912534
  0
LINE
  8
_0-1_DEFPOINTS
  6
CONTINUOUS
 62
    7
 10
538.34171359970708
 20
421.28228992912534
 11
537.77035965212076
 21
421.28228992912534
  0
LINE
  8
_0-1_DEFPOINTS
  6
CONTINUOUS
 62
    7
 10
553.87396375741901
 20
422.04332770120038
 11
554.56257703919255
 21
422.04332770120038
  0
LINE
  8
_0-1_DEFPOINTS
  6
CONTINUOUS
 62
    7
 10
554.56257703919255
 20
422.04332770120038
 11
555.25118364712785
 21
422.04332770120038
  0
LINE
  8
_0-1_DEFPOINTS
  6
CONTINUOUS
 62
    7
 10
555.25118364712785
 20
422.04332770120038
 11
555.93979692890127
 21
422.04332770120038
  0
LINE
  8
_0-1_DEFPOINTS
  6
CONTINUOUS
 62
    7
 10
555.93979692890127
 20
422.04332770120038
 11
556.62840353683669
 21
422.04332770120038
  0
LINE
  8
_0-1_DEFPOINTS
  6
CONTINUOUS
 62
    7
 10
551.79778613699034
 20
425.05527752100568
 11
551.82882615766789
 21
425.05527752100568
  0
LINE
  8
_0-1_DEFPOINTS
  6
CONTINUOUS
 62
    7
 10
551.82882615766789
 20
425.05527752100568
 11
551.86101407848651
 21
425.05527752100568
  0
LINE
  8
_0-1_DEFPOINTS
  6
CONTINUOUS
 62
    7
 10
551.86101407848651
 20
425.05527752100568
 11
551.89320199930523
 21
425.05527752100568
  0
LINE
  8
_0-1_DEFPOINTS
  6
CONTINUOUS
 62
    7
 10
551.89320199930523
 20
425.05527752100568
 11
551.92538992012385
 21
425.05527752100568
  0
LINE
  8
_0-1_DEFPOINTS
  6
CONTINUOUS
 62
    7
 10
558.57813194811104
 20
425.05527752100568
 11
558.60916529495057
 21
425.05527752100568
  0
LINE
  8
_0-1_DEFPOINTS
  6
CONTINUOUS
 62
    7
 10
558.60916529495057
 20
425.05527752100568
 11
558.6413598896072
 21
425.05527752100568
  0
LINE
  8
_0-1_DEFPOINTS
  6
CONTINUOUS
 62
    7
 10
558.6413598896072
 20
425.05527752100568
 11
558.67354781042593
 21
425.05527752100568
  0
LINE
  8
_0-1_DEFPOINTS
  6
CONTINUOUS
 62
    7
 10
558.67354781042593
 20
425.05527752100568
 11
558.70573573124466
 21
425.05527752100568
  0
LINE
  8
_0-1_DEFPOINTS
  6
CONTINUOUS
 62
    7
 10
553.02670667183452
 20
425.64847494046404
 11
554.13952244647078
 21
425.64847494046404
  0
LINE
  8
_0-1_DEFPOINTS
  6
CONTINUOUS
 62
    7
 10
554.13952244647078
 20
425.64847494046404
 11
555.25233154726902
 21
425.64847494046404
  0
LINE
  8
_0-1_DEFPOINTS
  6
CONTINUOUS
 62
    7
 10
555.25233154726902
 20
425.64847494046404
 11
556.3651473219054
 21
425.64847494046404
  0
LINE
  8
_0-1_DEFPOINTS
  6
CONTINUOUS
 62
    7
 10
556.3651473219054
 20
425.64847494046404
 11
557.47680852256246
 21
425.64847494046404
  0
LINE
  8
_0-1_DEFPOINTS
  6
CONTINUOUS
 62
    7
 10
553.87396375741901
 20
426.66472027880627
 11
554.56257703919255
 21
426.66472027880627
  0
LINE
  8
_0-1_DEFPOINTS
  6
CONTINUOUS
 62
    7
 10
554.56257703919255
 20
426.66472027880627
 11
555.25118364712785
 21
426.66472027880627
  0
LINE
  8
_0-1_DEFPOINTS
  6
CONTINUOUS
 62
    7
 10
555.25118364712785
 20
426.66472027880627
 11
555.93979692890127
 21
426.66472027880627
  0
LINE
  8
_0-1_DEFPOINTS
  6
CONTINUOUS
 62
    7
 10
555.93979692890127
 20
426.66472027880627
 11
556.62840353683669
 21
426.66472027880627
  0
LINE
  8
_0-1_DEFPOINTS
  6
CONTINUOUS
 62
    7
 10
555.44201537175763
 20
426.87624757516721
 11
555.64319821917206
 21
426.87624757516721
  0
LINE
  8
_0-1_DEFPOINTS
  6
CONTINUOUS
 62
    7
 10
555.64319821917206
 20
426.87624757516721
 11
555.84438106658638
 21
426.87624757516721
  0
LINE
  8
_0-1_DEFPOINTS
  6
CONTINUOUS
 62
    7
 10
555.84438106658638
 20
426.87624757516721
 11
556.04555724016268
 21
426.87624757516721
  0
LINE
  8
_0-1_DEFPOINTS
  6
CONTINUOUS
 62
    7
 10
556.04555724016268
 20
426.87624757516721
 11
556.24674008757711
 21
426.87624757516721
  0
LINE
  8
_0-1_DEFPOINTS
  6
CONTINUOUS
 62
    7
 10
572.73316221611424
 20
421.28228992912534
 11
572.80673460655703
 21
421.19721851575696
  0
LINE
  8
_0-1_DEFPOINTS
  6
CONTINUOUS
 62
    7
 10
572.80673460655703
 20
421.19721851575696
 11
572.88145489714088
 21
421.11444957650889
  0
LINE
  8
_0-1_DEFPOINTS
  6
CONTINUOUS
 62
    7
 10
572.88145489714088
 20
421.11444957650889
 11
572.95618186156275
 21
421.02937816314056
  0
LINE
  8
_0-1_DEFPOINTS
  6
CONTINUOUS
 62
    7
 10
572.95618186156275
 20
421.02937816314056
 11
573.02975425200543
 21
420.94430674977218
  0
LINE
  8
_0-1_DEFPOINTS
  6
CONTINUOUS
 62
    7
 10
555.44201537175763
 20
427.80972397426137
 11
555.64319821917206
 21
427.80972397426137
  0
LINE
  8
_0-1_DEFPOINTS
  6
CONTINUOUS
 62
    7
 10
555.64319821917206
 20
427.80972397426137
 11
555.84438106658638
 21
427.80972397426137
  0
LINE
  8
_0-1_DEFPOINTS
  6
CONTINUOUS
 62
    7
 10
555.84438106658638
 20
427.80972397426137
 11
556.04555724016268
 21
427.80972397426137
  0
LINE
  8
_0-1_DEFPOINTS
  6
CONTINUOUS
 62
    7
 10
556.04555724016268
 20
427.80972397426137
 11
556.24674008757711
 21
427.80972397426137
  0
LINE
  8
_0-1_DEFPOINTS
  6
CONTINUOUS
 62
    7
 10
553.02670667183452
 20
430.26526924366738
 11
553.5773650476898
 21
430.26526924366738
  0
LINE
  8
_0-1_DEFPOINTS
  6
CONTINUOUS
 62
    7
 10
553.5773650476898
 20
430.26526924366738
 11
554.12802342354507
 21
430.26526924366738
  0
LINE
  8
_0-1_DEFPOINTS
  6
CONTINUOUS
 62
    7
 10
554.12802342354507
 20
430.26526924366738
 11
554.67983637337954
 21
430.26526924366738
  0
LINE
  8
_0-1_DEFPOINTS
  6
CONTINUOUS
 62
    7
 10
554.67983637337954
 20
430.26526924366738
 11
555.23049474923494
 21
430.26526924366738
  0
LINE
  8
_0-1_DEFPOINTS
  6
CONTINUOUS
 62
    7
 10
556.45941528407911
 20
430.26526924366738
 11
556.71347495020518
 21
430.26526924366738
  0
LINE
  8
_0-1_DEFPOINTS
  6
CONTINUOUS
 62
    7
 10
556.71347495020518
 20
430.26526924366738
 11
556.96754129016915
 21
430.26526924366738
  0
LINE
  8
_0-1_DEFPOINTS
  6
CONTINUOUS
 62
    7
 10
556.96754129016915
 20
430.26526924366738
 11
557.2227488564364
 21
430.26526924366738
  0
LINE
  8
_0-1_DEFPOINTS
  6
CONTINUOUS
 62
    7
 10
557.2227488564364
 20
430.26526924366738
 11
557.47680852256246
 21
430.26526924366738
  0
LINE
  8
_0-1_DEFPOINTS
  6
CONTINUOUS
 62
    7
 10
553.87396375741901
 20
431.28381038229179
 11
554.56257703919255
 21
431.28381038229179
  0
LINE
  8
_0-1_DEFPOINTS
  6
CONTINUOUS
 62
    7
 10
554.56257703919255
 20
431.28381038229179
 11
555.25118364712785
 21
431.28381038229179
  0
LINE
  8
_0-1_DEFPOINTS
  6
CONTINUOUS
 62
    7
 10
555.25118364712785
 20
431.28381038229179
 11
555.93979692890127
 21
431.28381038229179
  0
LINE
  8
_0-1_DEFPOINTS
  6
CONTINUOUS
 62
    7
 10
555.93979692890127
 20
431.28381038229179
 11
556.62840353683669
 21
431.28381038229179
  0
LINE
  8
_0-1_DEFPOINTS
  6
CONTINUOUS
 62
    7
 10
555.23049474923494
 20
449.93033364448513
 11
555.73976198162813
 21
449.33484042474419
  0
LINE
  8
_0-1_DEFPOINTS
  6
CONTINUOUS
 62
    7
 10
555.73976198162813
 20
449.33484042474419
 11
556.24788798771829
 21
448.74164300528577
  0
LINE
  8
_0-1_DEFPOINTS
  6
CONTINUOUS
 62
    7
 10
556.24788798771829
 20
448.74164300528577
 11
556.75601399380832
 21
448.14845225966519
  0
LINE
  8
_0-1_DEFPOINTS
  6
CONTINUOUS
 62
    7
 10
556.75601399380832
 20
448.14845225966519
 11
557.26413332606046
 21
447.55526151404467
  0
LINE
  8
_0-1_DEFPOINTS
  6
CONTINUOUS
 62
    7
 10
553.02670667183452
 20
434.88666182127326
 11
554.13952244647078
 21
434.88666182127326
  0
LINE
  8
_0-1_DEFPOINTS
  6
CONTINUOUS
 62
    7
 10
554.13952244647078
 20
434.88666182127326
 11
555.25233154726902
 21
434.88666182127326
  0
LINE
  8
_0-1_DEFPOINTS
  6
CONTINUOUS
 62
    7
 10
555.25233154726902
 20
434.88666182127326
 11
556.3651473219054
 21
434.88666182127326
  0
LINE
  8
_0-1_DEFPOINTS
  6
CONTINUOUS
 62
    7
 10
556.3651473219054
 20
434.88666182127326
 11
557.47680852256246
 21
434.88666182127326
  0
LINE
  8
_0-1_DEFPOINTS
  6
CONTINUOUS
 62
    7
 10
553.87396375741901
 20
435.86152268999143
 11
554.56257703919255
 21
435.86152268999143
  0
LINE
  8
_0-1_DEFPOINTS
  6
CONTINUOUS
 62
    7
 10
554.56257703919255
 20
435.86152268999143
 11
555.25118364712785
 21
435.86152268999143
  0
LINE
  8
_0-1_DEFPOINTS
  6
CONTINUOUS
 62
    7
 10
555.25118364712785
 20
435.86152268999143
 11
555.93979692890127
 21
435.86152268999143
  0
LINE
  8
_0-1_DEFPOINTS
  6
CONTINUOUS
 62
    7
 10
555.93979692890127
 20
435.86152268999143
 11
556.62840353683669
 21
435.86152268999143
  0
LINE
  8
_0-1_DEFPOINTS
  6
CONTINUOUS
 62
    7
 10
553.02670667183452
 20
439.46207165485248
 11
554.13952244647078
 21
439.46207165485248
  0
LINE
  8
_0-1_DEFPOINTS
  6
CONTINUOUS
 62
    7
 10
554.13952244647078
 20
439.46207165485248
 11
555.25233154726902
 21
439.46207165485248
  0
LINE
  8
_0-1_DEFPOINTS
  6
CONTINUOUS
 62
    7
 10
555.25233154726902
 20
439.46207165485248
 11
556.3651473219054
 21
439.46207165485248
  0
LINE
  8
_0-1_DEFPOINTS
  6
CONTINUOUS
 62
    7
 10
556.3651473219054
 20
439.46207165485248
 11
557.47680852256246
 21
439.46207165485248
  0
LINE
  8
_0-1_DEFPOINTS
  6
CONTINUOUS
 62
    7
 10
553.87396375741901
 20
440.47831699319477
 11
554.56257703919255
 21
440.47831699319477
  0
LINE
  8
_0-1_DEFPOINTS
  6
CONTINUOUS
 62
    7
 10
554.56257703919255
 20
440.47831699319477
 11
555.25118364712785
 21
440.47831699319477
  0
LINE
  8
_0-1_DEFPOINTS
  6
CONTINUOUS
 62
    7
 10
555.25118364712785
 20
440.47831699319477
 11
555.93979692890127
 21
440.47831699319477
  0
LINE
  8
_0-1_DEFPOINTS
  6
CONTINUOUS
 62
    7
 10
555.93979692890127
 20
440.47831699319477
 11
556.62840353683669
 21
440.47831699319477
  0
LINE
  8
_0-1_DEFPOINTS
  6
CONTINUOUS
 62
    7
 10
551.92538992012385
 20
444.08346423245848
 11
553.5888640706155
 21
444.08346423245848
  0
LINE
  8
_0-1_DEFPOINTS
  6
CONTINUOUS
 62
    7
 10
553.5888640706155
 20
444.08346423245848
 11
555.25233154726902
 21
444.08346423245848
  0
LINE
  8
_0-1_DEFPOINTS
  6
CONTINUOUS
 62
    7
 10
555.25233154726902
 20
444.08346423245848
 11
556.91580569776067
 21
444.08346423245848
  0
LINE
  8
_0-1_DEFPOINTS
  6
CONTINUOUS
 62
    7
 10
556.91580569776067
 20
444.08346423245848
 11
558.57927984825221
 21
444.08346423245848
  0
LINE
  8
_0-1_DEFPOINTS
  6
CONTINUOUS
 62
    7
 10
558.11253831178612
 20
445.09970957080071
 11
558.0803503909674
 21
445.09970957080071
  0
LINE
  8
_0-1_DEFPOINTS
  6
CONTINUOUS
 62
    7
 10
558.0803503909674
 20
445.09970957080071
 11
558.04816247014878
 21
445.09970957080071
  0
LINE
  8
_0-1_DEFPOINTS
  6
CONTINUOUS
 62
    7
 10
558.04816247014878
 20
445.09970957080071
 11
558.01597454933005
 21
445.09970957080071
  0
LINE
  8
_0-1_DEFPOINTS
  6
CONTINUOUS
 62
    7
 10
558.01597454933005
 20
445.09970957080071
 11
557.9849345286525
 21
445.09970957080071
  0
LINE
  8
_0-1_DEFPOINTS
  6
CONTINUOUS
 62
    7
 10
552.51858733958238
 20
445.09970957080071
 11
552.48639274492564
 21
445.09970957080071
  0
LINE
  8
_0-1_DEFPOINTS
  6
CONTINUOUS
 62
    7
 10
552.48639274492564
 20
445.09970957080071
 11
552.45420482410702
 21
445.09970957080071
  0
LINE
  8
_0-1_DEFPOINTS
  6
CONTINUOUS
 62
    7
 10
552.45420482410702
 20
445.09970957080071
 11
552.42201690328829
 21
445.09970957080071
  0
LINE
  8
_0-1_DEFPOINTS
  6
CONTINUOUS
 62
    7
 10
552.42201690328829
 20
445.09970957080071
 11
552.39097688261086
 21
445.09970957080071
  0
LINE
  8
_0-1_DEFPOINTS
  6
CONTINUOUS
 62
    7
 10
553.23823396819535
 20
447.55526151404467
 11
554.24528275773218
 21
447.55526151404467
  0
LINE
  8
_0-1_DEFPOINTS
  6
CONTINUOUS
 62
    7
 10
554.24528275773218
 20
447.55526151404467
 11
555.25118364712785
 21
447.55526151404467
  0
LINE
  8
_0-1_DEFPOINTS
  6
CONTINUOUS
 62
    7
 10
555.25118364712785
 20
447.55526151404467
 11
556.25708453652351
 21
447.55526151404467
  0
LINE
  8
_0-1_DEFPOINTS
  6
CONTINUOUS
 62
    7
 10
556.25708453652351
 20
447.55526151404467
 11
557.26413332606046
 21
447.55526151404467
  0
LINE
  8
_0-1_DEFPOINTS
  6
CONTINUOUS
 62
    7
 10
556.75601399380832
 20
448.14845225966519
 11
556.00417277053873
 21
448.14845225966519
  0
LINE
  8
_0-1_DEFPOINTS
  6
CONTINUOUS
 62
    7
 10
556.00417277053873
 20
448.14845225966519
 11
555.25233154726902
 21
448.14845225966519
  0
LINE
  8
_0-1_DEFPOINTS
  6
CONTINUOUS
 62
    7
 10
555.25233154726902
 20
448.14845225966519
 11
554.50049699783744
 21
448.14845225966519
  0
LINE
  8
_0-1_DEFPOINTS
  6
CONTINUOUS
 62
    7
 10
554.50049699783744
 20
448.14845225966519
 11
553.74750787442667
 21
448.14845225966519
  0
LINE
  8
_0-1_DEFPOINTS
  6
CONTINUOUS
 62
    7
 10
480.87893371651234
 20
353.49954741116272
 11
479.88682765032468
 21
353.48575258795483
  0
LINE
  8
_0-1_DEFPOINTS
  6
CONTINUOUS
 62
    7
 10
479.88682765032468
 20
353.48575258795483
 11
478.92805740509687
 21
353.26962701719128
  0
LINE
  8
_0-1_DEFPOINTS
  6
CONTINUOUS
 62
    7
 10
478.92805740509687
 20
353.26962701719128
 11
478.03482424932355
 21
352.86036724767769
  0
LINE
  8
_0-1_DEFPOINTS
  6
CONTINUOUS
 62
    7
 10
478.03482424932355
 20
352.86036724767769
 11
477.23700028202728
 21
352.27177477645972
  0
LINE
  8
_0-1_DEFPOINTS
  6
CONTINUOUS
 62
    7
 10
477.23700028202728
 20
352.27177477645972
 11
476.57827912079028
 21
351.52683430171322
  0
LINE
  8
_0-1_DEFPOINTS
  6
CONTINUOUS
 62
    7
 10
476.57827912079028
 20
351.52683430171322
 11
476.09084868643117
 21
350.67152856746441
  0
LINE
  8
_0-1_DEFPOINTS
  6
CONTINUOUS
 62
    7
 10
476.09084868643117
 20
350.67152856746441
 11
475.78850380215806
 21
349.73805216837025
  0
LINE
  8
_0-1_DEFPOINTS
  6
CONTINUOUS
 62
    7
 10
475.78850380215806
 20
349.73805216837025
 11
475.68503929117895
 21
348.74939647644419
  0
LINE
  8
_0-1_DEFPOINTS
  6
CONTINUOUS
 62
    7
 10
638.33165765442823
 20
348.56316302621701
 11
638.27188008719349
 21
349.52192659760669
  0
LINE
  8
_0-1_DEFPOINTS
  6
CONTINUOUS
 62
    7
 10
638.27188008719349
 20
349.52192659760669
 11
638.02356659561133
 21
350.44391064761317
  0
LINE
  8
_0-1_DEFPOINTS
  6
CONTINUOUS
 62
    7
 10
638.02356659561133
 20
350.44391064761317
 11
637.59821620260732
 21
351.29691390774155
  0
LINE
  8
_0-1_DEFPOINTS
  6
CONTINUOUS
 62
    7
 10
637.59821620260732
 20
351.29691390774155
 11
637.00501878314878
 21
352.05564920569611
  0
LINE
  8
_0-1_DEFPOINTS
  6
CONTINUOUS
 62
    7
 10
637.00501878314878
 20
352.05564920569611
 11
636.27157733132788
 21
352.67873207185312
  0
LINE
  8
_0-1_DEFPOINTS
  6
CONTINUOUS
 62
    7
 10
636.27157733132788
 20
352.67873207185312
 11
635.43466469468979
 21
353.1362703856758
  0
LINE
  8
_0-1_DEFPOINTS
  6
CONTINUOUS
 62
    7
 10
635.43466469468979
 20
353.1362703856758
 11
634.52648214172939
 21
353.42137674631743
  0
LINE
  8
_0-1_DEFPOINTS
  6
CONTINUOUS
 62
    7
 10
634.52648214172939
 20
353.42137674631743
 11
633.57001437062195
 21
353.51794050877345
  0
LINE
  8
_0-1_DEFPOINTS
  6
CONTINUOUS
 62
    7
 10
576.76940602292586
 20
416.16196789423464
 11
571.69162303163841
 21
402.60357874611361
  0
LINE
  8
_0-1_DEFPOINTS
  6
CONTINUOUS
 62
    7
 10
571.69162303163841
 20
402.60357874611361
 11
567.93012778884577
 21
388.65662540020963
  0
LINE
  8
_0-1_DEFPOINTS
  6
CONTINUOUS
 62
    7
 10
567.93012778884577
 20
388.65662540020963
 11
565.5056225401172
 21
374.4176782928173
  0
LINE
  8
_0-1_DEFPOINTS
  6
CONTINUOUS
 62
    7
 10
565.5056225401172
 20
374.4176782928173
 11
564.43764160936655
 21
359.97639376403123
  0
LINE
  8
_0-1_DEFPOINTS
  6
CONTINUOUS
 62
    7
 10
546.10841262863357
 20
359.99249106135977
 11
545.03698799745939
 21
374.43147311602513
  0
LINE
  8
_0-1_DEFPOINTS
  6
CONTINUOUS
 62
    7
 10
545.03698799745939
 20
374.43147311602513
 11
542.61132817475163
 21
388.67042689725571
  0
LINE
  8
_0-1_DEFPOINTS
  6
CONTINUOUS
 62
    7
 10
542.61132817475163
 20
388.67042689725571
 11
538.84868503181792
 21
402.61737356932144
  0
LINE
  8
_0-1_DEFPOINTS
  6
CONTINUOUS
 62
    7
 10
538.84868503181792
 20
402.61737356932144
 11
533.77090204053047
 21
416.17576271744269
  0
LINE
  8
_0-1_DEFPOINTS
  6
CONTINUOUS
 62
    7
 10
558.59882084600406
 20
444.12025042767988
 11
558.44822569085716
 21
444.37086639338224
  0
LINE
  8
_0-1_DEFPOINTS
  6
CONTINUOUS
 62
    7
 10
558.44822569085716
 20
444.37086639338224
 11
558.29877843585132
 21
444.62147568524688
  0
LINE
  8
_0-1_DEFPOINTS
  6
CONTINUOUS
 62
    7
 10
558.29877843585132
 20
444.62147568524688
 11
558.14702870672511
 21
444.86978917682904
  0
LINE
  8
_0-1_DEFPOINTS
  6
CONTINUOUS
 62
    7
 10
558.14702870672511
 20
444.86978917682904
 11
557.99643355157821
 21
445.11810266841138
  0
LINE
  8
_0-1_DEFPOINTS
  6
CONTINUOUS
 62
    7
 10
552.54272661173695
 20
445.10430784520332
 11
552.39213145659005
 21
444.8559943536211
  0
LINE
  8
_0-1_DEFPOINTS
  6
CONTINUOUS
 62
    7
 10
552.39213145659005
 20
444.8559943536211
 11
552.24038172746384
 21
444.60768086203899
  0
LINE
  8
_0-1_DEFPOINTS
  6
CONTINUOUS
 62
    7
 10
552.24038172746384
 20
444.60768086203899
 11
552.090934472458
 21
444.3593673704566
  0
LINE
  8
_0-1_DEFPOINTS
  6
CONTINUOUS
 62
    7
 10
552.090934472458
 20
444.3593673704566
 11
551.94033264347308
 21
444.11105387887449
  0
LINE
  8
_0-1_DEFPOINTS
  6
CONTINUOUS
 62
    7
 10
564.21462196391803
 20
348.77698612286008
 11
564.21346738993884
 21
349.1724510691659
  0
LINE
  8
_0-1_DEFPOINTS
  6
CONTINUOUS
 62
    7
 10
564.21346738993884
 20
349.1724510691659
 11
564.20886911553612
 21
349.56561354135118
  0
LINE
  8
_0-1_DEFPOINTS
  6
CONTINUOUS
 62
    7
 10
564.20886911553612
 20
349.56561354135118
 11
564.20197504085115
 21
349.95877601353646
  0
LINE
  8
_0-1_DEFPOINTS
  6
CONTINUOUS
 62
    7
 10
564.20197504085115
 20
349.95877601353646
 11
564.19163059190464
 21
350.3519384857218
  0
LINE
  8
_0-1_DEFPOINTS
  6
CONTINUOUS
 62
    7
 10
564.19163059190464
 20
347.1905414109109
 11
564.20197504085115
 21
347.58370388309618
  0
LINE
  8
_0-1_DEFPOINTS
  6
CONTINUOUS
 62
    7
 10
564.20197504085115
 20
347.58370388309618
 11
564.20886911553612
 21
347.97686635528152
  0
LINE
  8
_0-1_DEFPOINTS
  6
CONTINUOUS
 62
    7
 10
564.20886911553612
 20
347.97686635528152
 11
564.21346738993884
 21
348.37002882746674
  0
LINE
  8
_0-1_DEFPOINTS
  6
CONTINUOUS
 62
    7
 10
564.21346738993884
 20
348.37002882746674
 11
564.21462196391803
 21
348.76549377377245
  0
LINE
  8
_0-1_DEFPOINTS
  6
CONTINUOUS
 62
    7
 10
564.12955055054954
 20
348.79308342018845
 11
564.12840265040836
 21
349.0804855811125
  0
LINE
  8
_0-1_DEFPOINTS
  6
CONTINUOUS
 62
    7
 10
564.12840265040836
 20
349.0804855811125
 11
564.12610017628811
 21
349.37018354231873
  0
LINE
  8
_0-1_DEFPOINTS
  6
CONTINUOUS
 62
    7
 10
564.12610017628811
 20
349.37018354231873
 11
564.12150190188538
 21
349.65757902940453
  0
LINE
  8
_0-1_DEFPOINTS
  6
CONTINUOUS
 62
    7
 10
564.12150190188538
 20
349.65757902940453
 11
564.11575572734159
 21
349.94498119032841
  0
LINE
  8
_0-1_DEFPOINTS
  6
CONTINUOUS
 62
    7
 10
564.11460782720042
 20
347.60899105539175
 11
564.1203540017442
 21
347.89869569043606
  0
LINE
  8
_0-1_DEFPOINTS
  6
CONTINUOUS
 62
    7
 10
564.1203540017442
 20
347.89869569043606
 11
564.12610017628811
 21
348.18609117752203
  0
LINE
  8
_0-1_DEFPOINTS
  6
CONTINUOUS
 62
    7
 10
564.12610017628811
 20
348.18609117752203
 11
564.12840265040836
 21
348.47349333844585
  0
LINE
  8
_0-1_DEFPOINTS
  6
CONTINUOUS
 62
    7
 10
564.12840265040836
 20
348.47349333844585
 11
564.12840265040836
 21
348.76319129965214
  0
LINE
  8
_0-1_DEFPOINTS
  6
CONTINUOUS
 62
    7
 10
545.13469966005664
 20
340.10670281537568
 11
550.04579687270689
 21
337.83279272179414
  0
LINE
  8
_0-1_DEFPOINTS
  6
CONTINUOUS
 62
    7
 10
550.04579687270689
 20
337.83279272179414
 11
555.29487059087228
 21
337.07405742383946
  0
LINE
  8
_0-1_DEFPOINTS
  6
CONTINUOUS
 62
    7
 10
555.29487059087228
 20
337.07405742383946
 11
560.54394430903767
 21
337.83279272179414
  0
LINE
  8
_0-1_DEFPOINTS
  6
CONTINUOUS
 62
    7
 10
560.54394430903767
 20
337.83279272179414
 11
565.45273904756766
 21
340.10670281537568
  0
LINE
  8
_0-1_DEFPOINTS
  6
CONTINUOUS
 62
    7
 10
564.04907741158388
 20
348.99311169362369
 11
564.04677493746351
 21
348.86436001034895
  0
LINE
  8
_0-1_DEFPOINTS
  6
CONTINUOUS
 62
    7
 10
564.04677493746351
 20
348.86436001034895
 11
564.04562703732245
 21
348.73560165323613
  0
LINE
  8
_0-1_DEFPOINTS
  6
CONTINUOUS
 62
    7
 10
564.04562703732245
 20
348.73560165323613
 11
564.04677493746351
 21
348.60684996996127
  0
LINE
  8
_0-1_DEFPOINTS
  6
CONTINUOUS
 62
    7
 10
564.04677493746351
 20
348.60684996996127
 11
564.04907741158388
 21
348.4780916128484
  0
LINE
  8
_0-1_DEFPOINTS
  6
CONTINUOUS
 62
    7
 10
578.08915081952034
 20
418.40598586727987
 11
578.22940152572085
 21
418.84513775733006
  0
LINE
  8
_0-1_DEFPOINTS
  6
CONTINUOUS
 62
    7
 10
578.22940152572085
 20
418.84513775733006
 11
578.33056356257953
 21
419.29118372206506
  0
LINE
  8
_0-1_DEFPOINTS
  6
CONTINUOUS
 62
    7
 10
578.33056356257953
 20
419.29118372206506
 11
578.39149570379345
 21
419.74642623560544
  0
LINE
  8
_0-1_DEFPOINTS
  6
CONTINUOUS
 62
    7
 10
578.39149570379345
 20
419.74642623560544
 11
578.41218460168636
 21
420.20396454942812
  0
LINE
  8
_0-1_DEFPOINTS
  6
CONTINUOUS
 62
    7
 10
532.13386963631376
 20
420.20396454942812
 11
532.1545652080448
 21
419.74642623560544
  0
LINE
  8
_0-1_DEFPOINTS
  6
CONTINUOUS
 62
    7
 10
532.1545652080448
 20
419.74642623560544
 11
532.21434277527942
 21
419.29118372206506
  0
LINE
  8
_0-1_DEFPOINTS
  6
CONTINUOUS
 62
    7
 10
532.21434277527942
 20
419.29118372206506
 11
532.31550481213822
 21
418.84283528320964
  0
LINE
  8
_0-1_DEFPOINTS
  6
CONTINUOUS
 62
    7
 10
532.31550481213822
 20
418.84283528320964
 11
532.45691009231791
 21
418.40598586727987
  0
LINE
  8
_0-1_DEFPOINTS
  6
CONTINUOUS
 62
    7
 10
578.44437252250498
 20
418.41059081552078
 11
578.59612225163119
 21
418.84513775733006
  0
LINE
  8
_0-1_DEFPOINTS
  6
CONTINUOUS
 62
    7
 10
578.59612225163119
 20
418.84513775733006
 11
578.70533293715414
 21
419.28888124794469
  0
LINE
  8
_0-1_DEFPOINTS
  6
CONTINUOUS
 62
    7
 10
578.70533293715414
 20
419.28888124794469
 11
578.77086335277068
 21
419.74412376148513
  0
LINE
  8
_0-1_DEFPOINTS
  6
CONTINUOUS
 62
    7
 10
578.77086335277068
 20
419.74412376148513
 11
578.79270015080488
 21
420.20166207530787
  0
LINE
  8
_0-1_DEFPOINTS
  6
CONTINUOUS
 62
    7
 10
531.75219951321606
 20
420.20166207530787
 11
531.77404298508827
 21
419.74412376148513
  0
LINE
  8
_0-1_DEFPOINTS
  6
CONTINUOUS
 62
    7
 10
531.77404298508827
 20
419.74412376148513
 11
531.84072130084598
 21
419.28888124794469
  0
LINE
  8
_0-1_DEFPOINTS
  6
CONTINUOUS
 62
    7
 10
531.84072130084598
 20
419.28888124794469
 11
531.94993198636882
 21
418.84513775733006
  0
LINE
  8
_0-1_DEFPOINTS
  6
CONTINUOUS
 62
    7
 10
531.94993198636882
 20
418.84513775733006
 11
532.10053381535386
 21
418.41059081552078
  0
LINE
  8
_0-1_DEFPOINTS
  6
CONTINUOUS
 62
    7
 10
633.15386052642327
 20
344.00154801584563
 11
634.14251621834944
 21
344.01764531317411
  0
LINE
  8
_0-1_DEFPOINTS
  6
CONTINUOUS
 62
    7
 10
634.14251621834944
 20
344.01764531317411
 11
635.09898398945688
 21
344.23606668421996
  0
LINE
  8
_0-1_DEFPOINTS
  6
CONTINUOUS
 62
    7
 10
635.09898398945688
 20
344.23606668421996
 11
635.99107591892698
 21
344.64762225401591
  0
LINE
  8
_0-1_DEFPOINTS
  6
CONTINUOUS
 62
    7
 10
635.99107591892698
 20
344.64762225401591
 11
636.78659741210299
 21
345.23622139907189
  0
LINE
  8
_0-1_DEFPOINTS
  6
CONTINUOUS
 62
    7
 10
636.78659741210299
 20
345.23622139907189
 11
637.44646647348122
 21
345.97656359941584
  0
LINE
  8
_0-1_DEFPOINTS
  6
CONTINUOUS
 62
    7
 10
637.44646647348122
 20
345.97656359941584
 11
637.93160110755798
 21
346.82956685954423
  0
LINE
  8
_0-1_DEFPOINTS
  6
CONTINUOUS
 62
    7
 10
637.93160110755798
 20
346.82956685954423
 11
638.23279809168992
 21
347.76533905892052
  0
LINE
  8
_0-1_DEFPOINTS
  6
CONTINUOUS
 62
    7
 10
638.23279809168992
 20
347.76533905892052
 11
638.33626260266897
 21
348.74939647644419
  0
LINE
  8
_0-1_DEFPOINTS
  6
CONTINUOUS
 62
    7
 10
475.68503929117895
 20
348.74939647644419
 11
475.78850380215806
 21
347.76533905892052
  0
LINE
  8
_0-1_DEFPOINTS
  6
CONTINUOUS
 62
    7
 10
475.78850380215806
 20
347.76533905892052
 11
476.0885462123108
 21
346.83186265982641
  0
LINE
  8
_0-1_DEFPOINTS
  6
CONTINUOUS
 62
    7
 10
476.0885462123108
 20
346.83186265982641
 11
476.57368084638756
 21
345.97885939969797
  0
LINE
  8
_0-1_DEFPOINTS
  6
CONTINUOUS
 62
    7
 10
476.57368084638756
 20
345.97885939969797
 11
477.23240200762461
 21
345.23622139907189
  0
LINE
  8
_0-1_DEFPOINTS
  6
CONTINUOUS
 62
    7
 10
477.23240200762461
 20
345.23622139907189
 11
478.02907140094169
 21
344.64532645373356
  0
LINE
  8
_0-1_DEFPOINTS
  6
CONTINUOUS
 62
    7
 10
478.02907140094169
 20
344.64532645373356
 11
478.92116333041196
 21
344.23606668421996
  0
LINE
  8
_0-1_DEFPOINTS
  6
CONTINUOUS
 62
    7
 10
478.92116333041196
 20
344.23606668421996
 11
479.8776311015194
 21
344.01764531317411
  0
LINE
  8
_0-1_DEFPOINTS
  6
CONTINUOUS
 62
    7
 10
479.8776311015194
 20
344.01764531317411
 11
480.869737167707
 21
343.99924554172543
  0
LINE
  8
_0-1_DEFPOINTS
  6
CONTINUOUS
 62
    7
 10
578.09374909392295
 20
418.1898669703545
 11
578.20065730532542
 21
418.20595759384474
  0
LINE
  8
_0-1_DEFPOINTS
  6
CONTINUOUS
 62
    7
 10
578.20065730532542
 20
418.20595759384474
 11
578.29607316764043
 21
418.24964453758912
  0
LINE
  8
_0-1_DEFPOINTS
  6
CONTINUOUS
 62
    7
 10
578.29607316764043
 20
418.24964453758912
 11
578.37425050632396
 21
418.32321692803191
  0
LINE
  8
_0-1_DEFPOINTS
  6
CONTINUOUS
 62
    7
 10
578.37425050632396
 20
418.32321692803191
 11
578.42828189901479
 21
418.41518908992327
  0
LINE
  8
_0-1_DEFPOINTS
  6
CONTINUOUS
 62
    7
 10
532.11777233898545
 20
418.4128866158029
 11
532.17295830565547
 21
418.32092112774956
  0
LINE
  8
_0-1_DEFPOINTS
  6
CONTINUOUS
 62
    7
 10
532.17295830565547
 20
418.32092112774956
 11
532.25112897050087
 21
418.24964453758912
  0
LINE
  8
_0-1_DEFPOINTS
  6
CONTINUOUS
 62
    7
 10
532.25112897050087
 20
418.24964453758912
 11
532.34654483281577
 21
418.20595759384474
  0
LINE
  8
_0-1_DEFPOINTS
  6
CONTINUOUS
 62
    7
 10
532.34654483281577
 20
418.20595759384474
 11
532.45231181791519
 21
418.1898669703545
  0
LINE
  8
_0-1_DEFPOINTS
  6
CONTINUOUS
 62
    7
 10
556.26858355944921
 20
426.87624757516721
 11
556.34330385003318
 21
426.89004239837516
  0
LINE
  8
_0-1_DEFPOINTS
  6
CONTINUOUS
 62
    7
 10
556.34330385003318
 20
426.89004239837516
 11
556.40423599124711
 21
426.93142686799916
  0
LINE
  8
_0-1_DEFPOINTS
  6
CONTINUOUS
 62
    7
 10
556.40423599124711
 20
426.93142686799916
 11
556.44447256072999
 21
426.99120443523395
  0
LINE
  8
_0-1_DEFPOINTS
  6
CONTINUOUS
 62
    7
 10
556.44447256072999
 20
426.99120443523395
 11
556.45941528407911
 21
427.067079299797
  0
LINE
  8
_0-1_DEFPOINTS
  6
CONTINUOUS
 62
    7
 10
555.27302711900006
 20
427.067079299797
 11
555.2879698423493
 21
426.99120443523395
  0
LINE
  8
_0-1_DEFPOINTS
  6
CONTINUOUS
 62
    7
 10
555.2879698423493
 20
426.99120443523395
 11
555.32820641183218
 21
426.93142686799916
  0
LINE
  8
_0-1_DEFPOINTS
  6
CONTINUOUS
 62
    7
 10
555.32820641183218
 20
426.93142686799916
 11
555.389138553046
 21
426.89004239837516
  0
LINE
  8
_0-1_DEFPOINTS
  6
CONTINUOUS
 62
    7
 10
555.389138553046
 20
426.89004239837516
 11
555.46385884362985
 21
426.87624757516721
  0
LINE
  8
_0-1_DEFPOINTS
  6
CONTINUOUS
 62
    7
 10
578.41218460168636
 20
418.40138759287726
 11
578.36965223192112
 21
418.38989524378962
  0
LINE
  8
_0-1_DEFPOINTS
  6
CONTINUOUS
 62
    7
 10
578.36965223192112
 20
418.38989524378962
 11
578.32711318831798
 21
418.37839622086392
  0
LINE
  8
_0-1_DEFPOINTS
  6
CONTINUOUS
 62
    7
 10
578.32711318831798
 20
418.37839622086392
 11
578.28458081855285
 21
418.36690387177623
  0
LINE
  8
_0-1_DEFPOINTS
  6
CONTINUOUS
 62
    7
 10
578.28458081855285
 20
418.36690387177623
 11
578.2420417749496
 21
418.35540484885058
  0
LINE
  8
_0-1_DEFPOINTS
  6
CONTINUOUS
 62
    7
 10
578.2420417749496
 20
418.35540484885058
 11
578.19950940518436
 21
418.36690387177623
  0
LINE
  8
_0-1_DEFPOINTS
  6
CONTINUOUS
 62
    7
 10
578.19950940518436
 20
418.36690387177623
 11
578.15697703541923
 21
418.37839622086392
  0
LINE
  8
_0-1_DEFPOINTS
  6
CONTINUOUS
 62
    7
 10
578.15697703541923
 20
418.37839622086392
 11
578.11558589195715
 21
418.38989524378962
  0
LINE
  8
_0-1_DEFPOINTS
  6
CONTINUOUS
 62
    7
 10
578.11558589195715
 20
418.38989524378962
 11
578.07305352219191
 21
418.40138759287726
  0
LINE
  8
_0-1_DEFPOINTS
  6
CONTINUOUS
 62
    7
 10
532.43046834604297
 20
418.40138759287726
 11
532.38792930243972
 21
418.38989524378962
  0
LINE
  8
_0-1_DEFPOINTS
  6
CONTINUOUS
 62
    7
 10
532.38792930243972
 20
418.38989524378962
 11
532.34539693267459
 21
418.37839622086392
  0
LINE
  8
_0-1_DEFPOINTS
  6
CONTINUOUS
 62
    7
 10
532.34539693267459
 20
418.37839622086392
 11
532.30401246305053
 21
418.36690387177623
  0
LINE
  8
_0-1_DEFPOINTS
  6
CONTINUOUS
 62
    7
 10
532.30401246305053
 20
418.36690387177623
 11
532.26147341944727
 21
418.35540484885058
  0
LINE
  8
_0-1_DEFPOINTS
  6
CONTINUOUS
 62
    7
 10
532.26147341944727
 20
418.35540484885058
 11
532.21894104968214
 21
418.36690387177623
  0
LINE
  8
_0-1_DEFPOINTS
  6
CONTINUOUS
 62
    7
 10
532.21894104968214
 20
418.36690387177623
 11
532.17640200607889
 21
418.37839622086392
  0
LINE
  8
_0-1_DEFPOINTS
  6
CONTINUOUS
 62
    7
 10
532.17640200607889
 20
418.37839622086392
 11
532.13386963631376
 21
418.38989524378962
  0
LINE
  8
_0-1_DEFPOINTS
  6
CONTINUOUS
 62
    7
 10
532.13386963631376
 20
418.38989524378962
 11
532.09133726654852
 21
418.40138759287726
  0
LINE
  8
_0-1_DEFPOINTS
  6
CONTINUOUS
 62
    7
 10
556.24788798771829
 20
431.1136742293931
 11
556.29042703132143
 21
431.10217520646745
  0
LINE
  8
_0-1_DEFPOINTS
  6
CONTINUOUS
 62
    7
 10
556.29042703132143
 20
431.10217520646745
 11
556.33295940108655
 21
431.09297865766194
  0
LINE
  8
_0-1_DEFPOINTS
  6
CONTINUOUS
 62
    7
 10
556.33295940108655
 20
431.09297865766194
 11
556.3754917708518
 21
431.08148630857431
  0
LINE
  8
_0-1_DEFPOINTS
  6
CONTINUOUS
 62
    7
 10
556.3754917708518
 20
431.08148630857431
 11
556.41803081445505
 21
431.06998728564861
  0
LINE
  8
_0-1_DEFPOINTS
  6
CONTINUOUS
 62
    7
 10
556.41803081445505
 20
431.06998728564861
 11
556.42837526340156
 21
431.02860281602477
  0
LINE
  8
_0-1_DEFPOINTS
  6
CONTINUOUS
 62
    7
 10
556.42837526340156
 20
431.02860281602477
 11
556.43871971234807
 21
430.98721834640071
  0
LINE
  8
_0-1_DEFPOINTS
  6
CONTINUOUS
 62
    7
 10
556.43871971234807
 20
430.98721834640071
 11
556.4490708351326
 21
430.94583387677665
  0
LINE
  8
_0-1_DEFPOINTS
  6
CONTINUOUS
 62
    7
 10
556.4490708351326
 20
430.94583387677665
 11
556.45941528407911
 21
430.90214693303216
  0
LINE
  8
_0-1_DEFPOINTS
  6
CONTINUOUS
 62
    7
 10
556.45941528407911
 20
427.6395811475245
 11
556.43871971234807
 21
427.67176906834311
  0
LINE
  8
_0-1_DEFPOINTS
  6
CONTINUOUS
 62
    7
 10
556.43871971234807
 20
427.67176906834311
 11
556.41688291431387
 21
427.7039569891619
  0
LINE
  8
_0-1_DEFPOINTS
  6
CONTINUOUS
 62
    7
 10
556.41688291431387
 20
427.7039569891619
 11
556.39503944244166
 21
427.73614490998051
  0
LINE
  8
_0-1_DEFPOINTS
  6
CONTINUOUS
 62
    7
 10
556.39503944244166
 20
427.73614490998051
 11
556.37434387071062
 21
427.76603703051694
  0
LINE
  8
_0-1_DEFPOINTS
  6
CONTINUOUS
 62
    7
 10
556.37434387071062
 20
427.76603703051694
 11
556.342155949892
 21
427.77752937960457
  0
LINE
  8
_0-1_DEFPOINTS
  6
CONTINUOUS
 62
    7
 10
556.342155949892
 20
427.77752937960457
 11
556.31111592921445
 21
427.78672592840996
  0
LINE
  8
_0-1_DEFPOINTS
  6
CONTINUOUS
 62
    7
 10
556.31111592921445
 20
427.78672592840996
 11
556.2800759085369
 21
427.79822495133567
  0
LINE
  8
_0-1_DEFPOINTS
  6
CONTINUOUS
 62
    7
 10
556.2800759085369
 20
427.79822495133567
 11
556.24788798771829
 21
427.80972397426137
  0
LINE
  8
_0-1_DEFPOINTS
  6
CONTINUOUS
 62
    7
 10
555.23049474923494
 20
430.69061963667139
 11
555.25233154726902
 21
430.7343065804157
  0
LINE
  8
_0-1_DEFPOINTS
  6
CONTINUOUS
 62
    7
 10
555.25233154726902
 20
430.7343065804157
 11
555.27302711900006
 21
430.77569105003977
  0
LINE
  8
_0-1_DEFPOINTS
  6
CONTINUOUS
 62
    7
 10
555.27302711900006
 20
430.77569105003977
 11
555.2937226907311
 21
430.81707551966389
  0
LINE
  8
_0-1_DEFPOINTS
  6
CONTINUOUS
 62
    7
 10
555.2937226907311
 20
430.81707551966389
 11
555.31555948876519
 21
430.85845998928789
  0
LINE
  8
_0-1_DEFPOINTS
  6
CONTINUOUS
 62
    7
 10
555.31555948876519
 20
430.85845998928789
 11
555.34659950944274
 21
430.89064791010651
  0
LINE
  8
_0-1_DEFPOINTS
  6
CONTINUOUS
 62
    7
 10
555.34659950944274
 20
430.89064791010651
 11
555.37878743026135
 21
430.92283583092529
  0
LINE
  8
_0-1_DEFPOINTS
  6
CONTINUOUS
 62
    7
 10
555.37878743026135
 20
430.92283583092529
 11
555.41098202491821
 21
430.95503042558192
  0
LINE
  8
_0-1_DEFPOINTS
  6
CONTINUOUS
 62
    7
 10
555.41098202491821
 20
430.95503042558192
 11
555.44201537175763
 21
430.98721834640071
  0
LINE
  8
_0-1_DEFPOINTS
  6
CONTINUOUS
 62
    7
 10
555.23049474923494
 20
427.6395811475245
 11
555.25233154726902
 21
427.67176906834311
  0
LINE
  8
_0-1_DEFPOINTS
  6
CONTINUOUS
 62
    7
 10
555.25233154726902
 20
427.67176906834311
 11
555.27302711900006
 21
427.7039569891619
  0
LINE
  8
_0-1_DEFPOINTS
  6
CONTINUOUS
 62
    7
 10
555.27302711900006
 20
427.7039569891619
 11
555.2937226907311
 21
427.73614490998051
  0
LINE
  8
_0-1_DEFPOINTS
  6
CONTINUOUS
 62
    7
 10
555.2937226907311
 20
427.73614490998051
 11
555.31555948876519
 21
427.76603703051694
  0
LINE
  8
_0-1_DEFPOINTS
  6
CONTINUOUS
 62
    7
 10
555.31555948876519
 20
427.76603703051694
 11
555.34659950944274
 21
427.77752937960457
  0
LINE
  8
_0-1_DEFPOINTS
  6
CONTINUOUS
 62
    7
 10
555.34659950944274
 20
427.77752937960457
 11
555.37878743026135
 21
427.78672592840996
  0
LINE
  8
_0-1_DEFPOINTS
  6
CONTINUOUS
 62
    7
 10
555.37878743026135
 20
427.78672592840996
 11
555.41098202491821
 21
427.79822495133567
  0
LINE
  8
_0-1_DEFPOINTS
  6
CONTINUOUS
 62
    7
 10
555.41098202491821
 20
427.79822495133567
 11
555.44201537175763
 21
427.80972397426137
  0
LINE
  8
_0-1_DEFPOINTS
  6
CONTINUOUS
 62
    7
 10
545.10251173923791
 20
353.8996106318711
 11
545.23931207117687
 21
353.59151289921624
  0
LINE
  8
_0-1_DEFPOINTS
  6
CONTINUOUS
 62
    7
 10
545.23931207117687
 20
353.59151289921624
 11
545.37726697709502
 21
353.2857243145196
  0
LINE
  8
_0-1_DEFPOINTS
  6
CONTINUOUS
 62
    7
 10
545.37726697709502
 20
353.2857243145196
 11
545.51522188301317
 21
352.97992905598505
  0
LINE
  8
_0-1_DEFPOINTS
  6
CONTINUOUS
 62
    7
 10
545.51522188301317
 20
352.97992905598505
 11
545.65317011509319
 21
352.67183799716804
  0
LINE
  8
_0-1_DEFPOINTS
  6
CONTINUOUS
 62
    7
 10
545.65317011509319
 20
352.67183799716804
 11
545.75893710019272
 21
352.35454371570779
  0
LINE
  8
_0-1_DEFPOINTS
  6
CONTINUOUS
 62
    7
 10
545.75893710019272
 20
352.35454371570779
 11
545.86469741145402
 21
352.03495363396519
  0
LINE
  8
_0-1_DEFPOINTS
  6
CONTINUOUS
 62
    7
 10
545.86469741145402
 20
352.03495363396519
 11
545.97045772271542
 21
351.7153702260606
  0
LINE
  8
_0-1_DEFPOINTS
  6
CONTINUOUS
 62
    7
 10
545.97045772271542
 20
351.7153702260606
 11
546.07737260795614
 21
351.39807594460035
  0
LINE
  8
_0-1_DEFPOINTS
  6
CONTINUOUS
 62
    7
 10
546.07737260795614
 20
351.39807594460035
 11
546.15209957237801
 21
351.06928931405253
  0
LINE
  8
_0-1_DEFPOINTS
  6
CONTINUOUS
 62
    7
 10
546.15209957237801
 20
351.06928931405253
 11
546.22567196282068
 21
350.74050268350442
  0
LINE
  8
_0-1_DEFPOINTS
  6
CONTINUOUS
 62
    7
 10
546.22567196282068
 20
350.74050268350442
 11
546.29924435326348
 21
350.41401852707691
  0
LINE
  8
_0-1_DEFPOINTS
  6
CONTINUOUS
 62
    7
 10
546.29924435326348
 20
350.41401852707691
 11
546.37397131768535
 21
350.08523189652885
  0
LINE
  8
_0-1_DEFPOINTS
  6
CONTINUOUS
 62
    7
 10
546.37397131768535
 20
350.08523189652885
 11
546.40501133836301
 21
349.74724871717569
  0
LINE
  8
_0-1_DEFPOINTS
  6
CONTINUOUS
 62
    7
 10
546.40501133836301
 20
349.74724871717569
 11
546.43719925918163
 21
349.40696973753995
  0
LINE
  8
_0-1_DEFPOINTS
  6
CONTINUOUS
 62
    7
 10
546.43719925918163
 20
349.40696973753995
 11
546.46938718000024
 21
349.06898655818679
  0
LINE
  8
_0-1_DEFPOINTS
  6
CONTINUOUS
 62
    7
 10
546.46938718000024
 20
349.06898655818679
 11
546.50157510081885
 21
348.73100337883341
  0
LINE
  8
_0-1_DEFPOINTS
  6
CONTINUOUS
 62
    7
 10
546.50157510081885
 20
348.73100337883341
 11
546.46938718000024
 21
348.40221674828541
  0
LINE
  8
_0-1_DEFPOINTS
  6
CONTINUOUS
 62
    7
 10
546.46938718000024
 20
348.40221674828541
 11
546.43719925918163
 21
348.07343011773747
  0
LINE
  8
_0-1_DEFPOINTS
  6
CONTINUOUS
 62
    7
 10
546.43719925918163
 20
348.07343011773747
 11
546.40501133836301
 21
347.74465016102761
  0
LINE
  8
_0-1_DEFPOINTS
  6
CONTINUOUS
 62
    7
 10
546.40501133836301
 20
347.74465016102761
 11
546.37397131768535
 21
347.41586353047973
  0
LINE
  8
_0-1_DEFPOINTS
  6
CONTINUOUS
 62
    7
 10
546.37397131768535
 20
347.41586353047973
 11
546.29924435326348
 21
347.08707689993162
  0
LINE
  8
_0-1_DEFPOINTS
  6
CONTINUOUS
 62
    7
 10
546.29924435326348
 20
347.08707689993162
 11
546.22567196282068
 21
346.75829026938374
  0
LINE
  8
_0-1_DEFPOINTS
  6
CONTINUOUS
 62
    7
 10
546.22567196282068
 20
346.75829026938374
 11
546.15209957237801
 21
346.42950363883585
  0
LINE
  8
_0-1_DEFPOINTS
  6
CONTINUOUS
 62
    7
 10
546.15209957237801
 20
346.42950363883585
 11
546.07737260795614
 21
346.10071700828775
  0
LINE
  8
_0-1_DEFPOINTS
  6
CONTINUOUS
 62
    7
 10
546.07737260795614
 20
346.10071700828775
 11
545.97045772271542
 21
345.78342940066557
  0
LINE
  8
_0-1_DEFPOINTS
  6
CONTINUOUS
 62
    7
 10
545.97045772271542
 20
345.78342940066557
 11
545.86469741145402
 21
345.46614179304333
  0
LINE
  8
_0-1_DEFPOINTS
  6
CONTINUOUS
 62
    7
 10
545.86469741145402
 20
345.46614179304333
 11
545.75893710019272
 21
345.14884751158314
  0
LINE
  8
_0-1_DEFPOINTS
  6
CONTINUOUS
 62
    7
 10
545.75893710019272
 20
345.14884751158314
 11
545.65317011509319
 21
344.83155990396074
  0
LINE
  8
_0-1_DEFPOINTS
  6
CONTINUOUS
 62
    7
 10
545.65317011509319
 20
344.83155990396074
 11
545.51522188301317
 21
344.52346884514378
  0
LINE
  8
_0-1_DEFPOINTS
  6
CONTINUOUS
 62
    7
 10
545.51522188301317
 20
344.52346884514378
 11
545.37726697709502
 21
344.21537111248892
  0
LINE
  8
_0-1_DEFPOINTS
  6
CONTINUOUS
 62
    7
 10
545.37726697709502
 20
344.21537111248892
 11
545.23931207117687
 21
343.90728005367208
  0
LINE
  8
_0-1_DEFPOINTS
  6
CONTINUOUS
 62
    7
 10
545.23931207117687
 20
343.90728005367208
 11
545.10251173923791
 21
343.60148479513731
  0
LINE
  8
_0-1_DEFPOINTS
  6
CONTINUOUS
 62
    7
 10
565.44354249876221
 20
343.60148479513731
 11
565.30674216682326
 21
343.88888695606136
  0
LINE
  8
_0-1_DEFPOINTS
  6
CONTINUOUS
 62
    7
 10
565.30674216682326
 20
343.88888695606136
 11
565.16878726090511
 21
344.17398664286497
  0
LINE
  8
_0-1_DEFPOINTS
  6
CONTINUOUS
 62
    7
 10
565.16878726090511
 20
344.17398664286497
 11
565.03083902882497
 21
344.45908632966854
  0
LINE
  8
_0-1_DEFPOINTS
  6
CONTINUOUS
 62
    7
 10
565.03083902882497
 20
344.45908632966854
 11
564.89288412290693
 21
344.74419269030994
  0
LINE
  8
_0-1_DEFPOINTS
  6
CONTINUOUS
 62
    7
 10
564.89288412290693
 20
344.74419269030994
 11
564.78712381164553
 21
345.0522837491269
  0
LINE
  8
_0-1_DEFPOINTS
  6
CONTINUOUS
 62
    7
 10
564.78712381164553
 20
345.0522837491269
 11
564.68135682654611
 21
345.36037480794386
  0
LINE
  8
_0-1_DEFPOINTS
  6
CONTINUOUS
 62
    7
 10
564.68135682654611
 20
345.36037480794386
 11
564.57559651528459
 21
345.66846586676081
  0
LINE
  8
_0-1_DEFPOINTS
  6
CONTINUOUS
 62
    7
 10
564.57559651528459
 20
345.66846586676081
 11
564.46868163004399
 21
345.97656359941584
  0
LINE
  8
_0-1_DEFPOINTS
  6
CONTINUOUS
 62
    7
 10
564.46868163004399
 20
345.97656359941584
 11
564.39395466562223
 21
346.28465465823274
  0
LINE
  8
_0-1_DEFPOINTS
  6
CONTINUOUS
 62
    7
 10
564.39395466562223
 20
346.28465465823274
 11
564.32038227517944
 21
346.59044991676728
  0
LINE
  8
_0-1_DEFPOINTS
  6
CONTINUOUS
 62
    7
 10
564.32038227517944
 20
346.59044991676728
 11
564.24680988473676
 21
346.89624517530183
  0
LINE
  8
_0-1_DEFPOINTS
  6
CONTINUOUS
 62
    7
 10
564.24680988473676
 20
346.89624517530183
 11
564.17208292031478
 21
347.20433623411878
  0
LINE
  8
_0-1_DEFPOINTS
  6
CONTINUOUS
 62
    7
 10
564.17208292031478
 20
347.20433623411878
 11
564.12955055054954
 21
347.52162384174096
  0
LINE
  8
_0-1_DEFPOINTS
  6
CONTINUOUS
 62
    7
 10
564.12955055054954
 20
347.52162384174096
 11
564.08816608092548
 21
347.83891144936342
  0
LINE
  8
_0-1_DEFPOINTS
  6
CONTINUOUS
 62
    7
 10
564.08816608092548
 20
347.83891144936342
 11
564.04562703732245
 21
348.15620573082361
  0
LINE
  8
_0-1_DEFPOINTS
  6
CONTINUOUS
 62
    7
 10
564.04562703732245
 20
348.15620573082361
 11
564.00309466755721
 21
348.47349333844585
  0
LINE
  8
_0-1_DEFPOINTS
  6
CONTINUOUS
 62
    7
 10
564.00309466755721
 20
348.9839151448183
 11
564.03528258837582
 21
349.30120942627866
  0
LINE
  8
_0-1_DEFPOINTS
  6
CONTINUOUS
 62
    7
 10
564.03528258837582
 20
349.30120942627866
 11
564.06747050919444
 21
349.61849703390089
  0
LINE
  8
_0-1_DEFPOINTS
  6
CONTINUOUS
 62
    7
 10
564.06747050919444
 20
349.61849703390089
 11
564.09965843001316
 21
349.93578464152307
  0
LINE
  8
_0-1_DEFPOINTS
  6
CONTINUOUS
 62
    7
 10
564.09965843001316
 20
349.93578464152307
 11
564.13069845069083
 21
350.25537472326573
  0
LINE
  8
_0-1_DEFPOINTS
  6
CONTINUOUS
 62
    7
 10
564.13069845069083
 20
350.25537472326573
 11
564.2054254151127
 21
350.57496480500839
  0
LINE
  8
_0-1_DEFPOINTS
  6
CONTINUOUS
 62
    7
 10
564.2054254151127
 20
350.57496480500839
 11
564.27899780555538
 21
350.89225241263057
  0
LINE
  8
_0-1_DEFPOINTS
  6
CONTINUOUS
 62
    7
 10
564.27899780555538
 20
350.89225241263057
 11
564.35257019599806
 21
351.2095400202528
  0
LINE
  8
_0-1_DEFPOINTS
  6
CONTINUOUS
 62
    7
 10
564.35257019599806
 20
351.2095400202528
 11
564.42729716041993
 21
351.52683430171322
  0
LINE
  8
_0-1_DEFPOINTS
  6
CONTINUOUS
 62
    7
 10
564.42729716041993
 20
351.52683430171322
 11
564.54340859446586
 21
351.83492536052995
  0
LINE
  8
_0-1_DEFPOINTS
  6
CONTINUOUS
 62
    7
 10
564.54340859446586
 20
351.83492536052995
 11
564.66066792865308
 21
352.14072061906472
  0
LINE
  8
_0-1_DEFPOINTS
  6
CONTINUOUS
 62
    7
 10
564.66066792865308
 20
352.14072061906472
 11
564.776772688861
 21
352.44651587759927
  0
LINE
  8
_0-1_DEFPOINTS
  6
CONTINUOUS
 62
    7
 10
564.776772688861
 20
352.44651587759927
 11
564.89288412290693
 21
352.75460693641617
  0
LINE
  8
_0-1_DEFPOINTS
  6
CONTINUOUS
 62
    7
 10
564.89288412290693
 20
352.75460693641617
 11
565.03083902882497
 21
353.03970662321979
  0
LINE
  8
_0-1_DEFPOINTS
  6
CONTINUOUS
 62
    7
 10
565.03083902882497
 20
353.03970662321979
 11
565.16878726090511
 21
353.3271087841436
  0
LINE
  8
_0-1_DEFPOINTS
  6
CONTINUOUS
 62
    7
 10
565.16878726090511
 20
353.3271087841436
 11
565.30674216682326
 21
353.61450427122963
  0
LINE
  8
_0-1_DEFPOINTS
  6
CONTINUOUS
 62
    7
 10
565.30674216682326
 20
353.61450427122963
 11
565.44354249876221
 21
353.8996106318711
  0
LINE
  8
_0-1_DEFPOINTS
  6
CONTINUOUS
 62
    7
 10
545.77962599808563
 20
366.27390741519559
 11
546.11875707758009
 21
366.1359525092775
  0
LINE
  8
_0-1_DEFPOINTS
  6
CONTINUOUS
 62
    7
 10
546.11875707758009
 20
366.1359525092775
 11
546.45788815707454
 21
365.99800427719742
  0
LINE
  8
_0-1_DEFPOINTS
  6
CONTINUOUS
 62
    7
 10
546.45788815707454
 20
365.99800427719742
 11
546.797025910407
 21
365.86004937127939
  0
LINE
  8
_0-1_DEFPOINTS
  6
CONTINUOUS
 62
    7
 10
546.797025910407
 20
365.86004937127939
 11
547.13615698990145
 21
365.72210113919908
  0
LINE
  8
_0-1_DEFPOINTS
  6
CONTINUOUS
 62
    7
 10
547.13615698990145
 20
365.72210113919908
 11
547.44310014857729
 21
365.55195831246238
  0
LINE
  8
_0-1_DEFPOINTS
  6
CONTINUOUS
 62
    7
 10
547.44310014857729
 20
365.55195831246238
 11
547.75004330725301
 21
365.38411795984592
  0
LINE
  8
_0-1_DEFPOINTS
  6
CONTINUOUS
 62
    7
 10
547.75004330725301
 20
365.38411795984592
 11
548.05813436606991
 21
365.21627760722947
  0
LINE
  8
_0-1_DEFPOINTS
  6
CONTINUOUS
 62
    7
 10
548.05813436606991
 20
365.21627760722947
 11
548.36507752474563
 21
365.04613478049265
  0
LINE
  8
_0-1_DEFPOINTS
  6
CONTINUOUS
 62
    7
 10
548.36507752474563
 20
365.04613478049265
 11
548.67202068342158
 21
364.85530305586281
  0
LINE
  8
_0-1_DEFPOINTS
  6
CONTINUOUS
 62
    7
 10
548.67202068342158
 20
364.85530305586281
 11
548.98011174223836
 21
364.66446465739494
  0
LINE
  8
_0-1_DEFPOINTS
  6
CONTINUOUS
 62
    7
 10
548.98011174223836
 20
364.66446465739494
 11
549.28705490091409
 21
364.47363293276516
  0
LINE
  8
_0-1_DEFPOINTS
  6
CONTINUOUS
 62
    7
 10
549.28705490091409
 20
364.47363293276516
 11
549.59399805958992
 21
364.28280120813542
  0
LINE
  8
_0-1_DEFPOINTS
  6
CONTINUOUS
 62
    7
 10
549.59399805958992
 20
364.28280120813542
 11
549.89059676931913
 21
364.08047046057987
  0
LINE
  8
_0-1_DEFPOINTS
  6
CONTINUOUS
 62
    7
 10
549.89059676931913
 20
364.08047046057987
 11
550.18719547904846
 21
363.88044218714464
  0
LINE
  8
_0-1_DEFPOINTS
  6
CONTINUOUS
 62
    7
 10
550.18719547904846
 20
363.88044218714464
 11
550.48379418877767
 21
363.6804072398715
  0
LINE
  8
_0-1_DEFPOINTS
  6
CONTINUOUS
 62
    7
 10
550.48379418877767
 20
363.6804072398715
 11
550.78038622466897
 21
363.47807649231584
  0
LINE
  8
_0-1_DEFPOINTS
  6
CONTINUOUS
 62
    7
 10
550.78038622466897
 20
363.47807649231584
 11
551.33104460052414
 21
363.02283397877557
  0
LINE
  8
_0-1_DEFPOINTS
  6
CONTINUOUS
 62
    7
 10
551.33104460052414
 20
363.02283397877557
 11
551.88170297637942
 21
362.56759813907331
  0
LINE
  8
_0-1_DEFPOINTS
  6
CONTINUOUS
 62
    7
 10
551.88170297637942
 20
362.56759813907331
 11
552.43351592621389
 21
362.11235562553276
  0
LINE
  8
_0-1_DEFPOINTS
  6
CONTINUOUS
 62
    7
 10
552.43351592621389
 20
362.11235562553276
 11
552.98417430206928
 21
361.65481063787212
  0
LINE
  8
_0-1_DEFPOINTS
  6
CONTINUOUS
 62
    7
 10
552.98417430206928
 20
361.65481063787212
 11
553.24973299112105
 21
361.4110954206925
  0
LINE
  8
_0-1_DEFPOINTS
  6
CONTINUOUS
 62
    7
 10
553.24973299112105
 20
361.4110954206925
 11
553.51413710619352
 21
361.16738020351301
  0
LINE
  8
_0-1_DEFPOINTS
  6
CONTINUOUS
 62
    7
 10
553.51413710619352
 20
361.16738020351301
 11
553.77854789510411
 21
360.92366498633345
  0
LINE
  8
_0-1_DEFPOINTS
  6
CONTINUOUS
 62
    7
 10
553.77854789510411
 20
360.92366498633345
 11
554.04410658415588
 21
360.67994976915384
  0
LINE
  8
_0-1_DEFPOINTS
  6
CONTINUOUS
 62
    7
 10
554.04410658415588
 20
360.67994976915384
 11
554.18090691609473
 21
360.57188698377217
  0
LINE
  8
_0-1_DEFPOINTS
  6
CONTINUOUS
 62
    7
 10
554.18090691609473
 20
360.57188698377217
 11
554.31886182201299
 21
360.46612667251077
  0
LINE
  8
_0-1_DEFPOINTS
  6
CONTINUOUS
 62
    7
 10
554.31886182201299
 20
360.46612667251077
 11
554.45681005409301
 21
360.36035968741123
  0
LINE
  8
_0-1_DEFPOINTS
  6
CONTINUOUS
 62
    7
 10
554.45681005409301
 20
360.36035968741123
 11
554.59476496001116
 21
360.25459937614983
  0
LINE
  8
_0-1_DEFPOINTS
  6
CONTINUOUS
 62
    7
 10
554.59476496001116
 20
360.25459937614983
 11
554.67983637337954
 21
360.20171588360029
  0
LINE
  8
_0-1_DEFPOINTS
  6
CONTINUOUS
 62
    7
 10
554.67983637337954
 20
360.20171588360029
 11
554.76490111291002
 21
360.14883906488853
  0
LINE
  8
_0-1_DEFPOINTS
  6
CONTINUOUS
 62
    7
 10
554.76490111291002
 20
360.14883906488853
 11
554.84997252627841
 21
360.09595557233877
  0
LINE
  8
_0-1_DEFPOINTS
  6
CONTINUOUS
 62
    7
 10
554.84997252627841
 20
360.09595557233877
 11
554.93389603950561
 21
360.04307207978906
  0
LINE
  8
_0-1_DEFPOINTS
  6
CONTINUOUS
 62
    7
 10
554.93389603950561
 20
360.04307207978906
 11
555.0178128788948
 21
360.01088415897021
  0
LINE
  8
_0-1_DEFPOINTS
  6
CONTINUOUS
 62
    7
 10
555.0178128788948
 20
360.01088415897021
 11
555.10288429226318
 21
359.98099203843401
  0
LINE
  8
_0-1_DEFPOINTS
  6
CONTINUOUS
 62
    7
 10
555.10288429226318
 20
359.98099203843401
 11
555.18795570563168
 21
359.95110659173571
  0
LINE
  8
_0-1_DEFPOINTS
  6
CONTINUOUS
 62
    7
 10
555.18795570563168
 20
359.95110659173571
 11
555.27302711900006
 21
359.91891867091687
  0
LINE
  8
_0-1_DEFPOINTS
  6
CONTINUOUS
 62
    7
 10
555.27302711900006
 20
359.91891867091687
 11
555.35809853236844
 21
359.95110659173571
  0
LINE
  8
_0-1_DEFPOINTS
  6
CONTINUOUS
 62
    7
 10
555.35809853236844
 20
359.95110659173571
 11
555.44316994573694
 21
359.98099203843401
  0
LINE
  8
_0-1_DEFPOINTS
  6
CONTINUOUS
 62
    7
 10
555.44316994573694
 20
359.98099203843401
 11
555.52824135910532
 21
360.01088415897021
  0
LINE
  8
_0-1_DEFPOINTS
  6
CONTINUOUS
 62
    7
 10
555.52824135910532
 20
360.01088415897021
 11
555.61215819849451
 21
360.04307207978906
  0
LINE
  8
_0-1_DEFPOINTS
  6
CONTINUOUS
 62
    7
 10
555.61215819849451
 20
360.04307207978906
 11
555.6868851629165
 21
360.09825137262101
  0
LINE
  8
_0-1_DEFPOINTS
  6
CONTINUOUS
 62
    7
 10
555.6868851629165
 20
360.09825137262101
 11
555.76045755335917
 21
360.15113486517072
  0
LINE
  8
_0-1_DEFPOINTS
  6
CONTINUOUS
 62
    7
 10
555.76045755335917
 20
360.15113486517072
 11
555.83402994380185
 21
360.20401835772049
  0
LINE
  8
_0-1_DEFPOINTS
  6
CONTINUOUS
 62
    7
 10
555.83402994380185
 20
360.20401835772049
 11
555.90875690822384
 21
360.25919765055266
  0
LINE
  8
_0-1_DEFPOINTS
  6
CONTINUOUS
 62
    7
 10
555.90875690822384
 20
360.25919765055266
 11
556.04555724016268
 21
360.3649579618139
  0
LINE
  8
_0-1_DEFPOINTS
  6
CONTINUOUS
 62
    7
 10
556.04555724016268
 20
360.3649579618139
 11
556.18351214608083
 21
360.47072494691338
  0
LINE
  8
_0-1_DEFPOINTS
  6
CONTINUOUS
 62
    7
 10
556.18351214608083
 20
360.47072494691338
 11
556.32146037816096
 21
360.57648525817484
  0
LINE
  8
_0-1_DEFPOINTS
  6
CONTINUOUS
 62
    7
 10
556.32146037816096
 20
360.57648525817484
 11
556.45941528407911
 21
360.67994976915384
  0
LINE
  8
_0-1_DEFPOINTS
  6
CONTINUOUS
 62
    7
 10
556.45941528407911
 20
360.67994976915384
 11
556.7238260729896
 21
360.92366498633345
  0
LINE
  8
_0-1_DEFPOINTS
  6
CONTINUOUS
 62
    7
 10
556.7238260729896
 20
360.92366498633345
 11
556.98937808820335
 21
361.16738020351301
  0
LINE
  8
_0-1_DEFPOINTS
  6
CONTINUOUS
 62
    7
 10
556.98937808820335
 20
361.16738020351301
 11
557.25493677725512
 21
361.4110954206925
  0
LINE
  8
_0-1_DEFPOINTS
  6
CONTINUOUS
 62
    7
 10
557.25493677725512
 20
361.4110954206925
 11
557.51934756616561
 21
361.65481063787212
  0
LINE
  8
_0-1_DEFPOINTS
  6
CONTINUOUS
 62
    7
 10
557.51934756616561
 20
361.65481063787212
 11
558.070005942021
 21
362.11235562553276
  0
LINE
  8
_0-1_DEFPOINTS
  6
CONTINUOUS
 62
    7
 10
558.070005942021
 20
362.11235562553276
 11
558.62066431787628
 21
362.56759813907331
  0
LINE
  8
_0-1_DEFPOINTS
  6
CONTINUOUS
 62
    7
 10
558.62066431787628
 20
362.56759813907331
 11
559.17247059387273
 21
363.02283397877557
  0
LINE
  8
_0-1_DEFPOINTS
  6
CONTINUOUS
 62
    7
 10
559.17247059387273
 20
363.02283397877557
 11
559.72312896972801
 21
363.47807649231584
  0
LINE
  8
_0-1_DEFPOINTS
  6
CONTINUOUS
 62
    7
 10
559.72312896972801
 20
363.47807649231584
 11
560.01972767945733
 21
363.6804072398715
  0
LINE
  8
_0-1_DEFPOINTS
  6
CONTINUOUS
 62
    7
 10
560.01972767945733
 20
363.6804072398715
 11
560.31632638918654
 21
363.88044218714464
  0
LINE
  8
_0-1_DEFPOINTS
  6
CONTINUOUS
 62
    7
 10
560.31632638918654
 20
363.88044218714464
 11
560.61291842507774
 21
364.08047046057987
  0
LINE
  8
_0-1_DEFPOINTS
  6
CONTINUOUS
 62
    7
 10
560.61291842507774
 20
364.08047046057987
 11
560.90951713480706
 21
364.28280120813542
  0
LINE
  8
_0-1_DEFPOINTS
  6
CONTINUOUS
 62
    7
 10
560.90951713480706
 20
364.28280120813542
 11
561.2164602934829
 21
364.47363293276516
  0
LINE
  8
_0-1_DEFPOINTS
  6
CONTINUOUS
 62
    7
 10
561.2164602934829
 20
364.47363293276516
 11
561.5245580261377
 21
364.66446465739494
  0
LINE
  8
_0-1_DEFPOINTS
  6
CONTINUOUS
 62
    7
 10
561.5245580261377
 20
364.66446465739494
 11
561.83150118481353
 21
364.85530305586281
  0
LINE
  8
_0-1_DEFPOINTS
  6
CONTINUOUS
 62
    7
 10
561.83150118481353
 20
364.85530305586281
 11
562.13844434348925
 21
365.04613478049265
  0
LINE
  8
_0-1_DEFPOINTS
  6
CONTINUOUS
 62
    7
 10
562.13844434348925
 20
365.04613478049265
 11
562.45573195111149
 21
365.21627760722947
  0
LINE
  8
_0-1_DEFPOINTS
  6
CONTINUOUS
 62
    7
 10
562.45573195111149
 20
365.21627760722947
 11
562.7741674588749
 21
365.38411795984592
  0
LINE
  8
_0-1_DEFPOINTS
  6
CONTINUOUS
 62
    7
 10
562.7741674588749
 20
365.38411795984592
 11
563.09260964047644
 21
365.55195831246238
  0
LINE
  8
_0-1_DEFPOINTS
  6
CONTINUOUS
 62
    7
 10
563.09260964047644
 20
365.55195831246238
 11
563.40989724809856
 21
365.72210113919908
  0
LINE
  8
_0-1_DEFPOINTS
  6
CONTINUOUS
 62
    7
 10
563.40989724809856
 20
365.72210113919908
 11
563.73868387864661
 21
365.86004937127939
  0
LINE
  8
_0-1_DEFPOINTS
  6
CONTINUOUS
 62
    7
 10
563.73868387864661
 20
365.86004937127939
 11
564.06747050919444
 21
365.99800427719742
  0
LINE
  8
_0-1_DEFPOINTS
  6
CONTINUOUS
 62
    7
 10
564.06747050919444
 20
365.99800427719742
 11
564.39625713974249
 21
366.1359525092775
  0
LINE
  8
_0-1_DEFPOINTS
  6
CONTINUOUS
 62
    7
 10
564.39625713974249
 20
366.1359525092775
 11
564.72389587014936
 21
366.27390741519559
  0
LINE
  8
_0-1_DEFPOINTS
  6
CONTINUOUS
 62
    7
 10
553.02670667183452
 20
439.46207165485248
 11
553.0899346133308
 21
439.12179267521697
  0
LINE
  8
_0-1_DEFPOINTS
  6
CONTINUOUS
 62
    7
 10
553.0899346133308
 20
439.12179267521697
 11
553.15316255482696
 21
438.78380949586358
  0
LINE
  8
_0-1_DEFPOINTS
  6
CONTINUOUS
 62
    7
 10
553.15316255482696
 20
438.78380949586358
 11
553.21754507030232
 21
438.44582631651019
  0
LINE
  8
_0-1_DEFPOINTS
  6
CONTINUOUS
 62
    7
 10
553.21754507030232
 20
438.44582631651019
 11
553.28077301179849
 21
438.10554066303666
  0
LINE
  8
_0-1_DEFPOINTS
  6
CONTINUOUS
 62
    7
 10
553.28077301179849
 20
438.10554066303666
 11
553.35549330238246
 21
437.79744960421971
  0
LINE
  8
_0-1_DEFPOINTS
  6
CONTINUOUS
 62
    7
 10
553.35549330238246
 20
437.79744960421971
 11
553.42906569282513
 21
437.49165434568516
  0
LINE
  8
_0-1_DEFPOINTS
  6
CONTINUOUS
 62
    7
 10
553.42906569282513
 20
437.49165434568516
 11
553.50264475710583
 21
437.18585908715062
  0
LINE
  8
_0-1_DEFPOINTS
  6
CONTINUOUS
 62
    7
 10
553.50264475710583
 20
437.18585908715062
 11
553.5773650476898
 21
436.87776802833366
  0
LINE
  8
_0-1_DEFPOINTS
  6
CONTINUOUS
 62
    7
 10
553.5773650476898
 20
436.87776802833366
 11
553.65209201211178
 21
436.62485626234866
  0
LINE
  8
_0-1_DEFPOINTS
  6
CONTINUOUS
 62
    7
 10
553.65209201211178
 20
436.62485626234866
 11
553.72566440255446
 21
436.36964869608153
  0
LINE
  8
_0-1_DEFPOINTS
  6
CONTINUOUS
 62
    7
 10
553.72566440255446
 20
436.36964869608153
 11
553.79923679299714
 21
436.11443445597627
  0
LINE
  8
_0-1_DEFPOINTS
  6
CONTINUOUS
 62
    7
 10
553.79923679299714
 20
436.11443445597627
 11
553.87396375741901
 21
435.86152268999143
  0
LINE
  8
_0-1_DEFPOINTS
  6
CONTINUOUS
 62
    7
 10
556.62840353683669
 20
422.04332770120038
 11
556.70313050125856
 21
422.29853526746757
  0
LINE
  8
_0-1_DEFPOINTS
  6
CONTINUOUS
 62
    7
 10
556.70313050125856
 20
422.29853526746757
 11
556.77670289170135
 21
422.55374950757277
  0
LINE
  8
_0-1_DEFPOINTS
  6
CONTINUOUS
 62
    7
 10
556.77670289170135
 20
422.55374950757277
 11
556.85028195598204
 21
422.80895707384002
  0
LINE
  8
_0-1_DEFPOINTS
  6
CONTINUOUS
 62
    7
 10
556.85028195598204
 20
422.80895707384002
 11
556.92500224656601
 21
423.06417131394528
  0
LINE
  8
_0-1_DEFPOINTS
  6
CONTINUOUS
 62
    7
 10
556.92500224656601
 20
423.06417131394528
 11
556.99972921098788
 21
423.37226237276218
  0
LINE
  8
_0-1_DEFPOINTS
  6
CONTINUOUS
 62
    7
 10
556.99972921098788
 20
423.37226237276218
 11
557.07330160143056
 21
423.67805763129672
  0
LINE
  8
_0-1_DEFPOINTS
  6
CONTINUOUS
 62
    7
 10
557.07330160143056
 20
423.67805763129672
 11
557.14687399187324
 21
423.98385288983127
  0
LINE
  8
_0-1_DEFPOINTS
  6
CONTINUOUS
 62
    7
 10
557.14687399187324
 20
423.98385288983127
 11
557.22160095629522
 21
424.29194394864822
  0
LINE
  8
_0-1_DEFPOINTS
  6
CONTINUOUS
 62
    7
 10
557.22160095629522
 20
424.29194394864822
 11
557.28482889779139
 21
424.63222292828397
  0
LINE
  8
_0-1_DEFPOINTS
  6
CONTINUOUS
 62
    7
 10
557.28482889779139
 20
424.63222292828397
 11
557.34920473942884
 21
424.97020610763713
  0
LINE
  8
_0-1_DEFPOINTS
  6
CONTINUOUS
 62
    7
 10
557.34920473942884
 20
424.97020610763713
 11
557.41243268092501
 21
425.30818928699046
  0
LINE
  8
_0-1_DEFPOINTS
  6
CONTINUOUS
 62
    7
 10
557.41243268092501
 20
425.30818928699046
 11
557.47566062242129
 21
425.64847494046404
  0
LINE
  8
_0-1_DEFPOINTS
  6
CONTINUOUS
 62
    7
 10
557.47680852256246
 20
425.64847494046404
 11
557.36990031115988
 21
425.79561972134957
  0
LINE
  8
_0-1_DEFPOINTS
  6
CONTINUOUS
 62
    7
 10
557.36990031115988
 20
425.79561972134957
 11
557.26413332606046
 21
425.94506697635529
  0
LINE
  8
_0-1_DEFPOINTS
  6
CONTINUOUS
 62
    7
 10
557.26413332606046
 20
425.94506697635529
 11
557.15837301479894
 21
426.09451423136107
  0
LINE
  8
_0-1_DEFPOINTS
  6
CONTINUOUS
 62
    7
 10
557.15837301479894
 20
426.09451423136107
 11
557.05260602969952
 21
426.24166568608462
  0
LINE
  8
_0-1_DEFPOINTS
  6
CONTINUOUS
 62
    7
 10
557.05260602969952
 20
426.24166568608462
 11
556.94684571843811
 21
426.34742599734608
  0
LINE
  8
_0-1_DEFPOINTS
  6
CONTINUOUS
 62
    7
 10
556.94684571843811
 20
426.34742599734608
 11
556.84108540717671
 21
426.45319298244556
  0
LINE
  8
_0-1_DEFPOINTS
  6
CONTINUOUS
 62
    7
 10
556.84108540717671
 20
426.45319298244556
 11
556.73531842207717
 21
426.55895329370679
  0
LINE
  8
_0-1_DEFPOINTS
  6
CONTINUOUS
 62
    7
 10
556.73531842207717
 20
426.55895329370679
 11
556.62955811081588
 21
426.66472027880627
  0
LINE
  8
_0-1_DEFPOINTS
  6
CONTINUOUS
 62
    7
 10
553.02670667183452
 20
434.88666182127326
 11
553.0899346133308
 21
434.53717961899429
  0
LINE
  8
_0-1_DEFPOINTS
  6
CONTINUOUS
 62
    7
 10
553.0899346133308
 20
434.53717961899429
 11
553.15316255482696
 21
434.18770409055344
  0
LINE
  8
_0-1_DEFPOINTS
  6
CONTINUOUS
 62
    7
 10
553.15316255482696
 20
434.18770409055344
 11
553.21754507030232
 21
433.83822856211236
  0
LINE
  8
_0-1_DEFPOINTS
  6
CONTINUOUS
 62
    7
 10
553.21754507030232
 20
433.83822856211236
 11
553.28077301179849
 21
433.48874635983339
  0
LINE
  8
_0-1_DEFPOINTS
  6
CONTINUOUS
 62
    7
 10
553.28077301179849
 20
433.48874635983339
 11
553.35549330238246
 21
433.18985184982188
  0
LINE
  8
_0-1_DEFPOINTS
  6
CONTINUOUS
 62
    7
 10
553.35549330238246
 20
433.18985184982188
 11
553.42906569282513
 21
432.89325314009261
  0
LINE
  8
_0-1_DEFPOINTS
  6
CONTINUOUS
 62
    7
 10
553.42906569282513
 20
432.89325314009261
 11
553.50264475710583
 21
432.59665443036334
  0
LINE
  8
_0-1_DEFPOINTS
  6
CONTINUOUS
 62
    7
 10
553.50264475710583
 20
432.59665443036334
 11
553.5773650476898
 21
432.29775992035184
  0
LINE
  8
_0-1_DEFPOINTS
  6
CONTINUOUS
 62
    7
 10
553.5773650476898
 20
432.29775992035184
 11
553.65209201211178
 21
432.04484815436683
  0
LINE
  8
_0-1_DEFPOINTS
  6
CONTINUOUS
 62
    7
 10
553.65209201211178
 20
432.04484815436683
 11
553.72566440255446
 21
431.791936388382
  0
LINE
  8
_0-1_DEFPOINTS
  6
CONTINUOUS
 62
    7
 10
553.72566440255446
 20
431.791936388382
 11
553.79923679299714
 21
431.53902462239699
  0
LINE
  8
_0-1_DEFPOINTS
  6
CONTINUOUS
 62
    7
 10
553.79923679299714
 20
431.53902462239699
 11
553.87396375741901
 21
431.28611285641222
  0
LINE
  8
_0-1_DEFPOINTS
  6
CONTINUOUS
 62
    7
 10
556.62840353683669
 20
426.66472027880627
 11
556.70313050125856
 21
426.91763204479128
  0
LINE
  8
_0-1_DEFPOINTS
  6
CONTINUOUS
 62
    7
 10
556.70313050125856
 20
426.91763204479128
 11
556.77670289170135
 21
427.17283961105835
  0
LINE
  8
_0-1_DEFPOINTS
  6
CONTINUOUS
 62
    7
 10
556.77670289170135
 20
427.17283961105835
 11
556.85028195598204
 21
427.42805385116355
  0
LINE
  8
_0-1_DEFPOINTS
  6
CONTINUOUS
 62
    7
 10
556.85028195598204
 20
427.42805385116355
 11
556.92500224656601
 21
427.68096561714856
  0
LINE
  8
_0-1_DEFPOINTS
  6
CONTINUOUS
 62
    7
 10
556.92500224656601
 20
427.68096561714856
 11
556.99972921098788
 21
427.97756432687777
  0
LINE
  8
_0-1_DEFPOINTS
  6
CONTINUOUS
 62
    7
 10
556.99972921098788
 20
427.97756432687777
 11
557.07330160143056
 21
428.27415636276891
  0
LINE
  8
_0-1_DEFPOINTS
  6
CONTINUOUS
 62
    7
 10
557.07330160143056
 20
428.27415636276891
 11
557.14687399187324
 21
428.57075507249817
  0
LINE
  8
_0-1_DEFPOINTS
  6
CONTINUOUS
 62
    7
 10
557.14687399187324
 20
428.57075507249817
 11
557.22160095629522
 21
428.86735378222744
  0
LINE
  8
_0-1_DEFPOINTS
  6
CONTINUOUS
 62
    7
 10
557.22160095629522
 20
428.86735378222744
 11
557.28482889779139
 21
429.21682931066846
  0
LINE
  8
_0-1_DEFPOINTS
  6
CONTINUOUS
 62
    7
 10
557.28482889779139
 20
429.21682931066846
 11
557.34920473942884
 21
429.56631151294749
  0
LINE
  8
_0-1_DEFPOINTS
  6
CONTINUOUS
 62
    7
 10
557.34920473942884
 20
429.56631151294749
 11
557.41243268092501
 21
429.91578704138828
  0
LINE
  8
_0-1_DEFPOINTS
  6
CONTINUOUS
 62
    7
 10
557.41243268092501
 20
429.91578704138828
 11
557.47566062242129
 21
430.26526924366738
  0
LINE
  8
_0-1_DEFPOINTS
  6
CONTINUOUS
 62
    7
 10
553.02670667183452
 20
430.26526924366738
 11
553.0899346133308
 21
429.91578704138828
  0
LINE
  8
_0-1_DEFPOINTS
  6
CONTINUOUS
 62
    7
 10
553.0899346133308
 20
429.91578704138828
 11
553.15316255482696
 21
429.56631151294749
  0
LINE
  8
_0-1_DEFPOINTS
  6
CONTINUOUS
 62
    7
 10
553.15316255482696
 20
429.56631151294749
 11
553.21754507030232
 21
429.21682931066846
  0
LINE
  8
_0-1_DEFPOINTS
  6
CONTINUOUS
 62
    7
 10
553.21754507030232
 20
429.21682931066846
 11
553.28077301179849
 21
428.86735378222744
  0
LINE
  8
_0-1_DEFPOINTS
  6
CONTINUOUS
 62
    7
 10
553.28077301179849
 20
428.86735378222744
 11
553.35549330238246
 21
428.57075507249817
  0
LINE
  8
_0-1_DEFPOINTS
  6
CONTINUOUS
 62
    7
 10
553.35549330238246
 20
428.57075507249817
 11
553.42906569282513
 21
428.27415636276891
  0
LINE
  8
_0-1_DEFPOINTS
  6
CONTINUOUS
 62
    7
 10
553.42906569282513
 20
428.27415636276891
 11
553.50264475710583
 21
427.97756432687777
  0
LINE
  8
_0-1_DEFPOINTS
  6
CONTINUOUS
 62
    7
 10
553.50264475710583
 20
427.97756432687777
 11
553.5773650476898
 21
427.68096561714856
  0
LINE
  8
_0-1_DEFPOINTS
  6
CONTINUOUS
 62
    7
 10
553.5773650476898
 20
427.68096561714856
 11
553.65209201211178
 21
427.42805385116355
  0
LINE
  8
_0-1_DEFPOINTS
  6
CONTINUOUS
 62
    7
 10
553.65209201211178
 20
427.42805385116355
 11
553.72566440255446
 21
427.17283961105835
  0
LINE
  8
_0-1_DEFPOINTS
  6
CONTINUOUS
 62
    7
 10
553.72566440255446
 20
427.17283961105835
 11
553.79923679299714
 21
426.91763204479128
  0
LINE
  8
_0-1_DEFPOINTS
  6
CONTINUOUS
 62
    7
 10
553.79923679299714
 20
426.91763204479128
 11
553.87396375741901
 21
426.66472027880627
  0
LINE
  8
_0-1_DEFPOINTS
  6
CONTINUOUS
 62
    7
 10
556.62840353683669
 20
440.47831699319477
 11
556.70313050125856
 21
440.73353123329991
  0
LINE
  8
_0-1_DEFPOINTS
  6
CONTINUOUS
 62
    7
 10
556.70313050125856
 20
440.73353123329991
 11
556.77670289170135
 21
440.98873879956722
  0
LINE
  8
_0-1_DEFPOINTS
  6
CONTINUOUS
 62
    7
 10
556.77670289170135
 20
440.98873879956722
 11
556.85028195598204
 21
441.24395303967242
  0
LINE
  8
_0-1_DEFPOINTS
  6
CONTINUOUS
 62
    7
 10
556.85028195598204
 20
441.24395303967242
 11
556.92500224656601
 21
441.49916060593966
  0
LINE
  8
_0-1_DEFPOINTS
  6
CONTINUOUS
 62
    7
 10
556.92500224656601
 20
441.49916060593966
 11
556.99972921098788
 21
441.79575931566887
  0
LINE
  8
_0-1_DEFPOINTS
  6
CONTINUOUS
 62
    7
 10
556.99972921098788
 20
441.79575931566887
 11
557.07330160143056
 21
442.09235802539803
  0
LINE
  8
_0-1_DEFPOINTS
  6
CONTINUOUS
 62
    7
 10
557.07330160143056
 20
442.09235802539803
 11
557.14687399187324
 21
442.38895673512729
  0
LINE
  8
_0-1_DEFPOINTS
  6
CONTINUOUS
 62
    7
 10
557.14687399187324
 20
442.38895673512729
 11
557.22160095629522
 21
442.68554877101855
  0
LINE
  8
_0-1_DEFPOINTS
  6
CONTINUOUS
 62
    7
 10
557.22160095629522
 20
442.68554877101855
 11
557.28482889779139
 21
443.03503097329758
  0
LINE
  8
_0-1_DEFPOINTS
  6
CONTINUOUS
 62
    7
 10
557.28482889779139
 20
443.03503097329758
 11
557.34920473942884
 21
443.38450650173854
  0
LINE
  8
_0-1_DEFPOINTS
  6
CONTINUOUS
 62
    7
 10
557.34920473942884
 20
443.38450650173854
 11
557.41243268092501
 21
443.73398870401741
  0
LINE
  8
_0-1_DEFPOINTS
  6
CONTINUOUS
 62
    7
 10
557.41243268092501
 20
443.73398870401741
 11
557.47566062242129
 21
444.08346423245848
  0
LINE
  8
_0-1_DEFPOINTS
  6
CONTINUOUS
 62
    7
 10
553.02670667183452
 20
425.64847494046404
 11
553.0899346133308
 21
425.30818928699046
  0
LINE
  8
_0-1_DEFPOINTS
  6
CONTINUOUS
 62
    7
 10
553.0899346133308
 20
425.30818928699046
 11
553.15316255482696
 21
424.97020610763713
  0
LINE
  8
_0-1_DEFPOINTS
  6
CONTINUOUS
 62
    7
 10
553.15316255482696
 20
424.97020610763713
 11
553.21754507030232
 21
424.63222292828397
  0
LINE
  8
_0-1_DEFPOINTS
  6
CONTINUOUS
 62
    7
 10
553.21754507030232
 20
424.63222292828397
 11
553.28077301179849
 21
424.29194394864822
  0
LINE
  8
_0-1_DEFPOINTS
  6
CONTINUOUS
 62
    7
 10
553.28077301179849
 20
424.29194394864822
 11
553.35549330238246
 21
423.98385288983127
  0
LINE
  8
_0-1_DEFPOINTS
  6
CONTINUOUS
 62
    7
 10
553.35549330238246
 20
423.98385288983127
 11
553.42906569282513
 21
423.67575515717652
  0
LINE
  8
_0-1_DEFPOINTS
  6
CONTINUOUS
 62
    7
 10
553.42906569282513
 20
423.67575515717652
 11
553.50264475710583
 21
423.36766409835957
  0
LINE
  8
_0-1_DEFPOINTS
  6
CONTINUOUS
 62
    7
 10
553.50264475710583
 20
423.36766409835957
 11
553.5773650476898
 21
423.05957303954256
  0
LINE
  8
_0-1_DEFPOINTS
  6
CONTINUOUS
 62
    7
 10
553.5773650476898
 20
423.05957303954256
 11
553.65209201211178
 21
422.80666127355778
  0
LINE
  8
_0-1_DEFPOINTS
  6
CONTINUOUS
 62
    7
 10
553.65209201211178
 20
422.80666127355778
 11
553.72566440255446
 21
422.5514470334524
  0
LINE
  8
_0-1_DEFPOINTS
  6
CONTINUOUS
 62
    7
 10
553.72566440255446
 20
422.5514470334524
 11
553.79923679299714
 21
422.29623946718533
  0
LINE
  8
_0-1_DEFPOINTS
  6
CONTINUOUS
 62
    7
 10
553.79923679299714
 20
422.29623946718533
 11
553.87396375741901
 21
422.04332770120038
  0
LINE
  8
_0-1_DEFPOINTS
  6
CONTINUOUS
 62
    7
 10
556.62840353683669
 20
431.28381038229179
 11
556.70313050125856
 21
431.53902462239699
  0
LINE
  8
_0-1_DEFPOINTS
  6
CONTINUOUS
 62
    7
 10
556.70313050125856
 20
431.53902462239699
 11
556.77670289170135
 21
431.791936388382
  0
LINE
  8
_0-1_DEFPOINTS
  6
CONTINUOUS
 62
    7
 10
556.77670289170135
 20
431.791936388382
 11
556.85028195598204
 21
432.0471506284872
  0
LINE
  8
_0-1_DEFPOINTS
  6
CONTINUOUS
 62
    7
 10
556.85028195598204
 20
432.0471506284872
 11
556.92500224656601
 21
432.30235819475445
  0
LINE
  8
_0-1_DEFPOINTS
  6
CONTINUOUS
 62
    7
 10
556.92500224656601
 20
432.30235819475445
 11
556.99972921098788
 21
432.59895690448377
  0
LINE
  8
_0-1_DEFPOINTS
  6
CONTINUOUS
 62
    7
 10
556.99972921098788
 20
432.59895690448377
 11
557.07330160143056
 21
432.89555561421304
  0
LINE
  8
_0-1_DEFPOINTS
  6
CONTINUOUS
 62
    7
 10
557.07330160143056
 20
432.89555561421304
 11
557.14687399187324
 21
433.19214765010418
  0
LINE
  8
_0-1_DEFPOINTS
  6
CONTINUOUS
 62
    7
 10
557.14687399187324
 20
433.19214765010418
 11
557.22160095629522
 21
433.48874635983339
  0
LINE
  8
_0-1_DEFPOINTS
  6
CONTINUOUS
 62
    7
 10
557.22160095629522
 20
433.48874635983339
 11
557.28482889779139
 21
433.83822856211236
  0
LINE
  8
_0-1_DEFPOINTS
  6
CONTINUOUS
 62
    7
 10
557.28482889779139
 20
433.83822856211236
 11
557.34920473942884
 21
434.18770409055344
  0
LINE
  8
_0-1_DEFPOINTS
  6
CONTINUOUS
 62
    7
 10
557.34920473942884
 20
434.18770409055344
 11
557.41243268092501
 21
434.53717961899429
  0
LINE
  8
_0-1_DEFPOINTS
  6
CONTINUOUS
 62
    7
 10
557.41243268092501
 20
434.53717961899429
 11
557.47566062242129
 21
434.88666182127326
  0
LINE
  8
_0-1_DEFPOINTS
  6
CONTINUOUS
 62
    7
 10
555.44201537175763
 20
430.98721834640071
 11
555.54893025699835
 21
430.99641489520599
  0
LINE
  8
_0-1_DEFPOINTS
  6
CONTINUOUS
 62
    7
 10
555.54893025699835
 20
430.99641489520599
 11
555.65469724209765
 21
431.00790724429368
  0
LINE
  8
_0-1_DEFPOINTS
  6
CONTINUOUS
 62
    7
 10
555.65469724209765
 20
431.00790724429368
 11
555.76045755335917
 21
431.01940626721932
  0
LINE
  8
_0-1_DEFPOINTS
  6
CONTINUOUS
 62
    7
 10
555.76045755335917
 20
431.01940626721932
 11
555.8662245384586
 21
431.02860281602477
  0
LINE
  8
_0-1_DEFPOINTS
  6
CONTINUOUS
 62
    7
 10
555.8662245384586
 20
431.02860281602477
 11
555.96164040077349
 21
431.05159418803805
  0
LINE
  8
_0-1_DEFPOINTS
  6
CONTINUOUS
 62
    7
 10
555.96164040077349
 20
431.05159418803805
 11
556.05705626308827
 21
431.07228975976909
  0
LINE
  8
_0-1_DEFPOINTS
  6
CONTINUOUS
 62
    7
 10
556.05705626308827
 20
431.07228975976909
 11
556.15132422526221
 21
431.09297865766194
  0
LINE
  8
_0-1_DEFPOINTS
  6
CONTINUOUS
 62
    7
 10
556.15132422526221
 20
431.09297865766194
 11
556.24674008757711
 21
431.11597002967534
  0
LINE
  8
_0-1_DEFPOINTS
  6
CONTINUOUS
 62
    7
 10
556.62840353683669
 20
435.86152268999143
 11
556.70313050125856
 21
436.11443445597627
  0
LINE
  8
_0-1_DEFPOINTS
  6
CONTINUOUS
 62
    7
 10
556.70313050125856
 20
436.11443445597627
 11
556.77670289170135
 21
436.36964869608153
  0
LINE
  8
_0-1_DEFPOINTS
  6
CONTINUOUS
 62
    7
 10
556.77670289170135
 20
436.36964869608153
 11
556.85028195598204
 21
436.62485626234866
  0
LINE
  8
_0-1_DEFPOINTS
  6
CONTINUOUS
 62
    7
 10
556.85028195598204
 20
436.62485626234866
 11
556.92500224656601
 21
436.87776802833366
  0
LINE
  8
_0-1_DEFPOINTS
  6
CONTINUOUS
 62
    7
 10
556.92500224656601
 20
436.87776802833366
 11
556.99972921098788
 21
437.18585908715062
  0
LINE
  8
_0-1_DEFPOINTS
  6
CONTINUOUS
 62
    7
 10
556.99972921098788
 20
437.18585908715062
 11
557.07330160143056
 21
437.49165434568516
  0
LINE
  8
_0-1_DEFPOINTS
  6
CONTINUOUS
 62
    7
 10
557.07330160143056
 20
437.49165434568516
 11
557.14687399187324
 21
437.79744960421971
  0
LINE
  8
_0-1_DEFPOINTS
  6
CONTINUOUS
 62
    7
 10
557.14687399187324
 20
437.79744960421971
 11
557.22160095629522
 21
438.10554066303666
  0
LINE
  8
_0-1_DEFPOINTS
  6
CONTINUOUS
 62
    7
 10
557.22160095629522
 20
438.10554066303666
 11
557.28482889779139
 21
438.44582631651019
  0
LINE
  8
_0-1_DEFPOINTS
  6
CONTINUOUS
 62
    7
 10
557.28482889779139
 20
438.44582631651019
 11
557.34920473942884
 21
438.78380949586358
  0
LINE
  8
_0-1_DEFPOINTS
  6
CONTINUOUS
 62
    7
 10
557.34920473942884
 20
438.78380949586358
 11
557.41243268092501
 21
439.12179267521697
  0
LINE
  8
_0-1_DEFPOINTS
  6
CONTINUOUS
 62
    7
 10
557.41243268092501
 20
439.12179267521697
 11
557.47566062242129
 21
439.46207165485248
  0
LINE
  8
_0-1_DEFPOINTS
  6
CONTINUOUS
 62
    7
 10
553.02670667183452
 20
444.08346423245848
 11
553.0899346133308
 21
443.73398870401741
  0
LINE
  8
_0-1_DEFPOINTS
  6
CONTINUOUS
 62
    7
 10
553.0899346133308
 20
443.73398870401741
 11
553.15316255482696
 21
443.38450650173854
  0
LINE
  8
_0-1_DEFPOINTS
  6
CONTINUOUS
 62
    7
 10
553.15316255482696
 20
443.38450650173854
 11
553.21754507030232
 21
443.03503097329758
  0
LINE
  8
_0-1_DEFPOINTS
  6
CONTINUOUS
 62
    7
 10
553.21754507030232
 20
443.03503097329758
 11
553.28077301179849
 21
442.68325297073631
  0
LINE
  8
_0-1_DEFPOINTS
  6
CONTINUOUS
 62
    7
 10
553.28077301179849
 20
442.68325297073631
 11
553.35549330238246
 21
442.3866542610071
  0
LINE
  8
_0-1_DEFPOINTS
  6
CONTINUOUS
 62
    7
 10
553.35549330238246
 20
442.3866542610071
 11
553.42906569282513
 21
442.08775975099542
  0
LINE
  8
_0-1_DEFPOINTS
  6
CONTINUOUS
 62
    7
 10
553.42906569282513
 20
442.08775975099542
 11
553.50264475710583
 21
441.79116104126604
  0
LINE
  8
_0-1_DEFPOINTS
  6
CONTINUOUS
 62
    7
 10
553.50264475710583
 20
441.79116104126604
 11
553.5773650476898
 21
441.49456233153677
  0
LINE
  8
_0-1_DEFPOINTS
  6
CONTINUOUS
 62
    7
 10
553.5773650476898
 20
441.49456233153677
 11
553.65209201211178
 21
441.24165056555199
  0
LINE
  8
_0-1_DEFPOINTS
  6
CONTINUOUS
 62
    7
 10
553.65209201211178
 20
441.24165056555199
 11
553.72566440255446
 21
440.9864429992848
  0
LINE
  8
_0-1_DEFPOINTS
  6
CONTINUOUS
 62
    7
 10
553.72566440255446
 20
440.9864429992848
 11
553.79923679299714
 21
440.7312287591796
  0
LINE
  8
_0-1_DEFPOINTS
  6
CONTINUOUS
 62
    7
 10
553.79923679299714
 20
440.7312287591796
 11
553.87396375741901
 21
440.47831699319477
  0
LINE
  8
_0-0_0
  6
CONTINUOUS
 62
    7
 10
551.79778613699034
 20
456.13756901629233
 11
551.79778613699034
 21
451.81254682634636
  0
LINE
  8
_0-0_0
  6
CONTINUOUS
 62
    7
 10
558.70573573124466
 20
456.13756901629233
 11
558.70573573124466
 21
451.81254682634636
  0
LINE
  8
_0-0_0
  6
CONTINUOUS
 62
    7
 10
558.70573573124466
 20
456.13756901629233
 11
563.62977449630569
 21
457.00580990462697
  0
LINE
  8
_0-0_0
  6
CONTINUOUS
 62
    7
 10
558.70573573124466
 20
456.13756901629233
 11
563.62977449630569
 21
455.26932812795764
  0
LINE
  8
_0-0_0
  6
CONTINUOUS
 62
    7
 10
551.79778613699034
 20
456.13756901629233
 11
546.87374737192931
 21
457.00580990462697
  0
LINE
  8
_0-0_0
  6
CONTINUOUS
 62
    7
 10
551.79778613699034
 20
456.13756901629233
 11
546.87374737192931
 21
455.26932812795764
  0
LINE
  8
_0-0_0
  6
CONTINUOUS
 62
    7
 10
551.79778613699034
 20
456.13756901629233
 11
585.57305837445699
 21
456.13756901629233
  0
TEXT
  8
_0-0_0
 62
    7
 10
569.37742374200309
 20
456.60079347693465
 40
15
 41
1
 50
0
  1
φ7
  0
LINE
  8
_0-0_0
  6
CONTINUOUS
 62
    7
 10
592.51649418499505
 20
420.94430674977218
 11
592.51649418499505
 21
449.93033364448513
  0
LINE
  8
_0-0_0
  6
CONTINUOUS
 62
    7
 10
592.51649418499505
 20
420.94430674977218
 11
591.64825329666053
 21
425.86834551483321
  0
LINE
  8
_0-0_0
  6
CONTINUOUS
 62
    7
 10
592.51649418499505
 20
420.94430674977218
 11
593.38473507332981
 21
425.86834551483321
  0
LINE
  8
_0-0_0
  6
CONTINUOUS
 62
    7
 10
592.51649418499505
 20
449.93033364448513
 11
593.38473507332981
 21
445.0062948794241
  0
LINE
  8
_0-0_0
  6
CONTINUOUS
 62
    7
 10
592.51649418499505
 20
449.93033364448513
 11
591.64825329666053
 21
445.0062948794241
  0
LINE
  8
_0-0_0
  6
CONTINUOUS
 62
    7
 10
592.51649418499505
 20
420.94430674977218
 11
579.08955962516302
 21
420.94430674977218
  0
LINE
  8
_0-0_0
  6
CONTINUOUS
 62
    7
 10
592.51649418499505
 20
449.93033364448513
 11
579.08955962516302
 21
449.93033364448513
  0
TEXT
  8
_0-0_0
 62
    7
 10
590.01649418499505
 20
427.31232019712866
 40
15
 41
1
 50
90
  1
33
  0
LINE
  8
_0-0_0
  6
CONTINUOUS
 62
    7
 10
459.99813704790165
 20
348.73100337883341
 11
459.99813704790165
 21
420.94430674977218
  0
LINE
  8
_0-0_0
  6
CONTINUOUS
 62
    7
 10
459.99813704790165
 20
348.73100337883341
 11
459.12989615956695
 21
353.65504214389455
  0
LINE
  8
_0-0_0
  6
CONTINUOUS
 62
    7
 10
459.99813704790165
 20
348.73100337883341
 11
460.86637793623629
 21
353.65504214389455
  0
LINE
  8
_0-0_0
  6
CONTINUOUS
 62
    7
 10
459.99813704790165
 20
420.94430674977218
 11
460.86637793623629
 21
416.02026798471115
  0
LINE
  8
_0-0_0
  6
CONTINUOUS
 62
    7
 10
459.99813704790165
 20
420.94430674977218
 11
459.12989615956695
 21
416.02026798471115
  0
LINE
  8
_0-0_0
  6
CONTINUOUS
 62
    7
 10
459.99813704790165
 20
348.73100337883341
 11
470.01992354027635
 21
348.73100337883341
  0
LINE
  8
_0-0_0
  6
CONTINUOUS
 62
    7
 10
459.99813704790165
 20
420.94430674977218
 11
470.01992354027635
 21
420.94430674977218
  0
TEXT
  8
_0-0_0
 62
    7
 10
457.49813704790165
 20
376.71265506430279
 40
15
 41
1
 50
90
  1
72
  0
LINE
  8
_0-0_0
  6
CONTINUOUS
 62
    7
 10
438.42950959692126
 20
420.94430674977218
 11
438.42950959692126
 21
337.0326729542154
  0
LINE
  8
_0-0_0
  6
CONTINUOUS
 62
    7
 10
438.42950959692126
 20
420.94430674977218
 11
439.2977504852559
 21
416.02026798471115
  0
LINE
  8
_0-0_0
  6
CONTINUOUS
 62
    7
 10
438.42950959692126
 20
420.94430674977218
 11
437.56126870858657
 21
416.02026798471115
  0
LINE
  8
_0-0_0
  6
CONTINUOUS
 62
    7
 10
438.42950959692126
 20
337.0326729542154
 11
437.56126870858657
 21
341.95671171927648
  0
LINE
  8
_0-0_0
  6
CONTINUOUS
 62
    7
 10
438.42950959692126
 20
337.0326729542154
 11
439.2977504852559
 21
341.95671171927648
  0
LINE
  8
_0-0_0
  6
CONTINUOUS
 62
    7
 10
438.42950959692126
 20
420.94430674977218
 11
459.99813704790165
 21
420.94430674977218
  0
LINE
  8
_0-0_0
  6
CONTINUOUS
 62
    7
 10
438.42950959692126
 20
337.0326729542154
 11
459.99813704790165
 21
337.0326729542154
  0
TEXT
  8
_0-0_0
 62
    7
 10
435.92950959692126
 20
370.86348985199379
 40
15
 41
1
 50
90
  1
84
  0
LINE
  8
_0-0_0
  6
CONTINUOUS
 62
    7
 10
475.6425002475757
 20
315.936708913068
 11
638.29487145920689
 21
315.936708913068
  0
LINE
  8
_0-0_0
  6
CONTINUOUS
 62
    7
 10
475.6425002475757
 20
315.936708913068
 11
480.56653901263672
 21
316.8049498014027
  0
LINE
  8
_0-0_0
  6
CONTINUOUS
 62
    7
 10
475.6425002475757
 20
315.936708913068
 11
480.56653901263672
 21
315.06846802473331
  0
LINE
  8
_0-0_0
  6
CONTINUOUS
 62
    7
 10
638.29487145920689
 20
315.936708913068
 11
633.37083269414586
 21
315.06846802473331
  0
LINE
  8
_0-0_0
  6
CONTINUOUS
 62
    7
 10
638.29487145920689
 20
315.936708913068
 11
633.37083269414586
 21
316.8049498014027
  0
LINE
  8
_0-0_0
  6
CONTINUOUS
 62
    7
 10
475.6425002475757
 20
315.936708913068
 11
475.6425002475757
 21
324.13644866775491
  0
LINE
  8
_0-0_0
  6
CONTINUOUS
 62
    7
 10
638.29487145920689
 20
315.936708913068
 11
638.29487145920689
 21
324.13644866775491
  0
TEXT
  8
_0-0_0
 62
    7
 10
544.46868585339121
 20
318.436708913068
 40
15
 41
1
 50
0
  1
162
  0
LINE
  8
_0-1_DEFPOINTS
  6
CONTINUOUS
 62
    7
 10
906.62808167676314
 20
808.0929263099149
 11
906.02569438233729
 21
807.59515142660939
  0
LINE
  8
_0-1_DEFPOINTS
  6
CONTINUOUS
 62
    7
 10
906.02569438233729
 20
807.59515142660939
 11
905.42330041407354
 21
807.09622196932469
  0
LINE
  8
_0-1_DEFPOINTS
  6
CONTINUOUS
 62
    7
 10
905.42330041407354
 20
807.09622196932469
 11
904.82091311964768
 21
806.59844708601906
  0
LINE
  8
_0-1_DEFPOINTS
  6
CONTINUOUS
 62
    7
 10
904.82091311964768
 20
806.59844708601906
 11
904.21622335110158
 21
806.10067220271333
  0
LINE
  8
_0-1_DEFPOINTS
  6
CONTINUOUS
 62
    7
 10
907.56155807585731
 20
808.0929263099149
 11
908.18694341613445
 21
808.4527529611405
  0
LINE
  8
_0-1_DEFPOINTS
  6
CONTINUOUS
 62
    7
 10
908.18694341613445
 20
808.4527529611405
 11
908.81232875641172
 21
808.81372751250728
  0
LINE
  8
_0-1_DEFPOINTS
  6
CONTINUOUS
 62
    7
 10
908.81232875641172
 20
808.81372751250728
 11
909.43770742285096
 21
809.17355416373255
  0
LINE
  8
_0-1_DEFPOINTS
  6
CONTINUOUS
 62
    7
 10
909.43770742285096
 20
809.17355416373255
 11
910.063092763128
 21
809.53337414112002
  0
LINE
  8
_0-1_DEFPOINTS
  6
CONTINUOUS
 62
    7
 10
926.33683302132522
 20
812.71202308723878
 11
925.55281055107503
 21
811.91764949420372
  0
LINE
  8
_0-1_DEFPOINTS
  6
CONTINUOUS
 62
    7
 10
925.55281055107503
 20
811.91764949420372
 11
924.76878140698659
 21
811.1221280010277
  0
LINE
  8
_0-1_DEFPOINTS
  6
CONTINUOUS
 62
    7
 10
924.76878140698659
 20
811.1221280010277
 11
923.98475226289838
 21
810.32774773415497
  0
LINE
  8
_0-1_DEFPOINTS
  6
CONTINUOUS
 62
    7
 10
923.98475226289838
 20
810.32774773415497
 11
923.20072311881006
 21
809.53337414112002
  0
LINE
  8
_0-1_DEFPOINTS
  6
CONTINUOUS
 62
    7
 10
926.5069758480621
 20
812.58441930410504
 11
925.74364227570481
 21
811.82107905790974
  0
LINE
  8
_0-1_DEFPOINTS
  6
CONTINUOUS
 62
    7
 10
925.74364227570481
 20
811.82107905790974
 11
924.98030870334742
 21
811.05890005953154
  0
LINE
  8
_0-1_DEFPOINTS
  6
CONTINUOUS
 62
    7
 10
924.98030870334742
 20
811.05890005953154
 11
924.21697513099025
 21
810.29671438731543
  0
LINE
  8
_0-1_DEFPOINTS
  6
CONTINUOUS
 62
    7
 10
924.21697513099025
 20
810.29671438731543
 11
923.45363488479484
 21
809.53337414112002
  0
LINE
  8
_0-1_DEFPOINTS
  6
CONTINUOUS
 62
    7
 10
923.87668947751649
 20
808.98271576526486
 11
924.6607186216047
 21
809.75640046040667
  0
LINE
  8
_0-1_DEFPOINTS
  6
CONTINUOUS
 62
    7
 10
924.6607186216047
 20
809.75640046040667
 11
925.44474776569336
 21
810.52893058156928
  0
LINE
  8
_0-1_DEFPOINTS
  6
CONTINUOUS
 62
    7
 10
925.44474776569336
 20
810.52893058156928
 11
926.22877023594356
 21
811.30261527671109
  0
LINE
  8
_0-1_DEFPOINTS
  6
CONTINUOUS
 62
    7
 10
926.22877023594356
 20
811.30261527671109
 11
927.01279938003177
 21
812.07629329801489
  0
LINE
  8
_0-1_DEFPOINTS
  6
CONTINUOUS
 62
    7
 10
923.96405669116712
 20
808.7275081989975
 11
924.75958485818126
 21
809.53337414112002
  0
LINE
  8
_0-1_DEFPOINTS
  6
CONTINUOUS
 62
    7
 10
924.75958485818126
 20
809.53337414112002
 11
925.55281055107503
 21
810.3380988569395
  0
LINE
  8
_0-1_DEFPOINTS
  6
CONTINUOUS
 62
    7
 10
925.55281055107503
 20
810.3380988569395
 11
926.34602957013067
 21
811.14281689892084
  0
LINE
  8
_0-1_DEFPOINTS
  6
CONTINUOUS
 62
    7
 10
926.34602957013067
 20
811.14281689892084
 11
927.14155773714469
 21
811.94868951488115
  0
LINE
  8
_0-1_DEFPOINTS
  6
CONTINUOUS
 62
    7
 10
933.20225024581441
 20
811.14396479906191
 11
933.12867785537162
 21
811.06924450847816
  0
LINE
  8
_0-1_DEFPOINTS
  6
CONTINUOUS
 62
    7
 10
933.12867785537162
 20
811.06924450847816
 11
933.05280299080869
 21
810.99567211803537
  0
LINE
  8
_0-1_DEFPOINTS
  6
CONTINUOUS
 62
    7
 10
933.05280299080869
 20
810.99567211803537
 11
932.97692812624564
 21
810.92209305375468
  0
LINE
  8
_0-1_DEFPOINTS
  6
CONTINUOUS
 62
    7
 10
932.97692812624564
 20
810.92209305375468
 11
932.90335573580273
 21
810.84737276317071
  0
LINE
  8
_0-1_DEFPOINTS
  6
CONTINUOUS
 62
    7
 10
906.62808167676314
 20
782.66491601029782
 11
906.02569438233729
 21
782.16714112699242
  0
LINE
  8
_0-1_DEFPOINTS
  6
CONTINUOUS
 62
    7
 10
906.02569438233729
 20
782.16714112699242
 11
905.42330041407354
 21
781.66935956984867
  0
LINE
  8
_0-1_DEFPOINTS
  6
CONTINUOUS
 62
    7
 10
905.42330041407354
 20
781.66935956984867
 11
904.82091311964768
 21
781.17043678640198
  0
LINE
  8
_0-1_DEFPOINTS
  6
CONTINUOUS
 62
    7
 10
904.82091311964768
 20
781.17043678640198
 11
904.21622335110158
 21
780.67265522925834
  0
LINE
  8
_0-1_DEFPOINTS
  6
CONTINUOUS
 62
    7
 10
927.48183671678021
 20
802.92202325659503
 11
927.73474848276521
 21
803.04963371356678
  0
LINE
  8
_0-1_DEFPOINTS
  6
CONTINUOUS
 62
    7
 10
927.73474848276521
 20
803.04963371356678
 11
927.98996272287036
 21
803.176089596559
  0
LINE
  8
_0-1_DEFPOINTS
  6
CONTINUOUS
 62
    7
 10
927.98996272287036
 20
803.176089596559
 11
928.2451702891376
 21
803.30254547955155
  0
LINE
  8
_0-1_DEFPOINTS
  6
CONTINUOUS
 62
    7
 10
928.2451702891376
 20
803.30254547955155
 11
928.4980820551225
 21
803.43014926268529
  0
LINE
  8
_0-1_DEFPOINTS
  6
CONTINUOUS
 62
    7
 10
927.01279938003177
 20
800.08251206380896
 11
927.04498730085049
 21
800.1250444335742
  0
LINE
  8
_0-1_DEFPOINTS
  6
CONTINUOUS
 62
    7
 10
927.04498730085049
 20
800.1250444335742
 11
927.07717522166934
 21
800.16643557703617
  0
LINE
  8
_0-1_DEFPOINTS
  6
CONTINUOUS
 62
    7
 10
927.07717522166934
 20
800.16643557703617
 11
927.10936981632597
 21
800.20896794680141
  0
LINE
  8
_0-1_DEFPOINTS
  6
CONTINUOUS
 62
    7
 10
927.10936981632597
 20
800.20896794680141
 11
927.14155773714469
 21
800.25150031656653
  0
LINE
  8
_0-1_DEFPOINTS
  6
CONTINUOUS
 62
    7
 10
907.56155807585731
 20
782.66491601029782
 11
908.18694341613445
 21
783.02474266152342
  0
LINE
  8
_0-1_DEFPOINTS
  6
CONTINUOUS
 62
    7
 10
908.18694341613445
 20
783.02474266152342
 11
908.81232875641172
 21
783.38456263891089
  0
LINE
  8
_0-1_DEFPOINTS
  6
CONTINUOUS
 62
    7
 10
908.81232875641172
 20
783.38456263891089
 11
909.43770742285096
 21
783.74553719027745
  0
LINE
  8
_0-1_DEFPOINTS
  6
CONTINUOUS
 62
    7
 10
909.43770742285096
 20
783.74553719027745
 11
910.063092763128
 21
784.10536384150294
  0
LINE
  8
_0-1_DEFPOINTS
  6
CONTINUOUS
 62
    7
 10
926.33683302132522
 20
787.28401278762158
 11
925.55281055107503
 21
786.48963252074861
  0
LINE
  8
_0-1_DEFPOINTS
  6
CONTINUOUS
 62
    7
 10
925.55281055107503
 20
786.48963252074861
 11
924.76878140698659
 21
785.69525892771389
  0
LINE
  8
_0-1_DEFPOINTS
  6
CONTINUOUS
 62
    7
 10
924.76878140698659
 20
785.69525892771389
 11
923.98475226289838
 21
784.89973743453788
  0
LINE
  8
_0-1_DEFPOINTS
  6
CONTINUOUS
 62
    7
 10
923.98475226289838
 20
784.89973743453788
 11
923.20072311881006
 21
784.10536384150294
  0
LINE
  8
_0-1_DEFPOINTS
  6
CONTINUOUS
 62
    7
 10
926.5069758480621
 20
787.15755690462902
 11
925.74364227570481
 21
786.39421665843372
  0
LINE
  8
_0-1_DEFPOINTS
  6
CONTINUOUS
 62
    7
 10
925.74364227570481
 20
786.39421665843372
 11
924.98030870334742
 21
785.63203098621761
  0
LINE
  8
_0-1_DEFPOINTS
  6
CONTINUOUS
 62
    7
 10
924.98030870334742
 20
785.63203098621761
 11
924.21697513099025
 21
784.8698453140014
  0
LINE
  8
_0-1_DEFPOINTS
  6
CONTINUOUS
 62
    7
 10
924.21697513099025
 20
784.8698453140014
 11
923.45363488479484
 21
784.10651174164423
  0
LINE
  8
_0-1_DEFPOINTS
  6
CONTINUOUS
 62
    7
 10
923.87668947751649
 20
783.55470546564777
 11
924.6607186216047
 21
784.32839016078958
  0
LINE
  8
_0-1_DEFPOINTS
  6
CONTINUOUS
 62
    7
 10
924.6607186216047
 20
784.32839016078958
 11
925.44474776569336
 21
785.10206818209326
  0
LINE
  8
_0-1_DEFPOINTS
  6
CONTINUOUS
 62
    7
 10
925.44474776569336
 20
785.10206818209326
 11
926.22877023594356
 21
785.87459830325599
  0
LINE
  8
_0-1_DEFPOINTS
  6
CONTINUOUS
 62
    7
 10
926.22877023594356
 20
785.87459830325599
 11
927.01279938003177
 21
786.6482829983978
  0
LINE
  8
_0-1_DEFPOINTS
  6
CONTINUOUS
 62
    7
 10
923.96405669116712
 20
783.30064579952159
 11
924.75958485818126
 21
784.10651174164423
  0
LINE
  8
_0-1_DEFPOINTS
  6
CONTINUOUS
 62
    7
 10
924.75958485818126
 20
784.10651174164423
 11
925.55281055107503
 21
784.91123645746359
  0
LINE
  8
_0-1_DEFPOINTS
  6
CONTINUOUS
 62
    7
 10
925.55281055107503
 20
784.91123645746359
 11
926.34602957013067
 21
785.71595449944482
  0
LINE
  8
_0-1_DEFPOINTS
  6
CONTINUOUS
 62
    7
 10
926.34602957013067
 20
785.71595449944482
 11
927.14155773714469
 21
786.52182711540547
  0
LINE
  8
_0-1_DEFPOINTS
  6
CONTINUOUS
 62
    7
 10
927.01279938003177
 20
774.65564966433294
 11
927.04498730085049
 21
774.69818203409818
  0
LINE
  8
_0-1_DEFPOINTS
  6
CONTINUOUS
 62
    7
 10
927.04498730085049
 20
774.69818203409818
 11
927.07717522166934
 21
774.73956650372213
  0
LINE
  8
_0-1_DEFPOINTS
  6
CONTINUOUS
 62
    7
 10
927.07717522166934
 20
774.73956650372213
 11
927.10936981632597
 21
774.78210554732527
  0
LINE
  8
_0-1_DEFPOINTS
  6
CONTINUOUS
 62
    7
 10
927.10936981632597
 20
774.78210554732527
 11
927.14155773714469
 21
774.82463791709051
  0
LINE
  8
_0-1_DEFPOINTS
  6
CONTINUOUS
 62
    7
 10
933.20225024581441
 20
778.51140619546129
 11
933.12867785537162
 21
778.4274893560721
  0
LINE
  8
_0-1_DEFPOINTS
  6
CONTINUOUS
 62
    7
 10
933.12867785537162
 20
778.4274893560721
 11
933.05280299080869
 21
778.34241794270361
  0
LINE
  8
_0-1_DEFPOINTS
  6
CONTINUOUS
 62
    7
 10
933.05280299080869
 20
778.34241794270361
 11
932.97692812624564
 21
778.25734652933511
  0
LINE
  8
_0-1_DEFPOINTS
  6
CONTINUOUS
 62
    7
 10
932.97692812624564
 20
778.25734652933511
 11
932.90335573580273
 21
778.17227511596684
  0
LINE
  8
_0-1_DEFPOINTS
  6
CONTINUOUS
 62
    7
 10
927.48183671678021
 20
777.49516085711889
 11
927.73474848276521
 21
777.62276464025263
  0
LINE
  8
_0-1_DEFPOINTS
  6
CONTINUOUS
 62
    7
 10
927.73474848276521
 20
777.62276464025263
 11
927.98996272287036
 21
777.74922052324519
  0
LINE
  8
_0-1_DEFPOINTS
  6
CONTINUOUS
 62
    7
 10
927.98996272287036
 20
777.74922052324519
 11
928.2451702891376
 21
777.87567640623752
  0
LINE
  8
_0-1_DEFPOINTS
  6
CONTINUOUS
 62
    7
 10
928.2451702891376
 20
777.87567640623752
 11
928.4980820551225
 21
778.00328686320904
  0
LINE
  8
_0-1_DEFPOINTS
  6
CONTINUOUS
 62
    7
 10
905.99350646151856
 20
807.5836524036838
 11
905.99350646151856
 21
806.83181785425199
  0
LINE
  8
_0-1_DEFPOINTS
  6
CONTINUOUS
 62
    7
 10
905.99350646151856
 20
806.83181785425199
 11
905.99350646151856
 21
806.0799766309824
  0
LINE
  8
_0-1_DEFPOINTS
  6
CONTINUOUS
 62
    7
 10
905.99350646151856
 20
806.0799766309824
 11
905.99350646151856
 21
805.32813540771281
  0
LINE
  8
_0-1_DEFPOINTS
  6
CONTINUOUS
 62
    7
 10
905.99350646151856
 20
805.32813540771281
 11
905.99350646151856
 21
804.57515295814005
  0
LINE
  8
_0-1_DEFPOINTS
  6
CONTINUOUS
 62
    7
 10
905.99350646151856
 20
782.15679000420778
 11
905.99350646151856
 21
781.4049554547762
  0
LINE
  8
_0-1_DEFPOINTS
  6
CONTINUOUS
 62
    7
 10
905.99350646151856
 20
781.4049554547762
 11
905.99350646151856
 21
780.65311423150661
  0
LINE
  8
_0-1_DEFPOINTS
  6
CONTINUOUS
 62
    7
 10
905.99350646151856
 20
780.65311423150661
 11
905.99350646151856
 21
779.90127300823701
  0
LINE
  8
_0-1_DEFPOINTS
  6
CONTINUOUS
 62
    7
 10
905.99350646151856
 20
779.90127300823701
 11
905.99350646151856
 21
779.14828388482601
  0
LINE
  8
_0-1_DEFPOINTS
  6
CONTINUOUS
 62
    7
 10
906.62808167676314
 20
778.63901665243293
 11
906.62808167676314
 21
779.64606544196965
  0
LINE
  8
_0-1_DEFPOINTS
  6
CONTINUOUS
 62
    7
 10
906.62808167676314
 20
779.64606544196965
 11
906.62808167676314
 21
780.65196633136543
  0
LINE
  8
_0-1_DEFPOINTS
  6
CONTINUOUS
 62
    7
 10
906.62808167676314
 20
780.65196633136543
 11
906.62808167676314
 21
781.65786722076109
  0
LINE
  8
_0-1_DEFPOINTS
  6
CONTINUOUS
 62
    7
 10
906.62808167676314
 20
781.65786722076109
 11
906.62808167676314
 21
782.66491601029782
  0
LINE
  8
_0-1_DEFPOINTS
  6
CONTINUOUS
 62
    7
 10
906.62808167676314
 20
804.06702695205013
 11
906.62808167676314
 21
805.07292784144568
  0
LINE
  8
_0-1_DEFPOINTS
  6
CONTINUOUS
 62
    7
 10
906.62808167676314
 20
805.07292784144568
 11
906.62808167676314
 21
806.0799766309824
  0
LINE
  8
_0-1_DEFPOINTS
  6
CONTINUOUS
 62
    7
 10
906.62808167676314
 20
806.0799766309824
 11
906.62808167676314
 21
807.08702542051924
  0
LINE
  8
_0-1_DEFPOINTS
  6
CONTINUOUS
 62
    7
 10
906.62808167676314
 20
807.08702542051924
 11
906.62808167676314
 21
808.0929263099149
  0
LINE
  8
_0-1_DEFPOINTS
  6
CONTINUOUS
 62
    7
 10
909.08823189441
 20
807.03299402782841
 11
909.08823189441
 21
806.55591471625382
  0
LINE
  8
_0-1_DEFPOINTS
  6
CONTINUOUS
 62
    7
 10
909.08823189441
 20
806.55591471625382
 11
909.08823189441
 21
806.0799766309824
  0
LINE
  8
_0-1_DEFPOINTS
  6
CONTINUOUS
 62
    7
 10
909.08823189441
 20
806.0799766309824
 11
909.08823189441
 21
805.60289064556991
  0
LINE
  8
_0-1_DEFPOINTS
  6
CONTINUOUS
 62
    7
 10
909.08823189441
 20
805.60289064556991
 11
909.08823189441
 21
805.12581133399544
  0
LINE
  8
_0-1_DEFPOINTS
  6
CONTINUOUS
 62
    7
 10
909.08823189441
 20
781.6061316283525
 11
909.08823189441
 21
781.1290456429399
  0
LINE
  8
_0-1_DEFPOINTS
  6
CONTINUOUS
 62
    7
 10
909.08823189441
 20
781.1290456429399
 11
909.08823189441
 21
780.65311423150661
  0
LINE
  8
_0-1_DEFPOINTS
  6
CONTINUOUS
 62
    7
 10
909.08823189441
 20
780.65311423150661
 11
909.08823189441
 21
780.17602824609401
  0
LINE
  8
_0-1_DEFPOINTS
  6
CONTINUOUS
 62
    7
 10
909.08823189441
 20
780.17602824609401
 11
909.08823189441
 21
779.69894893451942
  0
LINE
  8
_0-1_DEFPOINTS
  6
CONTINUOUS
 62
    7
 10
910.063092763128
 20
805.12581133399544
 11
910.063092763128
 21
804.50042599371818
  0
LINE
  8
_0-1_DEFPOINTS
  6
CONTINUOUS
 62
    7
 10
910.063092763128
 20
804.50042599371818
 11
910.063092763128
 21
803.87504065344092
  0
LINE
  8
_0-1_DEFPOINTS
  6
CONTINUOUS
 62
    7
 10
910.063092763128
 20
803.87504065344092
 11
910.063092763128
 21
803.24966198700167
  0
LINE
  8
_0-1_DEFPOINTS
  6
CONTINUOUS
 62
    7
 10
910.063092763128
 20
803.24966198700167
 11
910.063092763128
 21
802.6254245468657
  0
LINE
  8
_0-1_DEFPOINTS
  6
CONTINUOUS
 62
    7
 10
910.063092763128
 20
779.69894893451942
 11
910.063092763128
 21
779.07356359424227
  0
LINE
  8
_0-1_DEFPOINTS
  6
CONTINUOUS
 62
    7
 10
910.063092763128
 20
779.07356359424227
 11
910.063092763128
 21
778.4481782539649
  0
LINE
  8
_0-1_DEFPOINTS
  6
CONTINUOUS
 62
    7
 10
910.063092763128
 20
778.4481782539649
 11
910.063092763128
 21
777.82279958752588
  0
LINE
  8
_0-1_DEFPOINTS
  6
CONTINUOUS
 62
    7
 10
910.063092763128
 20
777.82279958752588
 11
910.063092763128
 21
777.19856214738968
  0
LINE
  8
_0-1_DEFPOINTS
  6
CONTINUOUS
 62
    7
 10
910.063092763128
 20
781.6061316283525
 11
910.063092763128
 21
782.23036906848847
  0
LINE
  8
_0-1_DEFPOINTS
  6
CONTINUOUS
 62
    7
 10
910.063092763128
 20
782.23036906848847
 11
910.063092763128
 21
782.85574773492772
  0
LINE
  8
_0-1_DEFPOINTS
  6
CONTINUOUS
 62
    7
 10
910.063092763128
 20
782.85574773492772
 11
910.063092763128
 21
783.48113307520509
  0
LINE
  8
_0-1_DEFPOINTS
  6
CONTINUOUS
 62
    7
 10
910.063092763128
 20
783.48113307520509
 11
910.063092763128
 21
784.10651174164423
  0
LINE
  8
_0-1_DEFPOINTS
  6
CONTINUOUS
 62
    7
 10
910.063092763128
 20
807.03299402782841
 11
910.063092763128
 21
807.65723146796449
  0
LINE
  8
_0-1_DEFPOINTS
  6
CONTINUOUS
 62
    7
 10
910.063092763128
 20
807.65723146796449
 11
910.063092763128
 21
808.28261013440374
  0
LINE
  8
_0-1_DEFPOINTS
  6
CONTINUOUS
 62
    7
 10
910.063092763128
 20
808.28261013440374
 11
910.063092763128
 21
808.90799547468077
  0
LINE
  8
_0-1_DEFPOINTS
  6
CONTINUOUS
 62
    7
 10
910.063092763128
 20
808.90799547468077
 11
910.063092763128
 21
809.53337414112002
  0
LINE
  8
_0-1_DEFPOINTS
  6
CONTINUOUS
 62
    7
 10
913.6636417279891
 20
777.19856214738968
 11
913.6636417279891
 21
777.27328911181166
  0
LINE
  8
_0-1_DEFPOINTS
  6
CONTINUOUS
 62
    7
 10
913.6636417279891
 20
777.27328911181166
 11
913.6636417279891
 21
777.34686150225434
  0
LINE
  8
_0-1_DEFPOINTS
  6
CONTINUOUS
 62
    7
 10
913.6636417279891
 20
777.34686150225434
 11
913.6636417279891
 21
777.42044056653526
  0
LINE
  8
_0-1_DEFPOINTS
  6
CONTINUOUS
 62
    7
 10
913.6636417279891
 20
777.42044056653526
 11
913.6636417279891
 21
777.49516085711889
  0
LINE
  8
_0-1_DEFPOINTS
  6
CONTINUOUS
 62
    7
 10
913.6636417279891
 20
783.8087651317735
 11
913.6636417279891
 21
783.8834920961956
  0
LINE
  8
_0-1_DEFPOINTS
  6
CONTINUOUS
 62
    7
 10
913.6636417279891
 20
783.8834920961956
 11
913.6636417279891
 21
783.95706448663827
  0
LINE
  8
_0-1_DEFPOINTS
  6
CONTINUOUS
 62
    7
 10
913.6636417279891
 20
783.95706448663827
 11
913.6636417279891
 21
784.03064355091919
  0
LINE
  8
_0-1_DEFPOINTS
  6
CONTINUOUS
 62
    7
 10
913.6636417279891
 20
784.03064355091919
 11
913.6636417279891
 21
784.10536384150294
  0
LINE
  8
_0-1_DEFPOINTS
  6
CONTINUOUS
 62
    7
 10
913.6636417279891
 20
802.6254245468657
 11
913.6636417279891
 21
802.70015151128769
  0
LINE
  8
_0-1_DEFPOINTS
  6
CONTINUOUS
 62
    7
 10
913.6636417279891
 20
802.70015151128769
 11
913.6636417279891
 21
802.77372390173036
  0
LINE
  8
_0-1_DEFPOINTS
  6
CONTINUOUS
 62
    7
 10
913.6636417279891
 20
802.77372390173036
 11
913.6636417279891
 21
802.84730296601106
  0
LINE
  8
_0-1_DEFPOINTS
  6
CONTINUOUS
 62
    7
 10
913.6636417279891
 20
802.84730296601106
 11
913.6636417279891
 21
802.92202325659503
  0
LINE
  8
_0-1_DEFPOINTS
  6
CONTINUOUS
 62
    7
 10
913.6636417279891
 20
809.23678210522894
 11
913.6636417279891
 21
809.31035449567162
  0
LINE
  8
_0-1_DEFPOINTS
  6
CONTINUOUS
 62
    7
 10
913.6636417279891
 20
809.31035449567162
 11
913.6636417279891
 21
809.38508146009349
  0
LINE
  8
_0-1_DEFPOINTS
  6
CONTINUOUS
 62
    7
 10
913.6636417279891
 20
809.38508146009349
 11
913.6636417279891
 21
809.45980175067734
  0
LINE
  8
_0-1_DEFPOINTS
  6
CONTINUOUS
 62
    7
 10
913.6636417279891
 20
809.45980175067734
 11
913.6636417279891
 21
809.53337414112002
  0
LINE
  8
_0-1_DEFPOINTS
  6
CONTINUOUS
 62
    7
 10
914.67988706633139
 20
777.19856214738968
 11
914.67988706633139
 21
777.39974499480411
  0
LINE
  8
_0-1_DEFPOINTS
  6
CONTINUOUS
 62
    7
 10
914.67988706633139
 20
777.39974499480411
 11
914.67988706633139
 21
777.60092784221854
  0
LINE
  8
_0-1_DEFPOINTS
  6
CONTINUOUS
 62
    7
 10
914.67988706633139
 20
777.60092784221854
 11
914.67988706633139
 21
777.80210401579484
  0
LINE
  8
_0-1_DEFPOINTS
  6
CONTINUOUS
 62
    7
 10
914.67988706633139
 20
777.80210401579484
 11
914.67988706633139
 21
778.00328686320904
  0
LINE
  8
_0-1_DEFPOINTS
  6
CONTINUOUS
 62
    7
 10
914.67988706633139
 20
783.30064579952159
 11
914.67988706633139
 21
783.501821973098
  0
LINE
  8
_0-1_DEFPOINTS
  6
CONTINUOUS
 62
    7
 10
914.67988706633139
 20
783.501821973098
 11
914.67988706633139
 21
783.70300482051232
  0
LINE
  8
_0-1_DEFPOINTS
  6
CONTINUOUS
 62
    7
 10
914.67988706633139
 20
783.70300482051232
 11
914.67988706633139
 21
783.90418099408862
  0
LINE
  8
_0-1_DEFPOINTS
  6
CONTINUOUS
 62
    7
 10
914.67988706633139
 20
783.90418099408862
 11
914.67988706633139
 21
784.10536384150294
  0
LINE
  8
_0-1_DEFPOINTS
  6
CONTINUOUS
 62
    7
 10
914.67988706633139
 20
802.6254245468657
 11
914.67988706633139
 21
802.82660739428002
  0
LINE
  8
_0-1_DEFPOINTS
  6
CONTINUOUS
 62
    7
 10
914.67988706633139
 20
802.82660739428002
 11
914.67988706633139
 21
803.02779024169445
  0
LINE
  8
_0-1_DEFPOINTS
  6
CONTINUOUS
 62
    7
 10
914.67988706633139
 20
803.02779024169445
 11
914.67988706633139
 21
803.22896641527086
  0
LINE
  8
_0-1_DEFPOINTS
  6
CONTINUOUS
 62
    7
 10
914.67988706633139
 20
803.22896641527086
 11
914.67988706633139
 21
803.43014926268529
  0
LINE
  8
_0-1_DEFPOINTS
  6
CONTINUOUS
 62
    7
 10
914.67988706633139
 20
808.7275081989975
 11
914.67988706633139
 21
808.92868437257391
  0
LINE
  8
_0-1_DEFPOINTS
  6
CONTINUOUS
 62
    7
 10
914.67988706633139
 20
808.92868437257391
 11
914.67988706633139
 21
809.12986721998834
  0
LINE
  8
_0-1_DEFPOINTS
  6
CONTINUOUS
 62
    7
 10
914.67988706633139
 20
809.12986721998834
 11
914.67988706633139
 21
809.33105006740243
  0
LINE
  8
_0-1_DEFPOINTS
  6
CONTINUOUS
 62
    7
 10
914.67988706633139
 20
809.33105006740243
 11
914.67988706633139
 21
809.53222624097884
  0
LINE
  8
_0-1_DEFPOINTS
  6
CONTINUOUS
 62
    7
 10
918.2850343055951
 20
777.19856214738968
 11
918.2850343055951
 21
777.27328911181166
  0
LINE
  8
_0-1_DEFPOINTS
  6
CONTINUOUS
 62
    7
 10
918.2850343055951
 20
777.27328911181166
 11
918.2850343055951
 21
777.34686150225434
  0
LINE
  8
_0-1_DEFPOINTS
  6
CONTINUOUS
 62
    7
 10
918.2850343055951
 20
777.34686150225434
 11
918.2850343055951
 21
777.42044056653526
  0
LINE
  8
_0-1_DEFPOINTS
  6
CONTINUOUS
 62
    7
 10
918.2850343055951
 20
777.42044056653526
 11
918.2850343055951
 21
777.49516085711889
  0
LINE
  8
_0-1_DEFPOINTS
  6
CONTINUOUS
 62
    7
 10
918.2850343055951
 20
783.8087651317735
 11
918.2850343055951
 21
783.8834920961956
  0
LINE
  8
_0-1_DEFPOINTS
  6
CONTINUOUS
 62
    7
 10
918.2850343055951
 20
783.8834920961956
 11
918.2850343055951
 21
783.95706448663827
  0
LINE
  8
_0-1_DEFPOINTS
  6
CONTINUOUS
 62
    7
 10
918.2850343055951
 20
783.95706448663827
 11
918.2850343055951
 21
784.03064355091919
  0
LINE
  8
_0-1_DEFPOINTS
  6
CONTINUOUS
 62
    7
 10
918.2850343055951
 20
784.03064355091919
 11
918.2850343055951
 21
784.10536384150294
  0
LINE
  8
_0-1_DEFPOINTS
  6
CONTINUOUS
 62
    7
 10
918.2850343055951
 20
802.6254245468657
 11
918.2850343055951
 21
802.70015151128769
  0
LINE
  8
_0-1_DEFPOINTS
  6
CONTINUOUS
 62
    7
 10
918.2850343055951
 20
802.70015151128769
 11
918.2850343055951
 21
802.77372390173036
  0
LINE
  8
_0-1_DEFPOINTS
  6
CONTINUOUS
 62
    7
 10
918.2850343055951
 20
802.77372390173036
 11
918.2850343055951
 21
802.84730296601106
  0
LINE
  8
_0-1_DEFPOINTS
  6
CONTINUOUS
 62
    7
 10
918.2850343055951
 20
802.84730296601106
 11
918.2850343055951
 21
802.92202325659503
  0
LINE
  8
_0-1_DEFPOINTS
  6
CONTINUOUS
 62
    7
 10
918.2850343055951
 20
809.23678210522894
 11
918.2850343055951
 21
809.31035449567162
  0
LINE
  8
_0-1_DEFPOINTS
  6
CONTINUOUS
 62
    7
 10
918.2850343055951
 20
809.31035449567162
 11
918.2850343055951
 21
809.38508146009349
  0
LINE
  8
_0-1_DEFPOINTS
  6
CONTINUOUS
 62
    7
 10
918.2850343055951
 20
809.38508146009349
 11
918.2850343055951
 21
809.45980175067734
  0
LINE
  8
_0-1_DEFPOINTS
  6
CONTINUOUS
 62
    7
 10
918.2850343055951
 20
809.45980175067734
 11
918.2850343055951
 21
809.53337414112002
  0
LINE
  8
_0-1_DEFPOINTS
  6
CONTINUOUS
 62
    7
 10
919.30127964393728
 20
777.19856214738968
 11
919.30127964393728
 21
777.39974499480411
  0
LINE
  8
_0-1_DEFPOINTS
  6
CONTINUOUS
 62
    7
 10
919.30127964393728
 20
777.39974499480411
 11
919.30127964393728
 21
777.60092784221854
  0
LINE
  8
_0-1_DEFPOINTS
  6
CONTINUOUS
 62
    7
 10
919.30127964393728
 20
777.60092784221854
 11
919.30127964393728
 21
777.80210401579484
  0
LINE
  8
_0-1_DEFPOINTS
  6
CONTINUOUS
 62
    7
 10
919.30127964393728
 20
777.80210401579484
 11
919.30127964393728
 21
778.00328686320904
  0
LINE
  8
_0-1_DEFPOINTS
  6
CONTINUOUS
 62
    7
 10
919.30127964393728
 20
783.30064579952159
 11
919.30127964393728
 21
783.501821973098
  0
LINE
  8
_0-1_DEFPOINTS
  6
CONTINUOUS
 62
    7
 10
919.30127964393728
 20
783.501821973098
 11
919.30127964393728
 21
783.70300482051232
  0
LINE
  8
_0-1_DEFPOINTS
  6
CONTINUOUS
 62
    7
 10
919.30127964393728
 20
783.70300482051232
 11
919.30127964393728
 21
783.90418099408862
  0
LINE
  8
_0-1_DEFPOINTS
  6
CONTINUOUS
 62
    7
 10
919.30127964393728
 20
783.90418099408862
 11
919.30127964393728
 21
784.10536384150294
  0
LINE
  8
_0-1_DEFPOINTS
  6
CONTINUOUS
 62
    7
 10
919.30127964393728
 20
802.6254245468657
 11
919.30127964393728
 21
802.82660739428002
  0
LINE
  8
_0-1_DEFPOINTS
  6
CONTINUOUS
 62
    7
 10
919.30127964393728
 20
802.82660739428002
 11
919.30127964393728
 21
803.02779024169445
  0
LINE
  8
_0-1_DEFPOINTS
  6
CONTINUOUS
 62
    7
 10
919.30127964393728
 20
803.02779024169445
 11
919.30127964393728
 21
803.22896641527086
  0
LINE
  8
_0-1_DEFPOINTS
  6
CONTINUOUS
 62
    7
 10
919.30127964393728
 20
803.22896641527086
 11
919.30127964393728
 21
803.43014926268529
  0
LINE
  8
_0-1_DEFPOINTS
  6
CONTINUOUS
 62
    7
 10
919.30127964393728
 20
808.7275081989975
 11
919.30127964393728
 21
808.92868437257391
  0
LINE
  8
_0-1_DEFPOINTS
  6
CONTINUOUS
 62
    7
 10
919.30127964393728
 20
808.92868437257391
 11
919.30127964393728
 21
809.12986721998834
  0
LINE
  8
_0-1_DEFPOINTS
  6
CONTINUOUS
 62
    7
 10
919.30127964393728
 20
809.12986721998834
 11
919.30127964393728
 21
809.33105006740243
  0
LINE
  8
_0-1_DEFPOINTS
  6
CONTINUOUS
 62
    7
 10
919.30127964393728
 20
809.33105006740243
 11
919.30127964393728
 21
809.53222624097884
  0
LINE
  8
_0-1_DEFPOINTS
  6
CONTINUOUS
 62
    7
 10
922.90182860879838
 20
777.19856214738968
 11
922.90182860879838
 21
777.27328911181166
  0
LINE
  8
_0-1_DEFPOINTS
  6
CONTINUOUS
 62
    7
 10
922.90182860879838
 20
777.27328911181166
 11
922.90182860879838
 21
777.34686150225434
  0
LINE
  8
_0-1_DEFPOINTS
  6
CONTINUOUS
 62
    7
 10
922.90182860879838
 20
777.34686150225434
 11
922.90182860879838
 21
777.42044056653526
  0
LINE
  8
_0-1_DEFPOINTS
  6
CONTINUOUS
 62
    7
 10
922.90182860879838
 20
777.42044056653526
 11
922.90182860879838
 21
777.49516085711889
  0
LINE
  8
_0-1_DEFPOINTS
  6
CONTINUOUS
 62
    7
 10
922.90182860879838
 20
783.8087651317735
 11
922.90182860879838
 21
783.8834920961956
  0
LINE
  8
_0-1_DEFPOINTS
  6
CONTINUOUS
 62
    7
 10
922.90182860879838
 20
783.8834920961956
 11
922.90182860879838
 21
783.95706448663827
  0
LINE
  8
_0-1_DEFPOINTS
  6
CONTINUOUS
 62
    7
 10
922.90182860879838
 20
783.95706448663827
 11
922.90182860879838
 21
784.03064355091919
  0
LINE
  8
_0-1_DEFPOINTS
  6
CONTINUOUS
 62
    7
 10
922.90182860879838
 20
784.03064355091919
 11
922.90182860879838
 21
784.10536384150294
  0
LINE
  8
_0-1_DEFPOINTS
  6
CONTINUOUS
 62
    7
 10
922.90182860879838
 20
802.6254245468657
 11
922.90182860879838
 21
802.70015151128769
  0
LINE
  8
_0-1_DEFPOINTS
  6
CONTINUOUS
 62
    7
 10
922.90182860879838
 20
802.70015151128769
 11
922.90182860879838
 21
802.77372390173036
  0
LINE
  8
_0-1_DEFPOINTS
  6
CONTINUOUS
 62
    7
 10
922.90182860879838
 20
802.77372390173036
 11
922.90182860879838
 21
802.84730296601106
  0
LINE
  8
_0-1_DEFPOINTS
  6
CONTINUOUS
 62
    7
 10
922.90182860879838
 20
802.84730296601106
 11
922.90182860879838
 21
802.92202325659503
  0
LINE
  8
_0-1_DEFPOINTS
  6
CONTINUOUS
 62
    7
 10
922.90182860879838
 20
809.23678210522894
 11
922.90182860879838
 21
809.31035449567162
  0
LINE
  8
_0-1_DEFPOINTS
  6
CONTINUOUS
 62
    7
 10
922.90182860879838
 20
809.31035449567162
 11
922.90182860879838
 21
809.38508146009349
  0
LINE
  8
_0-1_DEFPOINTS
  6
CONTINUOUS
 62
    7
 10
922.90182860879838
 20
809.38508146009349
 11
922.90182860879838
 21
809.45980175067734
  0
LINE
  8
_0-1_DEFPOINTS
  6
CONTINUOUS
 62
    7
 10
922.90182860879838
 20
809.45980175067734
 11
922.90182860879838
 21
809.53337414112002
  0
LINE
  8
_0-1_DEFPOINTS
  6
CONTINUOUS
 62
    7
 10
923.87668947751649
 20
777.41008944375062
 11
923.87668947751649
 21
777.55838879861528
  0
LINE
  8
_0-1_DEFPOINTS
  6
CONTINUOUS
 62
    7
 10
923.87668947751649
 20
777.55838879861528
 11
923.87668947751649
 21
777.70668815347994
  0
LINE
  8
_0-1_DEFPOINTS
  6
CONTINUOUS
 62
    7
 10
923.87668947751649
 20
777.70668815347994
 11
923.87668947751649
 21
777.85498750834449
  0
LINE
  8
_0-1_DEFPOINTS
  6
CONTINUOUS
 62
    7
 10
923.87668947751649
 20
777.85498750834449
 11
923.87668947751649
 21
778.00328686320904
  0
LINE
  8
_0-1_DEFPOINTS
  6
CONTINUOUS
 62
    7
 10
923.87668947751649
 20
783.30064579952159
 11
923.87668947751649
 21
783.501821973098
  0
LINE
  8
_0-1_DEFPOINTS
  6
CONTINUOUS
 62
    7
 10
923.87668947751649
 20
783.501821973098
 11
923.87668947751649
 21
783.70300482051232
  0
LINE
  8
_0-1_DEFPOINTS
  6
CONTINUOUS
 62
    7
 10
923.87668947751649
 20
783.70300482051232
 11
923.87668947751649
 21
783.90418099408862
  0
LINE
  8
_0-1_DEFPOINTS
  6
CONTINUOUS
 62
    7
 10
923.87668947751649
 20
783.90418099408862
 11
923.87668947751649
 21
784.10536384150294
  0
LINE
  8
_0-1_DEFPOINTS
  6
CONTINUOUS
 62
    7
 10
923.87668947751649
 20
802.83695184322653
 11
923.87668947751649
 21
802.98525119809131
  0
LINE
  8
_0-1_DEFPOINTS
  6
CONTINUOUS
 62
    7
 10
923.87668947751649
 20
802.98525119809131
 11
923.87668947751649
 21
803.13355055295585
  0
LINE
  8
_0-1_DEFPOINTS
  6
CONTINUOUS
 62
    7
 10
923.87668947751649
 20
803.13355055295585
 11
923.87668947751649
 21
803.28184990782063
  0
LINE
  8
_0-1_DEFPOINTS
  6
CONTINUOUS
 62
    7
 10
923.87668947751649
 20
803.28184990782063
 11
923.87668947751649
 21
803.43014926268529
  0
LINE
  8
_0-1_DEFPOINTS
  6
CONTINUOUS
 62
    7
 10
923.87668947751649
 20
808.7275081989975
 11
923.87668947751649
 21
808.92868437257391
  0
LINE
  8
_0-1_DEFPOINTS
  6
CONTINUOUS
 62
    7
 10
923.87668947751649
 20
808.92868437257391
 11
923.87668947751649
 21
809.12986721998834
  0
LINE
  8
_0-1_DEFPOINTS
  6
CONTINUOUS
 62
    7
 10
923.87668947751649
 20
809.12986721998834
 11
923.87668947751649
 21
809.33105006740243
  0
LINE
  8
_0-1_DEFPOINTS
  6
CONTINUOUS
 62
    7
 10
923.87668947751649
 20
809.33105006740243
 11
923.87668947751649
 21
809.53222624097884
  0
LINE
  8
_0-1_DEFPOINTS
  6
CONTINUOUS
 62
    7
 10
994.22763832466956
 20
801.39650401202152
 11
994.86222021375227
 21
801.93681793893029
  0
LINE
  8
_0-1_DEFPOINTS
  6
CONTINUOUS
 62
    7
 10
994.86222021375227
 20
801.93681793893029
 11
995.49909790311699
 21
802.47713186583894
  0
LINE
  8
_0-1_DEFPOINTS
  6
CONTINUOUS
 62
    7
 10
995.49909790311699
 20
802.47713186583894
 11
996.13597559248183
 21
803.01743911890981
  0
LINE
  8
_0-1_DEFPOINTS
  6
CONTINUOUS
 62
    7
 10
996.13597559248183
 20
803.01743911890981
 11
996.77055748156454
 21
803.55775304581869
  0
LINE
  8
_0-1_DEFPOINTS
  6
CONTINUOUS
 62
    7
 10
927.48183671678021
 20
802.92202325659503
 11
927.48183671678021
 21
802.84730296601106
  0
LINE
  8
_0-1_DEFPOINTS
  6
CONTINUOUS
 62
    7
 10
927.48183671678021
 20
802.84730296601106
 11
927.48183671678021
 21
802.77372390173036
  0
LINE
  8
_0-1_DEFPOINTS
  6
CONTINUOUS
 62
    7
 10
927.48183671678021
 20
802.77372390173036
 11
927.48183671678021
 21
802.70015151128769
  0
LINE
  8
_0-1_DEFPOINTS
  6
CONTINUOUS
 62
    7
 10
927.48183671678021
 20
802.70015151128769
 11
927.48183671678021
 21
802.6254245468657
  0
LINE
  8
_0-1_DEFPOINTS
  6
CONTINUOUS
 62
    7
 10
927.48183671678021
 20
777.49516085711889
 11
927.48183671678021
 21
777.42044056653526
  0
LINE
  8
_0-1_DEFPOINTS
  6
CONTINUOUS
 62
    7
 10
927.48183671678021
 20
777.42044056653526
 11
927.48183671678021
 21
777.34686150225434
  0
LINE
  8
_0-1_DEFPOINTS
  6
CONTINUOUS
 62
    7
 10
927.48183671678021
 20
777.34686150225434
 11
927.48183671678021
 21
777.27328911181166
  0
LINE
  8
_0-1_DEFPOINTS
  6
CONTINUOUS
 62
    7
 10
927.48183671678021
 20
777.27328911181166
 11
927.48183671678021
 21
777.19856214738968
  0
LINE
  8
_0-1_DEFPOINTS
  6
CONTINUOUS
 62
    7
 10
927.48183671678021
 20
783.8087651317735
 11
927.48183671678021
 21
783.8834920961956
  0
LINE
  8
_0-1_DEFPOINTS
  6
CONTINUOUS
 62
    7
 10
927.48183671678021
 20
783.8834920961956
 11
927.48183671678021
 21
783.95706448663827
  0
LINE
  8
_0-1_DEFPOINTS
  6
CONTINUOUS
 62
    7
 10
927.48183671678021
 20
783.95706448663827
 11
927.48183671678021
 21
784.03064355091919
  0
LINE
  8
_0-1_DEFPOINTS
  6
CONTINUOUS
 62
    7
 10
927.48183671678021
 20
784.03064355091919
 11
927.48183671678021
 21
784.10536384150294
  0
LINE
  8
_0-1_DEFPOINTS
  6
CONTINUOUS
 62
    7
 10
927.48183671678021
 20
809.23678210522894
 11
927.48183671678021
 21
809.31035449567162
  0
LINE
  8
_0-1_DEFPOINTS
  6
CONTINUOUS
 62
    7
 10
927.48183671678021
 20
809.31035449567162
 11
927.48183671678021
 21
809.38508146009349
  0
LINE
  8
_0-1_DEFPOINTS
  6
CONTINUOUS
 62
    7
 10
927.48183671678021
 20
809.38508146009349
 11
927.48183671678021
 21
809.45980175067734
  0
LINE
  8
_0-1_DEFPOINTS
  6
CONTINUOUS
 62
    7
 10
927.48183671678021
 20
809.45980175067734
 11
927.48183671678021
 21
809.53337414112002
  0
LINE
  8
_0-1_DEFPOINTS
  6
CONTINUOUS
 62
    7
 10
928.4980820551225
 20
777.19856214738968
 11
928.4980820551225
 21
777.39974499480411
  0
LINE
  8
_0-1_DEFPOINTS
  6
CONTINUOUS
 62
    7
 10
928.4980820551225
 20
777.39974499480411
 11
928.4980820551225
 21
777.60092784221854
  0
LINE
  8
_0-1_DEFPOINTS
  6
CONTINUOUS
 62
    7
 10
928.4980820551225
 20
777.60092784221854
 11
928.4980820551225
 21
777.80210401579484
  0
LINE
  8
_0-1_DEFPOINTS
  6
CONTINUOUS
 62
    7
 10
928.4980820551225
 20
777.80210401579484
 11
928.4980820551225
 21
778.00328686320904
  0
LINE
  8
_0-1_DEFPOINTS
  6
CONTINUOUS
 62
    7
 10
928.4980820551225
 20
783.30064579952159
 11
928.4980820551225
 21
783.501821973098
  0
LINE
  8
_0-1_DEFPOINTS
  6
CONTINUOUS
 62
    7
 10
928.4980820551225
 20
783.501821973098
 11
928.4980820551225
 21
783.70300482051232
  0
LINE
  8
_0-1_DEFPOINTS
  6
CONTINUOUS
 62
    7
 10
928.4980820551225
 20
783.70300482051232
 11
928.4980820551225
 21
783.90418099408862
  0
LINE
  8
_0-1_DEFPOINTS
  6
CONTINUOUS
 62
    7
 10
928.4980820551225
 20
783.90418099408862
 11
928.4980820551225
 21
784.10536384150294
  0
LINE
  8
_0-1_DEFPOINTS
  6
CONTINUOUS
 62
    7
 10
928.4980820551225
 20
802.6254245468657
 11
928.4980820551225
 21
802.82660739428002
  0
LINE
  8
_0-1_DEFPOINTS
  6
CONTINUOUS
 62
    7
 10
928.4980820551225
 20
802.82660739428002
 11
928.4980820551225
 21
803.02779024169445
  0
LINE
  8
_0-1_DEFPOINTS
  6
CONTINUOUS
 62
    7
 10
928.4980820551225
 20
803.02779024169445
 11
928.4980820551225
 21
803.22896641527086
  0
LINE
  8
_0-1_DEFPOINTS
  6
CONTINUOUS
 62
    7
 10
928.4980820551225
 20
803.22896641527086
 11
928.4980820551225
 21
803.43014926268529
  0
LINE
  8
_0-1_DEFPOINTS
  6
CONTINUOUS
 62
    7
 10
928.4980820551225
 20
808.7275081989975
 11
928.4980820551225
 21
808.92868437257391
  0
LINE
  8
_0-1_DEFPOINTS
  6
CONTINUOUS
 62
    7
 10
928.4980820551225
 20
808.92868437257391
 11
928.4980820551225
 21
809.12986721998834
  0
LINE
  8
_0-1_DEFPOINTS
  6
CONTINUOUS
 62
    7
 10
928.4980820551225
 20
809.12986721998834
 11
928.4980820551225
 21
809.33105006740243
  0
LINE
  8
_0-1_DEFPOINTS
  6
CONTINUOUS
 62
    7
 10
928.4980820551225
 20
809.33105006740243
 11
928.4980820551225
 21
809.53222624097884
  0
LINE
  8
_0-1_DEFPOINTS
  6
CONTINUOUS
 62
    7
 10
929.09127947458103
 20
779.69894893451942
 11
929.09127947458103
 21
780.17602824609401
  0
LINE
  8
_0-1_DEFPOINTS
  6
CONTINUOUS
 62
    7
 10
929.09127947458103
 20
780.17602824609401
 11
929.09127947458103
 21
780.65311423150661
  0
LINE
  8
_0-1_DEFPOINTS
  6
CONTINUOUS
 62
    7
 10
929.09127947458103
 20
780.65311423150661
 11
929.09127947458103
 21
781.1290456429399
  0
LINE
  8
_0-1_DEFPOINTS
  6
CONTINUOUS
 62
    7
 10
929.09127947458103
 20
781.1290456429399
 11
929.09127947458103
 21
781.6061316283525
  0
LINE
  8
_0-1_DEFPOINTS
  6
CONTINUOUS
 62
    7
 10
929.09127947458103
 20
805.12581133399544
 11
929.09127947458103
 21
805.60289064556991
  0
LINE
  8
_0-1_DEFPOINTS
  6
CONTINUOUS
 62
    7
 10
929.09127947458103
 20
805.60289064556991
 11
929.09127947458103
 21
806.0799766309824
  0
LINE
  8
_0-1_DEFPOINTS
  6
CONTINUOUS
 62
    7
 10
929.09127947458103
 20
806.0799766309824
 11
929.09127947458103
 21
806.55591471625382
  0
LINE
  8
_0-1_DEFPOINTS
  6
CONTINUOUS
 62
    7
 10
929.09127947458103
 20
806.55591471625382
 11
929.09127947458103
 21
807.03299402782841
  0
LINE
  8
_0-1_DEFPOINTS
  6
CONTINUOUS
 62
    7
 10
932.09863101998349
 20
777.19856214738968
 11
932.09863101998349
 21
777.27328911181166
  0
LINE
  8
_0-1_DEFPOINTS
  6
CONTINUOUS
 62
    7
 10
932.09863101998349
 20
777.27328911181166
 11
932.09863101998349
 21
777.34686150225434
  0
LINE
  8
_0-1_DEFPOINTS
  6
CONTINUOUS
 62
    7
 10
932.09863101998349
 20
777.34686150225434
 11
932.09863101998349
 21
777.42044056653526
  0
LINE
  8
_0-1_DEFPOINTS
  6
CONTINUOUS
 62
    7
 10
932.09863101998349
 20
777.42044056653526
 11
932.09863101998349
 21
777.49516085711889
  0
LINE
  8
_0-1_DEFPOINTS
  6
CONTINUOUS
 62
    7
 10
932.09863101998349
 20
783.8087651317735
 11
932.09863101998349
 21
783.8834920961956
  0
LINE
  8
_0-1_DEFPOINTS
  6
CONTINUOUS
 62
    7
 10
932.09863101998349
 20
783.8834920961956
 11
932.09863101998349
 21
783.95706448663827
  0
LINE
  8
_0-1_DEFPOINTS
  6
CONTINUOUS
 62
    7
 10
932.09863101998349
 20
783.95706448663827
 11
932.09863101998349
 21
784.03064355091919
  0
LINE
  8
_0-1_DEFPOINTS
  6
CONTINUOUS
 62
    7
 10
932.09863101998349
 20
784.03064355091919
 11
932.09863101998349
 21
784.10536384150294
  0
LINE
  8
_0-1_DEFPOINTS
  6
CONTINUOUS
 62
    7
 10
932.09863101998349
 20
802.6254245468657
 11
932.09863101998349
 21
802.70015151128769
  0
LINE
  8
_0-1_DEFPOINTS
  6
CONTINUOUS
 62
    7
 10
932.09863101998349
 20
802.70015151128769
 11
932.09863101998349
 21
802.77372390173036
  0
LINE
  8
_0-1_DEFPOINTS
  6
CONTINUOUS
 62
    7
 10
932.09863101998349
 20
802.77372390173036
 11
932.09863101998349
 21
802.84730296601106
  0
LINE
  8
_0-1_DEFPOINTS
  6
CONTINUOUS
 62
    7
 10
932.09863101998349
 20
802.84730296601106
 11
932.09863101998349
 21
802.92202325659503
  0
LINE
  8
_0-1_DEFPOINTS
  6
CONTINUOUS
 62
    7
 10
932.09863101998349
 20
809.23678210522894
 11
932.09863101998349
 21
809.31035449567162
  0
LINE
  8
_0-1_DEFPOINTS
  6
CONTINUOUS
 62
    7
 10
932.09863101998349
 20
809.31035449567162
 11
932.09863101998349
 21
809.38508146009349
  0
LINE
  8
_0-1_DEFPOINTS
  6
CONTINUOUS
 62
    7
 10
932.09863101998349
 20
809.38508146009349
 11
932.09863101998349
 21
809.45980175067734
  0
LINE
  8
_0-1_DEFPOINTS
  6
CONTINUOUS
 62
    7
 10
932.09863101998349
 20
809.45980175067734
 11
932.09863101998349
 21
809.53337414112002
  0
LINE
  8
_0-1_DEFPOINTS
  6
CONTINUOUS
 62
    7
 10
932.90335573580273
 20
775.92710924278038
 11
932.90335573580273
 21
776.48925996772334
  0
LINE
  8
_0-1_DEFPOINTS
  6
CONTINUOUS
 62
    7
 10
932.90335573580273
 20
776.48925996772334
 11
932.90335573580273
 21
777.05026946636326
  0
LINE
  8
_0-1_DEFPOINTS
  6
CONTINUOUS
 62
    7
 10
932.90335573580273
 20
777.05026946636326
 11
932.90335573580273
 21
777.61127229116494
  0
LINE
  8
_0-1_DEFPOINTS
  6
CONTINUOUS
 62
    7
 10
932.90335573580273
 20
777.61127229116494
 11
932.90335573580273
 21
778.17342301610779
  0
LINE
  8
_0-1_DEFPOINTS
  6
CONTINUOUS
 62
    7
 10
932.90335573580273
 20
809.53337414112002
 11
932.90335573580273
 21
809.86216077166796
  0
LINE
  8
_0-1_DEFPOINTS
  6
CONTINUOUS
 62
    7
 10
932.90335573580273
 20
809.86216077166796
 11
932.90335573580273
 21
810.1909474022159
  0
LINE
  8
_0-1_DEFPOINTS
  6
CONTINUOUS
 62
    7
 10
932.90335573580273
 20
810.1909474022159
 11
932.90335573580273
 21
810.51973403276384
  0
LINE
  8
_0-1_DEFPOINTS
  6
CONTINUOUS
 62
    7
 10
932.90335573580273
 20
810.51973403276384
 11
932.90335573580273
 21
810.84737276317071
  0
LINE
  8
_0-1_DEFPOINTS
  6
CONTINUOUS
 62
    7
 10
933.20225024581441
 20
769.86641006027253
 11
933.20225024581441
 21
781.62567929994248
  0
LINE
  8
_0-1_DEFPOINTS
  6
CONTINUOUS
 62
    7
 10
933.20225024581441
 20
781.62567929994248
 11
933.20225024581441
 21
793.38608976591536
  0
LINE
  8
_0-1_DEFPOINTS
  6
CONTINUOUS
 62
    7
 10
933.20225024581441
 20
793.38608976591536
 11
933.20225024581441
 21
805.14650023188835
  0
LINE
  8
_0-1_DEFPOINTS
  6
CONTINUOUS
 62
    7
 10
933.20225024581441
 20
805.14650023188835
 11
933.20225024581441
 21
816.90691737169936
  0
LINE
  8
_0-1_DEFPOINTS
  6
CONTINUOUS
 62
    7
 10
933.96558381817181
 20
770.24808018337012
 11
933.96558381817181
 21
781.81765892471333
  0
LINE
  8
_0-1_DEFPOINTS
  6
CONTINUOUS
 62
    7
 10
933.96558381817181
 20
781.81765892471333
 11
933.96558381817181
 21
793.38723766605654
  0
LINE
  8
_0-1_DEFPOINTS
  6
CONTINUOUS
 62
    7
 10
933.96558381817181
 20
793.38723766605654
 11
933.96558381817181
 21
804.95681640739963
  0
LINE
  8
_0-1_DEFPOINTS
  6
CONTINUOUS
 62
    7
 10
933.96558381817181
 20
804.95681640739963
 11
933.96558381817181
 21
816.52639514874295
  0
LINE
  8
_0-1_DEFPOINTS
  6
CONTINUOUS
 62
    7
 10
933.96558381817181
 20
816.90691737169936
 11
933.96558381817181
 21
816.81149483554645
  0
LINE
  8
_0-1_DEFPOINTS
  6
CONTINUOUS
 62
    7
 10
933.96558381817181
 20
816.81149483554645
 11
933.96558381817181
 21
816.71607897323156
  0
LINE
  8
_0-1_DEFPOINTS
  6
CONTINUOUS
 62
    7
 10
933.96558381817181
 20
816.71607897323156
 11
933.96558381817181
 21
816.62066311091667
  0
LINE
  8
_0-1_DEFPOINTS
  6
CONTINUOUS
 62
    7
 10
933.96558381817181
 20
816.62066311091667
 11
933.96558381817181
 21
816.52524724860177
  0
LINE
  8
_0-1_DEFPOINTS
  6
CONTINUOUS
 62
    7
 10
935.74516272887126
 20
816.1872640692485
 11
935.74516272887126
 21
804.79817260358857
  0
LINE
  8
_0-1_DEFPOINTS
  6
CONTINUOUS
 62
    7
 10
935.74516272887126
 20
804.79817260358857
 11
935.74516272887126
 21
793.40908113792864
  0
LINE
  8
_0-1_DEFPOINTS
  6
CONTINUOUS
 62
    7
 10
935.74516272887126
 20
793.40908113792864
 11
935.74516272887126
 21
782.01884177212776
  0
LINE
  8
_0-1_DEFPOINTS
  6
CONTINUOUS
 62
    7
 10
935.74516272887126
 20
782.01884177212776
 11
935.74516272887126
 21
770.62975030646783
  0
LINE
  8
_0-1_DEFPOINTS
  6
CONTINUOUS
 62
    7
 10
935.99807449485616
 20
816.1872640692485
 11
935.99807449485616
 21
804.79817260358857
  0
LINE
  8
_0-1_DEFPOINTS
  6
CONTINUOUS
 62
    7
 10
935.99807449485616
 20
804.79817260358857
 11
935.99807449485616
 21
793.40908113792864
  0
LINE
  8
_0-1_DEFPOINTS
  6
CONTINUOUS
 62
    7
 10
935.99807449485616
 20
793.40908113792864
 11
935.99807449485616
 21
782.01884177212776
  0
LINE
  8
_0-1_DEFPOINTS
  6
CONTINUOUS
 62
    7
 10
935.99807449485616
 20
782.01884177212776
 11
935.99807449485616
 21
770.62975030646783
  0
LINE
  8
_0-1_DEFPOINTS
  6
CONTINUOUS
 62
    7
 10
938.03057184537863
 20
771.90120321107725
 11
938.03057184537863
 21
782.644220438567
  0
LINE
  8
_0-1_DEFPOINTS
  6
CONTINUOUS
 62
    7
 10
938.03057184537863
 20
782.644220438567
 11
938.03057184537863
 21
793.38723766605654
  0
LINE
  8
_0-1_DEFPOINTS
  6
CONTINUOUS
 62
    7
 10
938.03057184537863
 20
793.38723766605654
 11
938.03057184537863
 21
804.13025489354618
  0
LINE
  8
_0-1_DEFPOINTS
  6
CONTINUOUS
 62
    7
 10
938.03057184537863
 20
804.13025489354618
 11
938.03057184537863
 21
814.87327212103582
  0
LINE
  8
_0-1_DEFPOINTS
  6
CONTINUOUS
 62
    7
 10
906.62808167676314
 20
778.63901665243293
 11
906.02569438233729
 21
779.14713598468495
  0
LINE
  8
_0-1_DEFPOINTS
  6
CONTINUOUS
 62
    7
 10
906.02569438233729
 20
779.14713598468495
 11
905.42330041407354
 21
779.65640989091628
  0
LINE
  8
_0-1_DEFPOINTS
  6
CONTINUOUS
 62
    7
 10
905.42330041407354
 20
779.65640989091628
 11
904.82091311964768
 21
780.16568379714738
  0
LINE
  8
_0-1_DEFPOINTS
  6
CONTINUOUS
 62
    7
 10
904.82091311964768
 20
780.16568379714738
 11
904.21622335110158
 21
780.67380980323765
  0
LINE
  8
_0-1_DEFPOINTS
  6
CONTINUOUS
 62
    7
 10
923.0305869659112
 20
777.36755707398538
 11
923.86749292871116
 21
776.53064443734729
  0
LINE
  8
_0-1_DEFPOINTS
  6
CONTINUOUS
 62
    7
 10
923.86749292871116
 20
776.53064443734729
 11
924.70440556534925
 21
775.69373847454744
  0
LINE
  8
_0-1_DEFPOINTS
  6
CONTINUOUS
 62
    7
 10
924.70440556534925
 20
775.69373847454744
 11
925.54131152814932
 21
774.85682583790935
  0
LINE
  8
_0-1_DEFPOINTS
  6
CONTINUOUS
 62
    7
 10
925.54131152814932
 20
774.85682583790935
 11
926.3782174909494
 21
774.01991987510928
  0
LINE
  8
_0-1_DEFPOINTS
  6
CONTINUOUS
 62
    7
 10
923.2421075884339
 20
777.41008944375062
 11
924.05832465334106
 21
776.60422350162821
  0
LINE
  8
_0-1_DEFPOINTS
  6
CONTINUOUS
 62
    7
 10
924.05832465334106
 20
776.60422350162821
 11
924.87454171824788
 21
775.79949878580862
  0
LINE
  8
_0-1_DEFPOINTS
  6
CONTINUOUS
 62
    7
 10
924.87454171824788
 20
775.79949878580862
 11
925.69075878315516
 21
774.99478074382739
  0
LINE
  8
_0-1_DEFPOINTS
  6
CONTINUOUS
 62
    7
 10
925.69075878315516
 20
774.99478074382739
 11
926.5069758480621
 21
774.18890812786697
  0
LINE
  8
_0-1_DEFPOINTS
  6
CONTINUOUS
 62
    7
 10
927.01279938003177
 20
774.65564966433294
 11
926.22877023594356
 21
775.43967880842138
  0
LINE
  8
_0-1_DEFPOINTS
  6
CONTINUOUS
 62
    7
 10
926.22877023594356
 20
775.43967880842138
 11
925.44474776569336
 21
776.22370127867168
  0
LINE
  8
_0-1_DEFPOINTS
  6
CONTINUOUS
 62
    7
 10
925.44474776569336
 20
776.22370127867168
 11
924.6607186216047
 21
777.00773042275978
  0
LINE
  8
_0-1_DEFPOINTS
  6
CONTINUOUS
 62
    7
 10
924.6607186216047
 20
777.00773042275978
 11
923.87668947751649
 21
777.79175956684821
  0
LINE
  8
_0-1_DEFPOINTS
  6
CONTINUOUS
 62
    7
 10
927.14155773714469
 20
774.82463791709051
 11
926.34602957013067
 21
775.61901151012546
  0
LINE
  8
_0-1_DEFPOINTS
  6
CONTINUOUS
 62
    7
 10
926.34602957013067
 20
775.61901151012546
 11
925.55050807695466
 21
776.41338510316018
  0
LINE
  8
_0-1_DEFPOINTS
  6
CONTINUOUS
 62
    7
 10
925.55050807695466
 20
776.41338510316018
 11
924.75498658377865
 21
777.20891327017421
  0
LINE
  8
_0-1_DEFPOINTS
  6
CONTINUOUS
 62
    7
 10
924.75498658377865
 20
777.20891327017421
 11
923.96176089088499
 21
778.00328686320904
  0
LINE
  8
_0-1_DEFPOINTS
  6
CONTINUOUS
 62
    7
 10
907.56155807585731
 20
778.63901665243293
 11
908.18694341613445
 21
778.27919000120744
  0
LINE
  8
_0-1_DEFPOINTS
  6
CONTINUOUS
 62
    7
 10
908.18694341613445
 20
778.27919000120744
 11
908.81232875641172
 21
777.91936334998195
  0
LINE
  8
_0-1_DEFPOINTS
  6
CONTINUOUS
 62
    7
 10
908.81232875641172
 20
777.91936334998195
 11
909.43770742285096
 21
777.55838879861528
  0
LINE
  8
_0-1_DEFPOINTS
  6
CONTINUOUS
 62
    7
 10
909.43770742285096
 20
777.55838879861528
 11
910.063092763128
 21
777.19856214738968
  0
LINE
  8
_0-1_DEFPOINTS
  6
CONTINUOUS
 62
    7
 10
933.20225024581441
 20
775.58797148944791
 11
933.12867785537162
 21
775.6615505537286
  0
LINE
  8
_0-1_DEFPOINTS
  6
CONTINUOUS
 62
    7
 10
933.12867785537162
 20
775.6615505537286
 11
933.05280299080869
 21
775.73627084431246
  0
LINE
  8
_0-1_DEFPOINTS
  6
CONTINUOUS
 62
    7
 10
933.05280299080869
 20
775.73627084431246
 11
932.97692812624564
 21
775.81099780873444
  0
LINE
  8
_0-1_DEFPOINTS
  6
CONTINUOUS
 62
    7
 10
932.97692812624564
 20
775.81099780873444
 11
932.90335573580273
 21
775.88457019917723
  0
LINE
  8
_0-1_DEFPOINTS
  6
CONTINUOUS
 62
    7
 10
927.01279938003177
 20
786.6482829983978
 11
927.04498730085049
 21
786.61724297772037
  0
LINE
  8
_0-1_DEFPOINTS
  6
CONTINUOUS
 62
    7
 10
927.04498730085049
 20
786.61724297772037
 11
927.07717522166934
 21
786.58505505690164
  0
LINE
  8
_0-1_DEFPOINTS
  6
CONTINUOUS
 62
    7
 10
927.07717522166934
 20
786.58505505690164
 11
927.10936981632597
 21
786.55286046224489
  0
LINE
  8
_0-1_DEFPOINTS
  6
CONTINUOUS
 62
    7
 10
927.10936981632597
 20
786.55286046224489
 11
927.14155773714469
 21
786.52067254142617
  0
LINE
  8
_0-1_DEFPOINTS
  6
CONTINUOUS
 62
    7
 10
926.5069758480621
 20
787.15755690462902
 11
926.46559137843815
 21
787.18974482544786
  0
LINE
  8
_0-1_DEFPOINTS
  6
CONTINUOUS
 62
    7
 10
926.46559137843815
 20
787.18974482544786
 11
926.42190443469372
 21
787.22193274626648
  0
LINE
  8
_0-1_DEFPOINTS
  6
CONTINUOUS
 62
    7
 10
926.42190443469372
 20
787.22193274626648
 11
926.3782174909494
 21
787.25412066708509
  0
LINE
  8
_0-1_DEFPOINTS
  6
CONTINUOUS
 62
    7
 10
926.3782174909494
 20
787.25412066708509
 11
926.33683302132522
 21
787.28516068776275
  0
LINE
  8
_0-1_DEFPOINTS
  6
CONTINUOUS
 62
    7
 10
906.62808167676314
 20
804.06702695205013
 11
906.02569438233729
 21
804.57630085828112
  0
LINE
  8
_0-1_DEFPOINTS
  6
CONTINUOUS
 62
    7
 10
906.02569438233729
 20
804.57630085828112
 11
905.42330041407354
 21
805.08442019053336
  0
LINE
  8
_0-1_DEFPOINTS
  6
CONTINUOUS
 62
    7
 10
905.42330041407354
 20
805.08442019053336
 11
904.82091311964768
 21
805.5925461966234
  0
LINE
  8
_0-1_DEFPOINTS
  6
CONTINUOUS
 62
    7
 10
904.82091311964768
 20
805.5925461966234
 11
904.21622335110158
 21
806.10067220271333
  0
LINE
  8
_0-1_DEFPOINTS
  6
CONTINUOUS
 62
    7
 10
923.0305869659112
 20
802.79556737360258
 11
923.86749292871116
 21
801.95866141080251
  0
LINE
  8
_0-1_DEFPOINTS
  6
CONTINUOUS
 62
    7
 10
923.86749292871116
 20
801.95866141080251
 11
924.70440556534925
 21
801.12174877416453
  0
LINE
  8
_0-1_DEFPOINTS
  6
CONTINUOUS
 62
    7
 10
924.70440556534925
 20
801.12174877416453
 11
925.54131152814932
 21
800.28484281136446
  0
LINE
  8
_0-1_DEFPOINTS
  6
CONTINUOUS
 62
    7
 10
925.54131152814932
 20
800.28484281136446
 11
926.3782174909494
 21
799.44793017472625
  0
LINE
  8
_0-1_DEFPOINTS
  6
CONTINUOUS
 62
    7
 10
923.2421075884339
 20
802.83695184322653
 11
924.05832465334106
 21
802.03108590110401
  0
LINE
  8
_0-1_DEFPOINTS
  6
CONTINUOUS
 62
    7
 10
924.05832465334106
 20
802.03108590110401
 11
924.87454171824788
 21
801.22636118528476
  0
LINE
  8
_0-1_DEFPOINTS
  6
CONTINUOUS
 62
    7
 10
924.87454171824788
 20
801.22636118528476
 11
925.69075878315516
 21
800.4216431433033
  0
LINE
  8
_0-1_DEFPOINTS
  6
CONTINUOUS
 62
    7
 10
925.69075878315516
 20
800.4216431433033
 11
926.5069758480621
 21
799.61577052734265
  0
LINE
  8
_0-1_DEFPOINTS
  6
CONTINUOUS
 62
    7
 10
927.01279938003177
 20
800.08251206380896
 11
926.22877023594356
 21
800.86654120789728
  0
LINE
  8
_0-1_DEFPOINTS
  6
CONTINUOUS
 62
    7
 10
926.22877023594356
 20
800.86654120789728
 11
925.44474776569336
 21
801.65056367814736
  0
LINE
  8
_0-1_DEFPOINTS
  6
CONTINUOUS
 62
    7
 10
925.44474776569336
 20
801.65056367814736
 11
924.6607186216047
 21
802.43459282223603
  0
LINE
  8
_0-1_DEFPOINTS
  6
CONTINUOUS
 62
    7
 10
924.6607186216047
 20
802.43459282223603
 11
923.87668947751649
 21
803.21862196632424
  0
LINE
  8
_0-1_DEFPOINTS
  6
CONTINUOUS
 62
    7
 10
927.14155773714469
 20
800.25265489054595
 11
926.34602957013067
 21
801.04702848358056
  0
LINE
  8
_0-1_DEFPOINTS
  6
CONTINUOUS
 62
    7
 10
926.34602957013067
 20
801.04702848358056
 11
925.55050807695466
 21
801.84254997675657
  0
LINE
  8
_0-1_DEFPOINTS
  6
CONTINUOUS
 62
    7
 10
925.55050807695466
 20
801.84254997675657
 11
924.75498658377865
 21
802.63692356979141
  0
LINE
  8
_0-1_DEFPOINTS
  6
CONTINUOUS
 62
    7
 10
924.75498658377865
 20
802.63692356979141
 11
923.96176089088499
 21
803.43129716282624
  0
LINE
  8
_0-1_DEFPOINTS
  6
CONTINUOUS
 62
    7
 10
994.22763832466956
 20
802.54035980733534
 11
994.22763832466956
 21
797.96379539977693
  0
LINE
  8
_0-1_DEFPOINTS
  6
CONTINUOUS
 62
    7
 10
994.22763832466956
 20
797.96379539977693
 11
994.22763832466956
 21
793.38608976591536
  0
LINE
  8
_0-1_DEFPOINTS
  6
CONTINUOUS
 62
    7
 10
994.22763832466956
 20
793.38608976591536
 11
994.22763832466956
 21
788.80953203219497
  0
LINE
  8
_0-1_DEFPOINTS
  6
CONTINUOUS
 62
    7
 10
994.22763832466956
 20
788.80953203219497
 11
994.22763832466956
 21
784.23296762463667
  0
LINE
  8
_0-1_DEFPOINTS
  6
CONTINUOUS
 62
    7
 10
996.77055748156454
 20
783.21557438615332
 11
996.77055748156454
 21
788.30025812596375
  0
LINE
  8
_0-1_DEFPOINTS
  6
CONTINUOUS
 62
    7
 10
996.77055748156454
 20
788.30025812596375
 11
996.77055748156454
 21
793.38608976591536
  0
LINE
  8
_0-1_DEFPOINTS
  6
CONTINUOUS
 62
    7
 10
996.77055748156454
 20
793.38608976591536
 11
996.77055748156454
 21
798.47192140586696
  0
LINE
  8
_0-1_DEFPOINTS
  6
CONTINUOUS
 62
    7
 10
996.77055748156454
 20
798.47192140586696
 11
996.77055748156454
 21
803.55775304581869
  0
LINE
  8
_0-1_DEFPOINTS
  6
CONTINUOUS
 62
    7
 10
1000.6286164868129
 20
640.8639973645636
 11
1000.6286164868129
 21
679.02613109873062
  0
LINE
  8
_0-1_DEFPOINTS
  6
CONTINUOUS
 62
    7
 10
1000.6286164868129
 20
679.02613109873062
 11
1000.6286164868129
 21
717.18827150673576
  0
LINE
  8
_0-1_DEFPOINTS
  6
CONTINUOUS
 62
    7
 10
1000.6286164868129
 20
717.18827150673576
 11
1000.6286164868129
 21
755.35040524090277
  0
LINE
  8
_0-1_DEFPOINTS
  6
CONTINUOUS
 62
    7
 10
1000.6286164868129
 20
755.35040524090277
 11
1000.6286164868129
 21
793.5125456489078
  0
LINE
  8
_0-1_DEFPOINTS
  6
CONTINUOUS
 62
    7
 10
933.96558381817181
 20
769.86641006027253
 11
933.77475209354202
 21
769.86641006027253
  0
LINE
  8
_0-1_DEFPOINTS
  6
CONTINUOUS
 62
    7
 10
933.77475209354202
 20
769.86641006027253
 11
933.58391369507399
 21
769.86641006027253
  0
LINE
  8
_0-1_DEFPOINTS
  6
CONTINUOUS
 62
    7
 10
933.58391369507399
 20
769.86641006027253
 11
933.39308197044431
 21
769.86641006027253
  0
LINE
  8
_0-1_DEFPOINTS
  6
CONTINUOUS
 62
    7
 10
933.39308197044431
 20
769.86641006027253
 11
933.20225024581441
 21
769.86641006027253
  0
LINE
  8
_0-1_DEFPOINTS
  6
CONTINUOUS
 62
    7
 10
907.56155807585731
 20
804.06702695205013
 11
908.18694341613445
 21
803.70720030082452
  0
LINE
  8
_0-1_DEFPOINTS
  6
CONTINUOUS
 62
    7
 10
908.18694341613445
 20
803.70720030082452
 11
908.81232875641172
 21
803.34622574945774
  0
LINE
  8
_0-1_DEFPOINTS
  6
CONTINUOUS
 62
    7
 10
908.81232875641172
 20
803.34622574945774
 11
909.43770742285096
 21
802.98639909823237
  0
LINE
  8
_0-1_DEFPOINTS
  6
CONTINUOUS
 62
    7
 10
909.43770742285096
 20
802.98639909823237
 11
910.063092763128
 21
802.62657912084501
  0
LINE
  8
_0-1_DEFPOINTS
  6
CONTINUOUS
 62
    7
 10
927.01279938003177
 20
812.07629329801489
 11
927.04498730085049
 21
812.04410537719605
  0
LINE
  8
_0-1_DEFPOINTS
  6
CONTINUOUS
 62
    7
 10
927.04498730085049
 20
812.04410537719605
 11
927.07717522166934
 21
812.01306535651861
  0
LINE
  8
_0-1_DEFPOINTS
  6
CONTINUOUS
 62
    7
 10
927.07717522166934
 20
812.01306535651861
 11
927.10936981632597
 21
811.98202533584106
  0
LINE
  8
_0-1_DEFPOINTS
  6
CONTINUOUS
 62
    7
 10
927.10936981632597
 20
811.98202533584106
 11
927.14155773714469
 21
811.94983741502256
  0
LINE
  8
_0-1_DEFPOINTS
  6
CONTINUOUS
 62
    7
 10
926.5069758480621
 20
812.58441930410504
 11
926.46559137843815
 21
812.61660722492377
  0
LINE
  8
_0-1_DEFPOINTS
  6
CONTINUOUS
 62
    7
 10
926.46559137843815
 20
812.61660722492377
 11
926.42190443469372
 21
812.64879514574227
  0
LINE
  8
_0-1_DEFPOINTS
  6
CONTINUOUS
 62
    7
 10
926.42190443469372
 20
812.64879514574227
 11
926.3782174909494
 21
812.68098306656111
  0
LINE
  8
_0-1_DEFPOINTS
  6
CONTINUOUS
 62
    7
 10
926.3782174909494
 20
812.68098306656111
 11
926.33683302132522
 21
812.71202308723878
  0
LINE
  8
_0-1_DEFPOINTS
  6
CONTINUOUS
 62
    7
 10
1010.161099603231
 20
640.69615701194709
 11
1010.161099603231
 21
678.90082978971736
  0
LINE
  8
_0-1_DEFPOINTS
  6
CONTINUOUS
 62
    7
 10
1010.161099603231
 20
678.90082978971736
 11
1010.161099603231
 21
717.10550256748763
  0
LINE
  8
_0-1_DEFPOINTS
  6
CONTINUOUS
 62
    7
 10
1010.161099603231
 20
717.10550256748763
 11
1010.161099603231
 21
755.31016867141966
  0
LINE
  8
_0-1_DEFPOINTS
  6
CONTINUOUS
 62
    7
 10
1010.161099603231
 20
755.31016867141966
 11
1010.161099603231
 21
793.51484144919016
  0
LINE
  8
_0-1_DEFPOINTS
  6
CONTINUOUS
 62
    7
 10
933.96558381817181
 20
770.24808018337012
 11
933.77475209354202
 21
770.24808018337012
  0
LINE
  8
_0-1_DEFPOINTS
  6
CONTINUOUS
 62
    7
 10
933.77475209354202
 20
770.24808018337012
 11
933.58391369507399
 21
770.24808018337012
  0
LINE
  8
_0-1_DEFPOINTS
  6
CONTINUOUS
 62
    7
 10
933.58391369507399
 20
770.24808018337012
 11
933.39308197044431
 21
770.24808018337012
  0
LINE
  8
_0-1_DEFPOINTS
  6
CONTINUOUS
 62
    7
 10
933.39308197044431
 20
770.24808018337012
 11
933.20225024581441
 21
770.24808018337012
  0
LINE
  8
_0-1_DEFPOINTS
  6
CONTINUOUS
 62
    7
 10
935.99807449485616
 20
770.62975030646783
 11
935.9336986532187
 21
770.62975030646783
  0
LINE
  8
_0-1_DEFPOINTS
  6
CONTINUOUS
 62
    7
 10
935.9336986532187
 20
770.62975030646783
 11
935.8716186118636
 21
770.62975030646783
  0
LINE
  8
_0-1_DEFPOINTS
  6
CONTINUOUS
 62
    7
 10
935.8716186118636
 20
770.62975030646783
 11
935.80954524434674
 21
770.62975030646783
  0
LINE
  8
_0-1_DEFPOINTS
  6
CONTINUOUS
 62
    7
 10
935.80954524434674
 20
770.62975030646783
 11
935.74516272887126
 21
770.62975030646783
  0
LINE
  8
_0-1_DEFPOINTS
  6
CONTINUOUS
 62
    7
 10
938.03057184537863
 20
771.90120321107725
 11
937.52244583928837
 21
771.90120321107725
  0
LINE
  8
_0-1_DEFPOINTS
  6
CONTINUOUS
 62
    7
 10
937.52244583928837
 20
771.90120321107725
 11
937.01432650703634
 21
771.90120321107725
  0
LINE
  8
_0-1_DEFPOINTS
  6
CONTINUOUS
 62
    7
 10
937.01432650703634
 20
771.90120321107725
 11
936.50850297506668
 21
771.90120321107725
  0
LINE
  8
_0-1_DEFPOINTS
  6
CONTINUOUS
 62
    7
 10
936.50850297506668
 20
771.90120321107725
 11
936.00037696897652
 21
771.90120321107725
  0
LINE
  8
_0-1_DEFPOINTS
  6
CONTINUOUS
 62
    7
 10
913.6636417279891
 20
777.49516085711889
 11
912.76235324971367
 21
777.62276464025263
  0
LINE
  8
_0-1_DEFPOINTS
  6
CONTINUOUS
 62
    7
 10
912.76235324971367
 20
777.62276464025263
 11
911.86336724555872
 21
777.74922052324519
  0
LINE
  8
_0-1_DEFPOINTS
  6
CONTINUOUS
 62
    7
 10
911.86336724555872
 20
777.74922052324519
 11
910.96437456756553
 21
777.87567640623752
  0
LINE
  8
_0-1_DEFPOINTS
  6
CONTINUOUS
 62
    7
 10
910.96437456756553
 20
777.87567640623752
 11
910.063092763128
 21
778.00328686320904
  0
LINE
  8
_0-1_DEFPOINTS
  6
CONTINUOUS
 62
    7
 10
918.2850343055951
 20
777.49516085711889
 11
917.38374582731967
 21
777.62276464025263
  0
LINE
  8
_0-1_DEFPOINTS
  6
CONTINUOUS
 62
    7
 10
917.38374582731967
 20
777.62276464025263
 11
916.48245734904424
 21
777.74922052324519
  0
LINE
  8
_0-1_DEFPOINTS
  6
CONTINUOUS
 62
    7
 10
916.48245734904424
 20
777.74922052324519
 11
915.58117554460682
 21
777.87567640623752
  0
LINE
  8
_0-1_DEFPOINTS
  6
CONTINUOUS
 62
    7
 10
915.58117554460682
 20
777.87567640623752
 11
914.68218286661363
 21
778.00328686320904
  0
LINE
  8
_0-1_DEFPOINTS
  6
CONTINUOUS
 62
    7
 10
922.90182860879838
 20
777.49516085711889
 11
922.00054013052295
 21
777.62276464025263
  0
LINE
  8
_0-1_DEFPOINTS
  6
CONTINUOUS
 62
    7
 10
922.00054013052295
 20
777.62276464025263
 11
921.10155412636789
 21
777.74922052324519
  0
LINE
  8
_0-1_DEFPOINTS
  6
CONTINUOUS
 62
    7
 10
921.10155412636789
 20
777.74922052324519
 11
920.20256812221282
 21
777.87567640623752
  0
LINE
  8
_0-1_DEFPOINTS
  6
CONTINUOUS
 62
    7
 10
920.20256812221282
 20
777.87567640623752
 11
919.30127964393728
 21
778.00328686320904
  0
LINE
  8
_0-1_DEFPOINTS
  6
CONTINUOUS
 62
    7
 10
927.48183671678021
 20
777.49516085711889
 11
926.58054823850478
 21
777.62276464025263
  0
LINE
  8
_0-1_DEFPOINTS
  6
CONTINUOUS
 62
    7
 10
926.58054823850478
 20
777.62276464025263
 11
925.67926643406736
 21
777.74922052324519
  0
LINE
  8
_0-1_DEFPOINTS
  6
CONTINUOUS
 62
    7
 10
925.67926643406736
 20
777.74922052324519
 11
924.77797795579193
 21
777.87567640623752
  0
LINE
  8
_0-1_DEFPOINTS
  6
CONTINUOUS
 62
    7
 10
924.77797795579193
 20
777.87567640623752
 11
923.87668947751649
 21
778.00328686320904
  0
LINE
  8
_0-1_DEFPOINTS
  6
CONTINUOUS
 62
    7
 10
932.09863101998349
 20
777.49516085711889
 11
931.19734254170794
 21
777.62276464025263
  0
LINE
  8
_0-1_DEFPOINTS
  6
CONTINUOUS
 62
    7
 10
931.19734254170794
 20
777.62276464025263
 11
930.29835653755299
 21
777.74922052324519
  0
LINE
  8
_0-1_DEFPOINTS
  6
CONTINUOUS
 62
    7
 10
930.29835653755299
 20
777.74922052324519
 11
929.39937053339793
 21
777.87567640623752
  0
LINE
  8
_0-1_DEFPOINTS
  6
CONTINUOUS
 62
    7
 10
929.39937053339793
 20
777.87567640623752
 11
928.4980820551225
 21
778.00328686320904
  0
LINE
  8
_0-1_DEFPOINTS
  6
CONTINUOUS
 62
    7
 10
1014.0605497519418
 20
783.21557438615332
 11
1014.0605497519418
 21
788.30025812596375
  0
LINE
  8
_0-1_DEFPOINTS
  6
CONTINUOUS
 62
    7
 10
1014.0605497519418
 20
788.30025812596375
 11
1014.0605497519418
 21
793.38608976591536
  0
LINE
  8
_0-1_DEFPOINTS
  6
CONTINUOUS
 62
    7
 10
1014.0605497519418
 20
793.38608976591536
 11
1014.0605497519418
 21
798.47192140586696
  0
LINE
  8
_0-1_DEFPOINTS
  6
CONTINUOUS
 62
    7
 10
1014.0605497519418
 20
798.47192140586696
 11
1014.0605497519418
 21
803.55775304581869
  0
LINE
  8
_0-1_DEFPOINTS
  6
CONTINUOUS
 62
    7
 10
932.90335573580273
 20
777.19856214738968
 11
932.70102498824735
 21
777.19856214738968
  0
LINE
  8
_0-1_DEFPOINTS
  6
CONTINUOUS
 62
    7
 10
932.70102498824735
 20
777.19856214738968
 11
932.50099004097422
 21
777.19856214738968
  0
LINE
  8
_0-1_DEFPOINTS
  6
CONTINUOUS
 62
    7
 10
932.50099004097422
 20
777.19856214738968
 11
932.30096176753909
 21
777.19856214738968
  0
LINE
  8
_0-1_DEFPOINTS
  6
CONTINUOUS
 62
    7
 10
932.30096176753909
 20
777.19856214738968
 11
932.09863101998349
 21
777.19856214738968
  0
LINE
  8
_0-1_DEFPOINTS
  6
CONTINUOUS
 62
    7
 10
923.20072311881006
 20
777.19856214738968
 11
923.12715072836727
 21
777.19856214738968
  0
LINE
  8
_0-1_DEFPOINTS
  6
CONTINUOUS
 62
    7
 10
923.12715072836727
 20
777.19856214738968
 11
923.05127586380422
 21
777.19856214738968
  0
LINE
  8
_0-1_DEFPOINTS
  6
CONTINUOUS
 62
    7
 10
923.05127586380422
 20
777.19856214738968
 11
922.97540099924106
 21
777.19856214738968
  0
LINE
  8
_0-1_DEFPOINTS
  6
CONTINUOUS
 62
    7
 10
922.97540099924106
 20
777.19856214738968
 11
922.90182860879838
 21
777.19856214738968
  0
LINE
  8
_0-1_DEFPOINTS
  6
CONTINUOUS
 62
    7
 10
919.30127964393728
 20
777.19856214738968
 11
919.04607207767015
 21
777.19856214738968
  0
LINE
  8
_0-1_DEFPOINTS
  6
CONTINUOUS
 62
    7
 10
919.04607207767015
 20
777.19856214738968
 11
918.790857837565
 21
777.19856214738968
  0
LINE
  8
_0-1_DEFPOINTS
  6
CONTINUOUS
 62
    7
 10
918.790857837565
 20
777.19856214738968
 11
918.53794607157988
 21
777.19856214738968
  0
LINE
  8
_0-1_DEFPOINTS
  6
CONTINUOUS
 62
    7
 10
918.53794607157988
 20
777.19856214738968
 11
918.28273183147473
 21
777.19856214738968
  0
LINE
  8
_0-1_DEFPOINTS
  6
CONTINUOUS
 62
    7
 10
914.67988706633139
 20
777.19856214738968
 11
914.4269753003465
 21
777.19856214738968
  0
LINE
  8
_0-1_DEFPOINTS
  6
CONTINUOUS
 62
    7
 10
914.4269753003465
 20
777.19856214738968
 11
914.17176106024135
 21
777.19856214738968
  0
LINE
  8
_0-1_DEFPOINTS
  6
CONTINUOUS
 62
    7
 10
914.17176106024135
 20
777.19856214738968
 11
913.91655349397411
 21
777.19856214738968
  0
LINE
  8
_0-1_DEFPOINTS
  6
CONTINUOUS
 62
    7
 10
913.91655349397411
 20
777.19856214738968
 11
913.6636417279891
 21
777.19856214738968
  0
LINE
  8
_0-1_DEFPOINTS
  6
CONTINUOUS
 62
    7
 10
928.4980820551225
 20
777.19856214738968
 11
928.24287448885525
 21
777.19856214738968
  0
LINE
  8
_0-1_DEFPOINTS
  6
CONTINUOUS
 62
    7
 10
928.24287448885525
 20
777.19856214738968
 11
927.9876602487501
 21
777.19856214738968
  0
LINE
  8
_0-1_DEFPOINTS
  6
CONTINUOUS
 62
    7
 10
927.9876602487501
 20
777.19856214738968
 11
927.73474848276521
 21
777.19856214738968
  0
LINE
  8
_0-1_DEFPOINTS
  6
CONTINUOUS
 62
    7
 10
927.73474848276521
 20
777.19856214738968
 11
927.47954091649808
 21
777.19856214738968
  0
LINE
  8
_0-1_DEFPOINTS
  6
CONTINUOUS
 62
    7
 10
923.87668947751649
 20
777.41008944375062
 11
923.71804567370532
 21
777.41008944375062
  0
LINE
  8
_0-1_DEFPOINTS
  6
CONTINUOUS
 62
    7
 10
923.71804567370532
 20
777.41008944375062
 11
923.55940186989426
 21
777.41008944375062
  0
LINE
  8
_0-1_DEFPOINTS
  6
CONTINUOUS
 62
    7
 10
923.55940186989426
 20
777.41008944375062
 11
923.40075806608309
 21
777.41008944375062
  0
LINE
  8
_0-1_DEFPOINTS
  6
CONTINUOUS
 62
    7
 10
923.40075806608309
 20
777.41008944375062
 11
923.2421075884339
 21
777.41008944375062
  0
LINE
  8
_0-1_DEFPOINTS
  6
CONTINUOUS
 62
    7
 10
907.56155807585731
 20
778.63901665243293
 11
907.32934188160345
 21
778.63901665243293
  0
LINE
  8
_0-1_DEFPOINTS
  6
CONTINUOUS
 62
    7
 10
907.32934188160345
 20
778.63901665243293
 11
907.09711901351159
 21
778.63901665243293
  0
LINE
  8
_0-1_DEFPOINTS
  6
CONTINUOUS
 62
    7
 10
907.09711901351159
 20
778.63901665243293
 11
906.86260034513737
 21
778.63901665243293
  0
LINE
  8
_0-1_DEFPOINTS
  6
CONTINUOUS
 62
    7
 10
906.86260034513737
 20
778.63901665243293
 11
906.63038415088351
 21
778.63901665243293
  0
LINE
  8
_0-1_DEFPOINTS
  6
CONTINUOUS
 62
    7
 10
905.99350646151856
 20
779.14713598468495
 11
906.26021305071163
 21
779.14713598468495
  0
LINE
  8
_0-1_DEFPOINTS
  6
CONTINUOUS
 62
    7
 10
906.26021305071163
 20
779.14713598468495
 11
906.52462383962211
 21
779.14713598468495
  0
LINE
  8
_0-1_DEFPOINTS
  6
CONTINUOUS
 62
    7
 10
906.52462383962211
 20
779.14713598468495
 11
906.78902795469469
 21
779.14713598468495
  0
LINE
  8
_0-1_DEFPOINTS
  6
CONTINUOUS
 62
    7
 10
906.78902795469469
 20
779.14713598468495
 11
907.05573454388764
 21
779.14713598468495
  0
LINE
  8
_0-1_DEFPOINTS
  6
CONTINUOUS
 62
    7
 10
929.09127947458103
 20
779.69894893451942
 11
924.09051257415967
 21
779.69894893451942
  0
LINE
  8
_0-1_DEFPOINTS
  6
CONTINUOUS
 62
    7
 10
924.09051257415967
 20
779.69894893451942
 11
919.08975234757645
 21
779.69894893451942
  0
LINE
  8
_0-1_DEFPOINTS
  6
CONTINUOUS
 62
    7
 10
919.08975234757645
 20
779.69894893451942
 11
914.08899212099323
 21
779.69894893451942
  0
LINE
  8
_0-1_DEFPOINTS
  6
CONTINUOUS
 62
    7
 10
914.08899212099323
 20
779.69894893451942
 11
909.08823189441
 21
779.69894893451942
  0
LINE
  8
_0-1_DEFPOINTS
  6
CONTINUOUS
 62
    7
 10
901.67100839392435
 20
780.67380980323765
 11
904.01159680326373
 21
780.67380980323765
  0
LINE
  8
_0-1_DEFPOINTS
  6
CONTINUOUS
 62
    7
 10
904.01159680326373
 20
780.67380980323765
 11
906.35448101288534
 21
780.67380980323765
  0
LINE
  8
_0-1_DEFPOINTS
  6
CONTINUOUS
 62
    7
 10
906.35448101288534
 20
780.67380980323765
 11
908.69736522250696
 21
780.67380980323765
  0
LINE
  8
_0-1_DEFPOINTS
  6
CONTINUOUS
 62
    7
 10
908.69736522250696
 20
780.67380980323765
 11
911.03795363184634
 21
780.67380980323765
  0
LINE
  8
_0-1_DEFPOINTS
  6
CONTINUOUS
 62
    7
 10
913.36933881854236
 20
780.67380980323765
 11
913.94184066626963
 21
780.67380980323765
  0
LINE
  8
_0-1_DEFPOINTS
  6
CONTINUOUS
 62
    7
 10
913.94184066626963
 20
780.67380980323765
 11
914.51434251399724
 21
780.67380980323765
  0
LINE
  8
_0-1_DEFPOINTS
  6
CONTINUOUS
 62
    7
 10
914.51434251399724
 20
780.67380980323765
 11
915.08454856144238
 21
780.67380980323765
  0
LINE
  8
_0-1_DEFPOINTS
  6
CONTINUOUS
 62
    7
 10
915.08454856144238
 20
780.67380980323765
 11
915.65704373533197
 21
780.67380980323765
  0
LINE
  8
_0-1_DEFPOINTS
  6
CONTINUOUS
 62
    7
 10
917.98613979558354
 20
780.67380980323765
 11
920.86933793211404
 21
780.67380980323765
  0
LINE
  8
_0-1_DEFPOINTS
  6
CONTINUOUS
 62
    7
 10
920.86933793211404
 20
780.67380980323765
 11
923.75023359452393
 21
780.67380980323765
  0
LINE
  8
_0-1_DEFPOINTS
  6
CONTINUOUS
 62
    7
 10
923.75023359452393
 20
780.67380980323765
 11
926.6311359307723
 21
780.67380980323765
  0
LINE
  8
_0-1_DEFPOINTS
  6
CONTINUOUS
 62
    7
 10
926.6311359307723
 20
780.67380980323765
 11
929.51433406730257
 21
780.67380980323765
  0
LINE
  8
_0-1_DEFPOINTS
  6
CONTINUOUS
 62
    7
 10
931.80433478437465
 20
780.67380980323765
 11
932.38832898118972
 21
780.67380980323765
  0
LINE
  8
_0-1_DEFPOINTS
  6
CONTINUOUS
 62
    7
 10
932.38832898118972
 20
780.67380980323765
 11
932.97002737772254
 21
780.67380980323765
  0
LINE
  8
_0-1_DEFPOINTS
  6
CONTINUOUS
 62
    7
 10
932.97002737772254
 20
780.67380980323765
 11
933.55172577425537
 21
780.67380980323765
  0
LINE
  8
_0-1_DEFPOINTS
  6
CONTINUOUS
 62
    7
 10
933.55172577425537
 20
780.67380980323765
 11
934.13572664490857
 21
780.67380980323765
  0
LINE
  8
_0-1_DEFPOINTS
  6
CONTINUOUS
 62
    7
 10
936.42112908757781
 20
780.67380980323765
 11
938.77320984600487
 21
780.67380980323765
  0
LINE
  8
_0-1_DEFPOINTS
  6
CONTINUOUS
 62
    7
 10
938.77320984600487
 20
780.67380980323765
 11
941.12529727826984
 21
780.67380980323765
  0
LINE
  8
_0-1_DEFPOINTS
  6
CONTINUOUS
 62
    7
 10
941.12529727826984
 20
780.67380980323765
 11
943.4773780366969
 21
780.67380980323765
  0
LINE
  8
_0-1_DEFPOINTS
  6
CONTINUOUS
 62
    7
 10
943.4773780366969
 20
780.67380980323765
 11
945.82945879512386
 21
780.67380980323765
  0
LINE
  8
_0-1_DEFPOINTS
  6
CONTINUOUS
 62
    7
 10
909.08823189441
 20
781.6061316283525
 11
914.08899212099323
 21
781.6061316283525
  0
LINE
  8
_0-1_DEFPOINTS
  6
CONTINUOUS
 62
    7
 10
914.08899212099323
 20
781.6061316283525
 11
919.08975234757645
 21
781.6061316283525
  0
LINE
  8
_0-1_DEFPOINTS
  6
CONTINUOUS
 62
    7
 10
919.08975234757645
 20
781.6061316283525
 11
924.09051257415967
 21
781.6061316283525
  0
LINE
  8
_0-1_DEFPOINTS
  6
CONTINUOUS
 62
    7
 10
924.09051257415967
 20
781.6061316283525
 11
929.09127947458103
 21
781.6061316283525
  0
LINE
  8
_0-1_DEFPOINTS
  6
CONTINUOUS
 62
    7
 10
905.99350646151856
 20
782.15679000420778
 11
906.26021305071163
 21
782.15679000420778
  0
LINE
  8
_0-1_DEFPOINTS
  6
CONTINUOUS
 62
    7
 10
906.26021305071163
 20
782.15679000420778
 11
906.52462383962211
 21
782.15679000420778
  0
LINE
  8
_0-1_DEFPOINTS
  6
CONTINUOUS
 62
    7
 10
906.52462383962211
 20
782.15679000420778
 11
906.78902795469469
 21
782.15679000420778
  0
LINE
  8
_0-1_DEFPOINTS
  6
CONTINUOUS
 62
    7
 10
906.78902795469469
 20
782.15679000420778
 11
907.05573454388764
 21
782.15679000420778
  0
LINE
  8
_0-1_DEFPOINTS
  6
CONTINUOUS
 62
    7
 10
907.56155807585731
 20
782.66491601029782
 11
907.32934188160345
 21
782.66491601029782
  0
LINE
  8
_0-1_DEFPOINTS
  6
CONTINUOUS
 62
    7
 10
907.32934188160345
 20
782.66491601029782
 11
907.09711901351159
 21
782.66491601029782
  0
LINE
  8
_0-1_DEFPOINTS
  6
CONTINUOUS
 62
    7
 10
907.09711901351159
 20
782.66491601029782
 11
906.86260034513737
 21
782.66491601029782
  0
LINE
  8
_0-1_DEFPOINTS
  6
CONTINUOUS
 62
    7
 10
906.86260034513737
 20
782.66491601029782
 11
906.63038415088351
 21
782.66491601029782
  0
LINE
  8
_0-1_DEFPOINTS
  6
CONTINUOUS
 62
    7
 10
996.77055748156454
 20
783.21557438615332
 11
997.73622180147731
 21
783.21557438615332
  0
LINE
  8
_0-1_DEFPOINTS
  6
CONTINUOUS
 62
    7
 10
997.73622180147731
 20
783.21557438615332
 11
998.69958364726972
 21
783.21557438615332
  0
LINE
  8
_0-1_DEFPOINTS
  6
CONTINUOUS
 62
    7
 10
998.69958364726972
 20
783.21557438615332
 11
999.66295216690014
 21
783.21557438615332
  0
LINE
  8
_0-1_DEFPOINTS
  6
CONTINUOUS
 62
    7
 10
999.66295216690014
 20
783.21557438615332
 11
1000.6286164868129
 21
783.21557438615332
  0
LINE
  8
_0-1_DEFPOINTS
  6
CONTINUOUS
 62
    7
 10
1010.161099603231
 20
783.21557438615332
 11
1011.1359604719494
 21
783.21557438615332
  0
LINE
  8
_0-1_DEFPOINTS
  6
CONTINUOUS
 62
    7
 10
1011.1359604719494
 20
783.21557438615332
 11
1012.1108280145054
 21
783.21557438615332
  0
LINE
  8
_0-1_DEFPOINTS
  6
CONTINUOUS
 62
    7
 10
1012.1108280145054
 20
783.21557438615332
 11
1013.0856888832236
 21
783.21557438615332
  0
LINE
  8
_0-1_DEFPOINTS
  6
CONTINUOUS
 62
    7
 10
1013.0856888832236
 20
783.21557438615332
 11
1014.0582472778215
 21
783.21557438615332
  0
LINE
  8
_0-1_DEFPOINTS
  6
CONTINUOUS
 62
    7
 10
928.4980820551225
 20
784.10536384150294
 11
928.24287448885525
 21
784.10536384150294
  0
LINE
  8
_0-1_DEFPOINTS
  6
CONTINUOUS
 62
    7
 10
928.24287448885525
 20
784.10536384150294
 11
927.9876602487501
 21
784.10536384150294
  0
LINE
  8
_0-1_DEFPOINTS
  6
CONTINUOUS
 62
    7
 10
927.9876602487501
 20
784.10536384150294
 11
927.73474848276521
 21
784.10536384150294
  0
LINE
  8
_0-1_DEFPOINTS
  6
CONTINUOUS
 62
    7
 10
927.73474848276521
 20
784.10536384150294
 11
927.47954091649808
 21
784.10536384150294
  0
LINE
  8
_0-1_DEFPOINTS
  6
CONTINUOUS
 62
    7
 10
933.20225024581441
 20
784.10536384150294
 11
932.92634710781613
 21
784.10536384150294
  0
LINE
  8
_0-1_DEFPOINTS
  6
CONTINUOUS
 62
    7
 10
932.92634710781613
 20
784.10536384150294
 11
932.65044396981796
 21
784.10536384150294
  0
LINE
  8
_0-1_DEFPOINTS
  6
CONTINUOUS
 62
    7
 10
932.65044396981796
 20
784.10536384150294
 11
932.37453415798177
 21
784.10536384150294
  0
LINE
  8
_0-1_DEFPOINTS
  6
CONTINUOUS
 62
    7
 10
932.37453415798177
 20
784.10536384150294
 11
932.09863101998349
 21
784.10536384150294
  0
LINE
  8
_0-1_DEFPOINTS
  6
CONTINUOUS
 62
    7
 10
923.87668947751649
 20
784.10536384150294
 11
923.63297426033705
 21
784.10536384150294
  0
LINE
  8
_0-1_DEFPOINTS
  6
CONTINUOUS
 62
    7
 10
923.63297426033705
 20
784.10536384150294
 11
923.38925904315738
 21
784.10536384150294
  0
LINE
  8
_0-1_DEFPOINTS
  6
CONTINUOUS
 62
    7
 10
923.38925904315738
 20
784.10536384150294
 11
923.14554382597794
 21
784.10536384150294
  0
LINE
  8
_0-1_DEFPOINTS
  6
CONTINUOUS
 62
    7
 10
923.14554382597794
 20
784.10536384150294
 11
922.90182860879838
 21
784.10536384150294
  0
LINE
  8
_0-1_DEFPOINTS
  6
CONTINUOUS
 62
    7
 10
919.30127964393728
 20
784.10536384150294
 11
919.04607207767015
 21
784.10536384150294
  0
LINE
  8
_0-1_DEFPOINTS
  6
CONTINUOUS
 62
    7
 10
919.04607207767015
 20
784.10536384150294
 11
918.790857837565
 21
784.10536384150294
  0
LINE
  8
_0-1_DEFPOINTS
  6
CONTINUOUS
 62
    7
 10
918.790857837565
 20
784.10536384150294
 11
918.53794607157988
 21
784.10536384150294
  0
LINE
  8
_0-1_DEFPOINTS
  6
CONTINUOUS
 62
    7
 10
918.53794607157988
 20
784.10536384150294
 11
918.28273183147473
 21
784.10536384150294
  0
LINE
  8
_0-1_DEFPOINTS
  6
CONTINUOUS
 62
    7
 10
914.67988706633139
 20
784.10536384150294
 11
914.4269753003465
 21
784.10536384150294
  0
LINE
  8
_0-1_DEFPOINTS
  6
CONTINUOUS
 62
    7
 10
914.4269753003465
 20
784.10536384150294
 11
914.17176106024135
 21
784.10536384150294
  0
LINE
  8
_0-1_DEFPOINTS
  6
CONTINUOUS
 62
    7
 10
914.17176106024135
 20
784.10536384150294
 11
913.91655349397411
 21
784.10536384150294
  0
LINE
  8
_0-1_DEFPOINTS
  6
CONTINUOUS
 62
    7
 10
913.91655349397411
 20
784.10536384150294
 11
913.6636417279891
 21
784.10536384150294
  0
LINE
  8
_0-1_DEFPOINTS
  6
CONTINUOUS
 62
    7
 10
928.4980820551225
 20
783.30064579952159
 11
929.39937053339793
 21
783.42824958265533
  0
LINE
  8
_0-1_DEFPOINTS
  6
CONTINUOUS
 62
    7
 10
929.39937053339793
 20
783.42824958265533
 11
930.29835653755299
 21
783.55470546564777
  0
LINE
  8
_0-1_DEFPOINTS
  6
CONTINUOUS
 62
    7
 10
930.29835653755299
 20
783.55470546564777
 11
931.19734254170794
 21
783.6811613486401
  0
LINE
  8
_0-1_DEFPOINTS
  6
CONTINUOUS
 62
    7
 10
931.19734254170794
 20
783.6811613486401
 11
932.09863101998349
 21
783.8087651317735
  0
LINE
  8
_0-1_DEFPOINTS
  6
CONTINUOUS
 62
    7
 10
923.87668947751649
 20
783.30064579952159
 11
924.77797795579193
 21
783.42824958265533
  0
LINE
  8
_0-1_DEFPOINTS
  6
CONTINUOUS
 62
    7
 10
924.77797795579193
 20
783.42824958265533
 11
925.67926643406736
 21
783.55470546564777
  0
LINE
  8
_0-1_DEFPOINTS
  6
CONTINUOUS
 62
    7
 10
925.67926643406736
 20
783.55470546564777
 11
926.58054823850478
 21
783.6811613486401
  0
LINE
  8
_0-1_DEFPOINTS
  6
CONTINUOUS
 62
    7
 10
926.58054823850478
 20
783.6811613486401
 11
927.47954091649808
 21
783.8087651317735
  0
LINE
  8
_0-1_DEFPOINTS
  6
CONTINUOUS
 62
    7
 10
919.30127964393728
 20
783.30064579952159
 11
920.20256812221282
 21
783.42824958265533
  0
LINE
  8
_0-1_DEFPOINTS
  6
CONTINUOUS
 62
    7
 10
920.20256812221282
 20
783.42824958265533
 11
921.10155412636789
 21
783.55470546564777
  0
LINE
  8
_0-1_DEFPOINTS
  6
CONTINUOUS
 62
    7
 10
921.10155412636789
 20
783.55470546564777
 11
922.00054013052295
 21
783.6811613486401
  0
LINE
  8
_0-1_DEFPOINTS
  6
CONTINUOUS
 62
    7
 10
922.00054013052295
 20
783.6811613486401
 11
922.90182860879838
 21
783.8087651317735
  0
LINE
  8
_0-1_DEFPOINTS
  6
CONTINUOUS
 62
    7
 10
914.67988706633139
 20
783.30064579952159
 11
915.58117554460682
 21
783.42824958265533
  0
LINE
  8
_0-1_DEFPOINTS
  6
CONTINUOUS
 62
    7
 10
915.58117554460682
 20
783.42824958265533
 11
916.48245734904424
 21
783.55470546564777
  0
LINE
  8
_0-1_DEFPOINTS
  6
CONTINUOUS
 62
    7
 10
916.48245734904424
 20
783.55470546564777
 11
917.38374582731967
 21
783.6811613486401
  0
LINE
  8
_0-1_DEFPOINTS
  6
CONTINUOUS
 62
    7
 10
917.38374582731967
 20
783.6811613486401
 11
918.28273183147473
 21
783.8087651317735
  0
LINE
  8
_0-1_DEFPOINTS
  6
CONTINUOUS
 62
    7
 10
910.063092763128
 20
783.30064579952159
 11
910.96437456756553
 21
783.42824958265533
  0
LINE
  8
_0-1_DEFPOINTS
  6
CONTINUOUS
 62
    7
 10
910.96437456756553
 20
783.42824958265533
 11
911.86336724555872
 21
783.55470546564777
  0
LINE
  8
_0-1_DEFPOINTS
  6
CONTINUOUS
 62
    7
 10
911.86336724555872
 20
783.55470546564777
 11
912.76235324971367
 21
783.6811613486401
  0
LINE
  8
_0-1_DEFPOINTS
  6
CONTINUOUS
 62
    7
 10
912.76235324971367
 20
783.6811613486401
 11
913.6636417279891
 21
783.8087651317735
  0
LINE
  8
_0-1_DEFPOINTS
  6
CONTINUOUS
 62
    7
 10
913.6636417279891
 20
802.92202325659503
 11
912.76235324971367
 21
803.04963371356678
  0
LINE
  8
_0-1_DEFPOINTS
  6
CONTINUOUS
 62
    7
 10
912.76235324971367
 20
803.04963371356678
 11
911.86336724555872
 21
803.176089596559
  0
LINE
  8
_0-1_DEFPOINTS
  6
CONTINUOUS
 62
    7
 10
911.86336724555872
 20
803.176089596559
 11
910.96437456756553
 21
803.30254547955155
  0
LINE
  8
_0-1_DEFPOINTS
  6
CONTINUOUS
 62
    7
 10
910.96437456756553
 20
803.30254547955155
 11
910.063092763128
 21
803.43014926268529
  0
LINE
  8
_0-1_DEFPOINTS
  6
CONTINUOUS
 62
    7
 10
918.2850343055951
 20
802.92202325659503
 11
917.38374582731967
 21
803.04963371356678
  0
LINE
  8
_0-1_DEFPOINTS
  6
CONTINUOUS
 62
    7
 10
917.38374582731967
 20
803.04963371356678
 11
916.48245734904424
 21
803.176089596559
  0
LINE
  8
_0-1_DEFPOINTS
  6
CONTINUOUS
 62
    7
 10
916.48245734904424
 20
803.176089596559
 11
915.58117554460682
 21
803.30254547955155
  0
LINE
  8
_0-1_DEFPOINTS
  6
CONTINUOUS
 62
    7
 10
915.58117554460682
 20
803.30254547955155
 11
914.68218286661363
 21
803.43014926268529
  0
LINE
  8
_0-1_DEFPOINTS
  6
CONTINUOUS
 62
    7
 10
922.90182860879838
 20
802.92202325659503
 11
922.00054013052295
 21
803.04963371356678
  0
LINE
  8
_0-1_DEFPOINTS
  6
CONTINUOUS
 62
    7
 10
922.00054013052295
 20
803.04963371356678
 11
921.10155412636789
 21
803.176089596559
  0
LINE
  8
_0-1_DEFPOINTS
  6
CONTINUOUS
 62
    7
 10
921.10155412636789
 20
803.176089596559
 11
920.20256812221282
 21
803.30254547955155
  0
LINE
  8
_0-1_DEFPOINTS
  6
CONTINUOUS
 62
    7
 10
920.20256812221282
 20
803.30254547955155
 11
919.30127964393728
 21
803.43014926268529
  0
LINE
  8
_0-1_DEFPOINTS
  6
CONTINUOUS
 62
    7
 10
927.48183671678021
 20
802.92202325659503
 11
926.58054823850478
 21
803.04963371356678
  0
LINE
  8
_0-1_DEFPOINTS
  6
CONTINUOUS
 62
    7
 10
926.58054823850478
 20
803.04963371356678
 11
925.67926643406736
 21
803.176089596559
  0
LINE
  8
_0-1_DEFPOINTS
  6
CONTINUOUS
 62
    7
 10
925.67926643406736
 20
803.176089596559
 11
924.77797795579193
 21
803.30254547955155
  0
LINE
  8
_0-1_DEFPOINTS
  6
CONTINUOUS
 62
    7
 10
924.77797795579193
 20
803.30254547955155
 11
923.87668947751649
 21
803.43014926268529
  0
LINE
  8
_0-1_DEFPOINTS
  6
CONTINUOUS
 62
    7
 10
932.09863101998349
 20
802.92202325659503
 11
931.19734254170794
 21
803.04963371356678
  0
LINE
  8
_0-1_DEFPOINTS
  6
CONTINUOUS
 62
    7
 10
931.19734254170794
 20
803.04963371356678
 11
930.29835653755299
 21
803.176089596559
  0
LINE
  8
_0-1_DEFPOINTS
  6
CONTINUOUS
 62
    7
 10
930.29835653755299
 20
803.176089596559
 11
929.39937053339793
 21
803.30254547955155
  0
LINE
  8
_0-1_DEFPOINTS
  6
CONTINUOUS
 62
    7
 10
929.39937053339793
 20
803.30254547955155
 11
928.4980820551225
 21
803.43014926268529
  0
LINE
  8
_0-1_DEFPOINTS
  6
CONTINUOUS
 62
    7
 10
994.22763832466956
 20
785.33543895032631
 11
994.86222021375227
 21
784.80546947236405
  0
LINE
  8
_0-1_DEFPOINTS
  6
CONTINUOUS
 62
    7
 10
994.86222021375227
 20
784.80546947236405
 11
995.49909790311699
 21
784.27665456838099
  0
LINE
  8
_0-1_DEFPOINTS
  6
CONTINUOUS
 62
    7
 10
995.49909790311699
 20
784.27665456838099
 11
996.13597559248183
 21
783.74669176425664
  0
LINE
  8
_0-1_DEFPOINTS
  6
CONTINUOUS
 62
    7
 10
996.13597559248183
 20
783.74669176425664
 11
996.77055748156454
 21
783.21672228629438
  0
LINE
  8
_0-1_DEFPOINTS
  6
CONTINUOUS
 62
    7
 10
933.20225024581441
 20
802.6254245468657
 11
932.92634710781613
 21
802.6254245468657
  0
LINE
  8
_0-1_DEFPOINTS
  6
CONTINUOUS
 62
    7
 10
932.92634710781613
 20
802.6254245468657
 11
932.65044396981796
 21
802.6254245468657
  0
LINE
  8
_0-1_DEFPOINTS
  6
CONTINUOUS
 62
    7
 10
932.65044396981796
 20
802.6254245468657
 11
932.37453415798177
 21
802.6254245468657
  0
LINE
  8
_0-1_DEFPOINTS
  6
CONTINUOUS
 62
    7
 10
932.37453415798177
 20
802.6254245468657
 11
932.09863101998349
 21
802.6254245468657
  0
LINE
  8
_0-1_DEFPOINTS
  6
CONTINUOUS
 62
    7
 10
923.20072311881006
 20
802.6254245468657
 11
923.12715072836727
 21
802.6254245468657
  0
LINE
  8
_0-1_DEFPOINTS
  6
CONTINUOUS
 62
    7
 10
923.12715072836727
 20
802.6254245468657
 11
923.05127586380422
 21
802.6254245468657
  0
LINE
  8
_0-1_DEFPOINTS
  6
CONTINUOUS
 62
    7
 10
923.05127586380422
 20
802.6254245468657
 11
922.97540099924106
 21
802.6254245468657
  0
LINE
  8
_0-1_DEFPOINTS
  6
CONTINUOUS
 62
    7
 10
922.97540099924106
 20
802.6254245468657
 11
922.90182860879838
 21
802.6254245468657
  0
LINE
  8
_0-1_DEFPOINTS
  6
CONTINUOUS
 62
    7
 10
919.30127964393728
 20
802.6254245468657
 11
919.04607207767015
 21
802.6254245468657
  0
LINE
  8
_0-1_DEFPOINTS
  6
CONTINUOUS
 62
    7
 10
919.04607207767015
 20
802.6254245468657
 11
918.790857837565
 21
802.6254245468657
  0
LINE
  8
_0-1_DEFPOINTS
  6
CONTINUOUS
 62
    7
 10
918.790857837565
 20
802.6254245468657
 11
918.53794607157988
 21
802.6254245468657
  0
LINE
  8
_0-1_DEFPOINTS
  6
CONTINUOUS
 62
    7
 10
918.53794607157988
 20
802.6254245468657
 11
918.28273183147473
 21
802.6254245468657
  0
LINE
  8
_0-1_DEFPOINTS
  6
CONTINUOUS
 62
    7
 10
914.67988706633139
 20
802.6254245468657
 11
914.4269753003465
 21
802.6254245468657
  0
LINE
  8
_0-1_DEFPOINTS
  6
CONTINUOUS
 62
    7
 10
914.4269753003465
 20
802.6254245468657
 11
914.17176106024135
 21
802.6254245468657
  0
LINE
  8
_0-1_DEFPOINTS
  6
CONTINUOUS
 62
    7
 10
914.17176106024135
 20
802.6254245468657
 11
913.91655349397411
 21
802.6254245468657
  0
LINE
  8
_0-1_DEFPOINTS
  6
CONTINUOUS
 62
    7
 10
913.91655349397411
 20
802.6254245468657
 11
913.6636417279891
 21
802.6254245468657
  0
LINE
  8
_0-1_DEFPOINTS
  6
CONTINUOUS
 62
    7
 10
928.4980820551225
 20
802.6254245468657
 11
928.24287448885525
 21
802.6254245468657
  0
LINE
  8
_0-1_DEFPOINTS
  6
CONTINUOUS
 62
    7
 10
928.24287448885525
 20
802.6254245468657
 11
927.9876602487501
 21
802.6254245468657
  0
LINE
  8
_0-1_DEFPOINTS
  6
CONTINUOUS
 62
    7
 10
927.9876602487501
 20
802.6254245468657
 11
927.73474848276521
 21
802.6254245468657
  0
LINE
  8
_0-1_DEFPOINTS
  6
CONTINUOUS
 62
    7
 10
927.73474848276521
 20
802.6254245468657
 11
927.47954091649808
 21
802.6254245468657
  0
LINE
  8
_0-1_DEFPOINTS
  6
CONTINUOUS
 62
    7
 10
923.87668947751649
 20
802.83695184322653
 11
923.71804567370532
 21
802.83695184322653
  0
LINE
  8
_0-1_DEFPOINTS
  6
CONTINUOUS
 62
    7
 10
923.71804567370532
 20
802.83695184322653
 11
923.55940186989426
 21
802.83695184322653
  0
LINE
  8
_0-1_DEFPOINTS
  6
CONTINUOUS
 62
    7
 10
923.55940186989426
 20
802.83695184322653
 11
923.40075806608309
 21
802.83695184322653
  0
LINE
  8
_0-1_DEFPOINTS
  6
CONTINUOUS
 62
    7
 10
923.40075806608309
 20
802.83695184322653
 11
923.2421075884339
 21
802.83695184322653
  0
LINE
  8
_0-1_DEFPOINTS
  6
CONTINUOUS
 62
    7
 10
996.77055748156454
 20
803.55775304581869
 11
1001.0930555491586
 21
803.55775304581869
  0
LINE
  8
_0-1_DEFPOINTS
  6
CONTINUOUS
 62
    7
 10
1001.0930555491586
 20
803.55775304581869
 11
1005.4155536167531
 21
803.55775304581869
  0
LINE
  8
_0-1_DEFPOINTS
  6
CONTINUOUS
 62
    7
 10
1005.4155536167531
 20
803.55775304581869
 11
1009.7380516843474
 21
803.55775304581869
  0
LINE
  8
_0-1_DEFPOINTS
  6
CONTINUOUS
 62
    7
 10
1009.7380516843474
 20
803.55775304581869
 11
1014.0605497519418
 21
803.55775304581869
  0
LINE
  8
_0-1_DEFPOINTS
  6
CONTINUOUS
 62
    7
 10
907.56155807585731
 20
804.06702695205013
 11
907.32934188160345
 21
804.06702695205013
  0
LINE
  8
_0-1_DEFPOINTS
  6
CONTINUOUS
 62
    7
 10
907.32934188160345
 20
804.06702695205013
 11
907.09711901351159
 21
804.06702695205013
  0
LINE
  8
_0-1_DEFPOINTS
  6
CONTINUOUS
 62
    7
 10
907.09711901351159
 20
804.06702695205013
 11
906.86260034513737
 21
804.06702695205013
  0
LINE
  8
_0-1_DEFPOINTS
  6
CONTINUOUS
 62
    7
 10
906.86260034513737
 20
804.06702695205013
 11
906.63038415088351
 21
804.06702695205013
  0
LINE
  8
_0-1_DEFPOINTS
  6
CONTINUOUS
 62
    7
 10
905.99350646151856
 20
804.57515295814005
 11
906.26021305071163
 21
804.57515295814005
  0
LINE
  8
_0-1_DEFPOINTS
  6
CONTINUOUS
 62
    7
 10
906.26021305071163
 20
804.57515295814005
 11
906.52462383962211
 21
804.57515295814005
  0
LINE
  8
_0-1_DEFPOINTS
  6
CONTINUOUS
 62
    7
 10
906.52462383962211
 20
804.57515295814005
 11
906.78902795469469
 21
804.57515295814005
  0
LINE
  8
_0-1_DEFPOINTS
  6
CONTINUOUS
 62
    7
 10
906.78902795469469
 20
804.57515295814005
 11
907.05573454388764
 21
804.57515295814005
  0
LINE
  8
_0-1_DEFPOINTS
  6
CONTINUOUS
 62
    7
 10
929.09127947458103
 20
805.12581133399544
 11
924.09051257415967
 21
805.12581133399544
  0
LINE
  8
_0-1_DEFPOINTS
  6
CONTINUOUS
 62
    7
 10
924.09051257415967
 20
805.12581133399544
 11
919.08975234757645
 21
805.12581133399544
  0
LINE
  8
_0-1_DEFPOINTS
  6
CONTINUOUS
 62
    7
 10
919.08975234757645
 20
805.12581133399544
 11
914.08899212099323
 21
805.12581133399544
  0
LINE
  8
_0-1_DEFPOINTS
  6
CONTINUOUS
 62
    7
 10
914.08899212099323
 20
805.12581133399544
 11
909.08823189441
 21
805.12581133399544
  0
LINE
  8
_0-1_DEFPOINTS
  6
CONTINUOUS
 62
    7
 10
928.4980820551225
 20
808.7275081989975
 11
929.39937053339793
 21
808.85511198213112
  0
LINE
  8
_0-1_DEFPOINTS
  6
CONTINUOUS
 62
    7
 10
929.39937053339793
 20
808.85511198213112
 11
930.29835653755299
 21
808.98156786512368
  0
LINE
  8
_0-1_DEFPOINTS
  6
CONTINUOUS
 62
    7
 10
930.29835653755299
 20
808.98156786512368
 11
931.19734254170794
 21
809.10802374811612
  0
LINE
  8
_0-1_DEFPOINTS
  6
CONTINUOUS
 62
    7
 10
931.19734254170794
 20
809.10802374811612
 11
932.09863101998349
 21
809.23562753124952
  0
LINE
  8
_0-1_DEFPOINTS
  6
CONTINUOUS
 62
    7
 10
901.67100839392435
 20
806.10067220271333
 11
904.01159680326373
 21
806.10067220271333
  0
LINE
  8
_0-1_DEFPOINTS
  6
CONTINUOUS
 62
    7
 10
904.01159680326373
 20
806.10067220271333
 11
906.35448101288534
 21
806.10067220271333
  0
LINE
  8
_0-1_DEFPOINTS
  6
CONTINUOUS
 62
    7
 10
906.35448101288534
 20
806.10067220271333
 11
908.69736522250696
 21
806.10067220271333
  0
LINE
  8
_0-1_DEFPOINTS
  6
CONTINUOUS
 62
    7
 10
908.69736522250696
 20
806.10067220271333
 11
911.03795363184634
 21
806.10067220271333
  0
LINE
  8
_0-1_DEFPOINTS
  6
CONTINUOUS
 62
    7
 10
913.36933881854236
 20
806.10067220271333
 11
913.94184066626963
 21
806.10067220271333
  0
LINE
  8
_0-1_DEFPOINTS
  6
CONTINUOUS
 62
    7
 10
913.94184066626963
 20
806.10067220271333
 11
914.51434251399724
 21
806.10067220271333
  0
LINE
  8
_0-1_DEFPOINTS
  6
CONTINUOUS
 62
    7
 10
914.51434251399724
 20
806.10067220271333
 11
915.08454856144238
 21
806.10067220271333
  0
LINE
  8
_0-1_DEFPOINTS
  6
CONTINUOUS
 62
    7
 10
915.08454856144238
 20
806.10067220271333
 11
915.65704373533197
 21
806.10067220271333
  0
LINE
  8
_0-1_DEFPOINTS
  6
CONTINUOUS
 62
    7
 10
917.98613979558354
 20
806.10067220271333
 11
920.86933793211404
 21
806.10067220271333
  0
LINE
  8
_0-1_DEFPOINTS
  6
CONTINUOUS
 62
    7
 10
920.86933793211404
 20
806.10067220271333
 11
923.75023359452393
 21
806.10067220271333
  0
LINE
  8
_0-1_DEFPOINTS
  6
CONTINUOUS
 62
    7
 10
923.75023359452393
 20
806.10067220271333
 11
926.6311359307723
 21
806.10067220271333
  0
LINE
  8
_0-1_DEFPOINTS
  6
CONTINUOUS
 62
    7
 10
926.6311359307723
 20
806.10067220271333
 11
929.51433406730257
 21
806.10067220271333
  0
LINE
  8
_0-1_DEFPOINTS
  6
CONTINUOUS
 62
    7
 10
931.80433478437465
 20
806.10067220271333
 11
932.38832898118972
 21
806.10067220271333
  0
LINE
  8
_0-1_DEFPOINTS
  6
CONTINUOUS
 62
    7
 10
932.38832898118972
 20
806.10067220271333
 11
932.97002737772254
 21
806.10067220271333
  0
LINE
  8
_0-1_DEFPOINTS
  6
CONTINUOUS
 62
    7
 10
932.97002737772254
 20
806.10067220271333
 11
933.55172577425537
 21
806.10067220271333
  0
LINE
  8
_0-1_DEFPOINTS
  6
CONTINUOUS
 62
    7
 10
933.55172577425537
 20
806.10067220271333
 11
934.13572664490857
 21
806.10067220271333
  0
LINE
  8
_0-1_DEFPOINTS
  6
CONTINUOUS
 62
    7
 10
936.42112908757781
 20
806.10067220271333
 11
938.77320984600487
 21
806.10067220271333
  0
LINE
  8
_0-1_DEFPOINTS
  6
CONTINUOUS
 62
    7
 10
938.77320984600487
 20
806.10067220271333
 11
941.12529727826984
 21
806.10067220271333
  0
LINE
  8
_0-1_DEFPOINTS
  6
CONTINUOUS
 62
    7
 10
941.12529727826984
 20
806.10067220271333
 11
943.4773780366969
 21
806.10067220271333
  0
LINE
  8
_0-1_DEFPOINTS
  6
CONTINUOUS
 62
    7
 10
943.4773780366969
 20
806.10067220271333
 11
945.82945879512386
 21
806.10067220271333
  0
LINE
  8
_0-1_DEFPOINTS
  6
CONTINUOUS
 62
    7
 10
909.08823189441
 20
807.03299402782841
 11
914.08899212099323
 21
807.03299402782841
  0
LINE
  8
_0-1_DEFPOINTS
  6
CONTINUOUS
 62
    7
 10
914.08899212099323
 20
807.03299402782841
 11
919.08975234757645
 21
807.03299402782841
  0
LINE
  8
_0-1_DEFPOINTS
  6
CONTINUOUS
 62
    7
 10
919.08975234757645
 20
807.03299402782841
 11
924.09051257415967
 21
807.03299402782841
  0
LINE
  8
_0-1_DEFPOINTS
  6
CONTINUOUS
 62
    7
 10
924.09051257415967
 20
807.03299402782841
 11
929.09127947458103
 21
807.03299402782841
  0
LINE
  8
_0-1_DEFPOINTS
  6
CONTINUOUS
 62
    7
 10
905.99350646151856
 20
807.5836524036838
 11
906.26021305071163
 21
807.5836524036838
  0
LINE
  8
_0-1_DEFPOINTS
  6
CONTINUOUS
 62
    7
 10
906.26021305071163
 20
807.5836524036838
 11
906.52462383962211
 21
807.5836524036838
  0
LINE
  8
_0-1_DEFPOINTS
  6
CONTINUOUS
 62
    7
 10
906.52462383962211
 20
807.5836524036838
 11
906.78902795469469
 21
807.5836524036838
  0
LINE
  8
_0-1_DEFPOINTS
  6
CONTINUOUS
 62
    7
 10
906.78902795469469
 20
807.5836524036838
 11
907.05573454388764
 21
807.5836524036838
  0
LINE
  8
_0-1_DEFPOINTS
  6
CONTINUOUS
 62
    7
 10
907.56155807585731
 20
808.0929263099149
 11
907.32934188160345
 21
808.0929263099149
  0
LINE
  8
_0-1_DEFPOINTS
  6
CONTINUOUS
 62
    7
 10
907.32934188160345
 20
808.0929263099149
 11
907.09711901351159
 21
808.0929263099149
  0
LINE
  8
_0-1_DEFPOINTS
  6
CONTINUOUS
 62
    7
 10
907.09711901351159
 20
808.0929263099149
 11
906.86260034513737
 21
808.0929263099149
  0
LINE
  8
_0-1_DEFPOINTS
  6
CONTINUOUS
 62
    7
 10
906.86260034513737
 20
808.0929263099149
 11
906.63038415088351
 21
808.0929263099149
  0
LINE
  8
_0-1_DEFPOINTS
  6
CONTINUOUS
 62
    7
 10
928.4980820551225
 20
809.53337414112002
 11
928.24287448885525
 21
809.53337414112002
  0
LINE
  8
_0-1_DEFPOINTS
  6
CONTINUOUS
 62
    7
 10
928.24287448885525
 20
809.53337414112002
 11
927.9876602487501
 21
809.53337414112002
  0
LINE
  8
_0-1_DEFPOINTS
  6
CONTINUOUS
 62
    7
 10
927.9876602487501
 20
809.53337414112002
 11
927.73474848276521
 21
809.53337414112002
  0
LINE
  8
_0-1_DEFPOINTS
  6
CONTINUOUS
 62
    7
 10
927.73474848276521
 20
809.53337414112002
 11
927.47954091649808
 21
809.53337414112002
  0
LINE
  8
_0-1_DEFPOINTS
  6
CONTINUOUS
 62
    7
 10
933.20225024581441
 20
809.53337414112002
 11
932.92634710781613
 21
809.53337414112002
  0
LINE
  8
_0-1_DEFPOINTS
  6
CONTINUOUS
 62
    7
 10
932.92634710781613
 20
809.53337414112002
 11
932.65044396981796
 21
809.53337414112002
  0
LINE
  8
_0-1_DEFPOINTS
  6
CONTINUOUS
 62
    7
 10
932.65044396981796
 20
809.53337414112002
 11
932.37453415798177
 21
809.53337414112002
  0
LINE
  8
_0-1_DEFPOINTS
  6
CONTINUOUS
 62
    7
 10
932.37453415798177
 20
809.53337414112002
 11
932.09863101998349
 21
809.53337414112002
  0
LINE
  8
_0-1_DEFPOINTS
  6
CONTINUOUS
 62
    7
 10
923.87668947751649
 20
809.53337414112002
 11
923.63297426033705
 21
809.53337414112002
  0
LINE
  8
_0-1_DEFPOINTS
  6
CONTINUOUS
 62
    7
 10
923.63297426033705
 20
809.53337414112002
 11
923.38925904315738
 21
809.53337414112002
  0
LINE
  8
_0-1_DEFPOINTS
  6
CONTINUOUS
 62
    7
 10
923.38925904315738
 20
809.53337414112002
 11
923.14554382597794
 21
809.53337414112002
  0
LINE
  8
_0-1_DEFPOINTS
  6
CONTINUOUS
 62
    7
 10
923.14554382597794
 20
809.53337414112002
 11
922.90182860879838
 21
809.53337414112002
  0
LINE
  8
_0-1_DEFPOINTS
  6
CONTINUOUS
 62
    7
 10
919.30127964393728
 20
809.53337414112002
 11
919.04607207767015
 21
809.53337414112002
  0
LINE
  8
_0-1_DEFPOINTS
  6
CONTINUOUS
 62
    7
 10
919.04607207767015
 20
809.53337414112002
 11
918.790857837565
 21
809.53337414112002
  0
LINE
  8
_0-1_DEFPOINTS
  6
CONTINUOUS
 62
    7
 10
918.790857837565
 20
809.53337414112002
 11
918.53794607157988
 21
809.53337414112002
  0
LINE
  8
_0-1_DEFPOINTS
  6
CONTINUOUS
 62
    7
 10
918.53794607157988
 20
809.53337414112002
 11
918.28273183147473
 21
809.53337414112002
  0
LINE
  8
_0-1_DEFPOINTS
  6
CONTINUOUS
 62
    7
 10
914.67988706633139
 20
809.53337414112002
 11
914.4269753003465
 21
809.53337414112002
  0
LINE
  8
_0-1_DEFPOINTS
  6
CONTINUOUS
 62
    7
 10
914.4269753003465
 20
809.53337414112002
 11
914.17176106024135
 21
809.53337414112002
  0
LINE
  8
_0-1_DEFPOINTS
  6
CONTINUOUS
 62
    7
 10
914.17176106024135
 20
809.53337414112002
 11
913.91655349397411
 21
809.53337414112002
  0
LINE
  8
_0-1_DEFPOINTS
  6
CONTINUOUS
 62
    7
 10
913.91655349397411
 20
809.53337414112002
 11
913.6636417279891
 21
809.53337414112002
  0
LINE
  8
_0-1_DEFPOINTS
  6
CONTINUOUS
 62
    7
 10
923.87668947751649
 20
808.7275081989975
 11
924.77797795579193
 21
808.85511198213112
  0
LINE
  8
_0-1_DEFPOINTS
  6
CONTINUOUS
 62
    7
 10
924.77797795579193
 20
808.85511198213112
 11
925.67926643406736
 21
808.98156786512368
  0
LINE
  8
_0-1_DEFPOINTS
  6
CONTINUOUS
 62
    7
 10
925.67926643406736
 20
808.98156786512368
 11
926.58054823850478
 21
809.10802374811612
  0
LINE
  8
_0-1_DEFPOINTS
  6
CONTINUOUS
 62
    7
 10
926.58054823850478
 20
809.10802374811612
 11
927.47954091649808
 21
809.23562753124952
  0
LINE
  8
_0-1_DEFPOINTS
  6
CONTINUOUS
 62
    7
 10
919.30127964393728
 20
808.7275081989975
 11
920.20256812221282
 21
808.85511198213112
  0
LINE
  8
_0-1_DEFPOINTS
  6
CONTINUOUS
 62
    7
 10
920.20256812221282
 20
808.85511198213112
 11
921.10155412636789
 21
808.98156786512368
  0
LINE
  8
_0-1_DEFPOINTS
  6
CONTINUOUS
 62
    7
 10
921.10155412636789
 20
808.98156786512368
 11
922.00054013052295
 21
809.10802374811612
  0
LINE
  8
_0-1_DEFPOINTS
  6
CONTINUOUS
 62
    7
 10
922.00054013052295
 20
809.10802374811612
 11
922.90182860879838
 21
809.23562753124952
  0
LINE
  8
_0-1_DEFPOINTS
  6
CONTINUOUS
 62
    7
 10
914.67988706633139
 20
808.7275081989975
 11
915.58117554460682
 21
808.85511198213112
  0
LINE
  8
_0-1_DEFPOINTS
  6
CONTINUOUS
 62
    7
 10
915.58117554460682
 20
808.85511198213112
 11
916.48245734904424
 21
808.98156786512368
  0
LINE
  8
_0-1_DEFPOINTS
  6
CONTINUOUS
 62
    7
 10
916.48245734904424
 20
808.98156786512368
 11
917.38374582731967
 21
809.10802374811612
  0
LINE
  8
_0-1_DEFPOINTS
  6
CONTINUOUS
 62
    7
 10
917.38374582731967
 20
809.10802374811612
 11
918.28273183147473
 21
809.23562753124952
  0
LINE
  8
_0-1_DEFPOINTS
  6
CONTINUOUS
 62
    7
 10
910.063092763128
 20
808.7275081989975
 11
910.96437456756553
 21
808.85511198213112
  0
LINE
  8
_0-1_DEFPOINTS
  6
CONTINUOUS
 62
    7
 10
910.96437456756553
 20
808.85511198213112
 11
911.86336724555872
 21
808.98156786512368
  0
LINE
  8
_0-1_DEFPOINTS
  6
CONTINUOUS
 62
    7
 10
911.86336724555872
 20
808.98156786512368
 11
912.76235324971367
 21
809.10802374811612
  0
LINE
  8
_0-1_DEFPOINTS
  6
CONTINUOUS
 62
    7
 10
912.76235324971367
 20
809.10802374811612
 11
913.6636417279891
 21
809.23562753124952
  0
LINE
  8
_0-1_DEFPOINTS
  6
CONTINUOUS
 62
    7
 10
938.03057184537863
 20
814.87327212103582
 11
937.52244583928837
 21
814.87327212103582
  0
LINE
  8
_0-1_DEFPOINTS
  6
CONTINUOUS
 62
    7
 10
937.52244583928837
 20
814.87327212103582
 11
937.01432650703634
 21
814.87327212103582
  0
LINE
  8
_0-1_DEFPOINTS
  6
CONTINUOUS
 62
    7
 10
937.01432650703634
 20
814.87327212103582
 11
936.50850297506668
 21
814.87327212103582
  0
LINE
  8
_0-1_DEFPOINTS
  6
CONTINUOUS
 62
    7
 10
936.50850297506668
 20
814.87327212103582
 11
936.00037696897652
 21
814.87327212103582
  0
LINE
  8
_0-1_DEFPOINTS
  6
CONTINUOUS
 62
    7
 10
935.74516272887126
 20
816.1872640692485
 11
935.80954524434674
 21
816.1872640692485
  0
LINE
  8
_0-1_DEFPOINTS
  6
CONTINUOUS
 62
    7
 10
935.80954524434674
 20
816.1872640692485
 11
935.8716186118636
 21
816.1872640692485
  0
LINE
  8
_0-1_DEFPOINTS
  6
CONTINUOUS
 62
    7
 10
935.8716186118636
 20
816.1872640692485
 11
935.9336986532187
 21
816.1872640692485
  0
LINE
  8
_0-1_DEFPOINTS
  6
CONTINUOUS
 62
    7
 10
935.9336986532187
 20
816.1872640692485
 11
935.99807449485616
 21
816.1872640692485
  0
LINE
  8
_0-1_DEFPOINTS
  6
CONTINUOUS
 62
    7
 10
933.20225024581441
 20
816.52524724860177
 11
933.39308197044431
 21
816.52524724860177
  0
LINE
  8
_0-1_DEFPOINTS
  6
CONTINUOUS
 62
    7
 10
933.39308197044431
 20
816.52524724860177
 11
933.58391369507399
 21
816.52524724860177
  0
LINE
  8
_0-1_DEFPOINTS
  6
CONTINUOUS
 62
    7
 10
933.58391369507399
 20
816.52524724860177
 11
933.77244961942154
 21
816.52524724860177
  0
LINE
  8
_0-1_DEFPOINTS
  6
CONTINUOUS
 62
    7
 10
933.77244961942154
 20
816.52524724860177
 11
933.96328134405144
 21
816.52524724860177
  0
LINE
  8
_0-1_DEFPOINTS
  6
CONTINUOUS
 62
    7
 10
933.20225024581441
 20
816.90691737169936
 11
933.39308197044431
 21
816.90691737169936
  0
LINE
  8
_0-1_DEFPOINTS
  6
CONTINUOUS
 62
    7
 10
933.39308197044431
 20
816.90691737169936
 11
933.58391369507399
 21
816.90691737169936
  0
LINE
  8
_0-1_DEFPOINTS
  6
CONTINUOUS
 62
    7
 10
933.58391369507399
 20
816.90691737169936
 11
933.77244961942154
 21
816.90691737169936
  0
LINE
  8
_0-1_DEFPOINTS
  6
CONTINUOUS
 62
    7
 10
933.77244961942154
 20
816.90691737169936
 11
933.96328134405144
 21
816.90691737169936
  0
LINE
  8
_0-1_DEFPOINTS
  6
CONTINUOUS
 62
    7
 10
1000.670000956437
 20
640.54440728282088
 11
1001.0976538235616
 21
638.73608415172612
  0
LINE
  8
_0-1_DEFPOINTS
  6
CONTINUOUS
 62
    7
 10
1001.0976538235616
 20
638.73608415172612
 11
1002.1391930080372
 21
637.27264494850772
  0
LINE
  8
_0-1_DEFPOINTS
  6
CONTINUOUS
 62
    7
 10
1002.1391930080372
 20
637.27264494850772
 11
1003.6451645810209
 21
636.29663617964843
  0
LINE
  8
_0-1_DEFPOINTS
  6
CONTINUOUS
 62
    7
 10
1003.6451645810209
 20
636.29663617964843
 11
1005.4707329095851
 21
635.94830855134876
  0
LINE
  8
_0-1_DEFPOINTS
  6
CONTINUOUS
 62
    7
 10
938.03057184537863
 20
814.87327212103582
 11
939.2491479312763
 21
814.3754972377302
  0
LINE
  8
_0-1_DEFPOINTS
  6
CONTINUOUS
 62
    7
 10
939.2491479312763
 20
814.3754972377302
 11
940.46772401717385
 21
813.87656778044538
  0
LINE
  8
_0-1_DEFPOINTS
  6
CONTINUOUS
 62
    7
 10
940.46772401717385
 20
813.87656778044538
 11
941.68630010307174
 21
813.37879289713987
  0
LINE
  8
_0-1_DEFPOINTS
  6
CONTINUOUS
 62
    7
 10
941.68630010307174
 20
813.37879289713987
 11
942.9048761889693
 21
812.88101133999612
  0
LINE
  8
_0-1_DEFPOINTS
  6
CONTINUOUS
 62
    7
 10
942.9048761889693
 20
812.88101133999612
 11
944.13264882367241
 21
812.42576882645596
  0
LINE
  8
_0-1_DEFPOINTS
  6
CONTINUOUS
 62
    7
 10
944.13264882367241
 20
812.42576882645596
 11
945.3627239324959
 21
811.97053298675337
  0
LINE
  8
_0-1_DEFPOINTS
  6
CONTINUOUS
 62
    7
 10
945.3627239324959
 20
811.97053298675337
 11
946.59279236748125
 21
811.51529047321321
  0
LINE
  8
_0-1_DEFPOINTS
  6
CONTINUOUS
 62
    7
 10
946.59279236748125
 20
811.51529047321321
 11
947.82057167602215
 21
811.05890005953154
  0
LINE
  8
_0-1_DEFPOINTS
  6
CONTINUOUS
 62
    7
 10
947.82057167602215
 20
811.05890005953154
 11
949.07133568273844
 21
810.64618991575639
  0
LINE
  8
_0-1_DEFPOINTS
  6
CONTINUOUS
 62
    7
 10
949.07133568273844
 20
810.64618991575639
 11
950.32209968945494
 21
810.23233187184007
  0
LINE
  8
_0-1_DEFPOINTS
  6
CONTINUOUS
 62
    7
 10
950.32209968945494
 20
810.23233187184007
 11
951.57286369617145
 21
809.81962840190295
  0
LINE
  8
_0-1_DEFPOINTS
  6
CONTINUOUS
 62
    7
 10
951.57286369617145
 20
809.81962840190295
 11
952.82362770288785
 21
809.40691825812769
  0
LINE
  8
_0-1_DEFPOINTS
  6
CONTINUOUS
 62
    7
 10
952.82362770288785
 20
809.40691825812769
 11
954.08359493224771
 21
809.03559925781451
  0
LINE
  8
_0-1_DEFPOINTS
  6
CONTINUOUS
 62
    7
 10
954.08359493224771
 20
809.03559925781451
 11
955.34585128805156
 21
808.66428025750122
  0
LINE
  8
_0-1_DEFPOINTS
  6
CONTINUOUS
 62
    7
 10
955.34585128805156
 20
808.66428025750122
 11
956.60811431769366
 21
808.29410915732933
  0
LINE
  8
_0-1_DEFPOINTS
  6
CONTINUOUS
 62
    7
 10
956.60811431769366
 20
808.29410915732933
 11
957.86807487321539
 21
807.92278348317825
  0
LINE
  8
_0-1_DEFPOINTS
  6
CONTINUOUS
 62
    7
 10
957.86807487321539
 20
807.92278348317825
 11
959.15103347458853
 21
807.59515142660939
  0
LINE
  8
_0-1_DEFPOINTS
  6
CONTINUOUS
 62
    7
 10
959.15103347458853
 20
807.59515142660939
 11
960.43168292800317
 21
807.26636479606145
  0
LINE
  8
_0-1_DEFPOINTS
  6
CONTINUOUS
 62
    7
 10
960.43168292800317
 20
807.26636479606145
 11
961.71233905525594
 21
806.93757816551351
  0
LINE
  8
_0-1_DEFPOINTS
  6
CONTINUOUS
 62
    7
 10
961.71233905525594
 20
806.93757816551351
 11
962.99529765662908
 21
806.60994610894477
  0
LINE
  8
_0-1_DEFPOINTS
  6
CONTINUOUS
 62
    7
 10
962.99529765662908
 20
806.60994610894477
 11
964.27594711004394
 21
806.32369184816196
  0
LINE
  8
_0-1_DEFPOINTS
  6
CONTINUOUS
 62
    7
 10
964.27594711004394
 20
806.32369184816196
 11
965.55660323729649
 21
806.03744426121739
  0
LINE
  8
_0-1_DEFPOINTS
  6
CONTINUOUS
 62
    7
 10
965.55660323729649
 20
806.03744426121739
 11
966.83956183866962
 21
805.75119000043458
  0
LINE
  8
_0-1_DEFPOINTS
  6
CONTINUOUS
 62
    7
 10
966.83956183866962
 20
805.75119000043458
 11
968.12021129208449
 21
805.46494241349001
  0
LINE
  8
_0-1_DEFPOINTS
  6
CONTINUOUS
 62
    7
 10
968.12021129208449
 20
805.46494241349001
 11
969.41466224254532
 21
805.23157164525674
  0
LINE
  8
_0-1_DEFPOINTS
  6
CONTINUOUS
 62
    7
 10
969.41466224254532
 20
805.23157164525674
 11
970.70681739272368
 21
804.99935545100288
  0
LINE
  8
_0-1_DEFPOINTS
  6
CONTINUOUS
 62
    7
 10
970.70681739272368
 20
804.99935545100288
 11
971.99896586906402
 21
804.76598468276984
  0
LINE
  8
_0-1_DEFPOINTS
  6
CONTINUOUS
 62
    7
 10
971.99896586906402
 20
804.76598468276984
 11
973.29341681952485
 21
804.5326139145368
  0
LINE
  8
_0-1_DEFPOINTS
  6
CONTINUOUS
 62
    7
 10
973.29341681952485
 20
804.5326139145368
 11
974.59706431879101
 21
804.34178218990712
  0
LINE
  8
_0-1_DEFPOINTS
  6
CONTINUOUS
 62
    7
 10
974.59706431879101
 20
804.34178218990712
 11
975.89840934393669
 21
804.15095046527722
  0
LINE
  8
_0-1_DEFPOINTS
  6
CONTINUOUS
 62
    7
 10
975.89840934393669
 20
804.15095046527722
 11
977.1997610429205
 21
803.96011206680953
  0
LINE
  8
_0-1_DEFPOINTS
  6
CONTINUOUS
 62
    7
 10
977.1997610429205
 20
803.96011206680953
 11
978.50340186834853
 21
803.77042824232058
  0
LINE
  8
_0-1_DEFPOINTS
  6
CONTINUOUS
 62
    7
 10
978.50340186834853
 20
803.77042824232058
 11
979.8070493676147
 21
803.62212888745603
  0
LINE
  8
_0-1_DEFPOINTS
  6
CONTINUOUS
 62
    7
 10
979.8070493676147
 20
803.62212888745603
 11
981.1084010665985
 21
803.4738362064295
  0
LINE
  8
_0-1_DEFPOINTS
  6
CONTINUOUS
 62
    7
 10
981.1084010665985
 20
803.4738362064295
 11
982.41204856586455
 21
803.32553685156483
  0
LINE
  8
_0-1_DEFPOINTS
  6
CONTINUOUS
 62
    7
 10
982.41204856586455
 20
803.32553685156483
 11
983.71569606513071
 21
803.17723749670017
  0
LINE
  8
_0-1_DEFPOINTS
  6
CONTINUOUS
 62
    7
 10
983.71569606513071
 20
803.17723749670017
 11
985.03083591348422
 21
803.07032261145969
  0
LINE
  8
_0-1_DEFPOINTS
  6
CONTINUOUS
 62
    7
 10
985.03083591348422
 20
803.07032261145969
 11
986.34598243567643
 21
802.96456230019817
  0
LINE
  8
_0-1_DEFPOINTS
  6
CONTINUOUS
 62
    7
 10
986.34598243567643
 20
802.96456230019817
 11
987.66112228403006
 21
802.85879531509886
  0
LINE
  8
_0-1_DEFPOINTS
  6
CONTINUOUS
 62
    7
 10
987.66112228403006
 20
802.85879531509886
 11
988.97396633210155
 21
802.75303500383734
  0
LINE
  8
_0-1_DEFPOINTS
  6
CONTINUOUS
 62
    7
 10
988.97396633210155
 20
802.75303500383734
 11
990.28681038017282
 21
802.70015151128769
  0
LINE
  8
_0-1_DEFPOINTS
  6
CONTINUOUS
 62
    7
 10
990.28681038017282
 20
802.70015151128769
 11
991.60195022852668
 21
802.64726801873792
  0
LINE
  8
_0-1_DEFPOINTS
  6
CONTINUOUS
 62
    7
 10
991.60195022852668
 20
802.64726801873792
 11
992.91479427659829
 21
802.59439120002617
  0
LINE
  8
_0-1_DEFPOINTS
  6
CONTINUOUS
 62
    7
 10
992.91479427659829
 20
802.59439120002617
 11
994.22763832466956
 21
802.5415077074764
  0
LINE
  8
_0-1_DEFPOINTS
  6
CONTINUOUS
 62
    7
 10
994.25062969668284
 20
784.22262317569005
 11
979.81164764201731
 21
783.1546422449394
  0
LINE
  8
_0-1_DEFPOINTS
  6
CONTINUOUS
 62
    7
 10
979.81164764201731
 20
783.1546422449394
 11
965.57270053462503
 21
780.72898909606965
  0
LINE
  8
_0-1_DEFPOINTS
  6
CONTINUOUS
 62
    7
 10
965.57270053462503
 20
780.72898909606965
 11
951.62574718872111
 21
776.96749385327712
  0
LINE
  8
_0-1_DEFPOINTS
  6
CONTINUOUS
 62
    7
 10
951.62574718872111
 20
776.96749385327712
 11
938.06735804059997
 21
771.89085876213073
  0
LINE
  8
_0-1_DEFPOINTS
  6
CONTINUOUS
 62
    7
 10
1014.0789428495526
 20
783.24776230697182
 11
1016.3528529431342
 21
788.15885284578394
  0
LINE
  8
_0-1_DEFPOINTS
  6
CONTINUOUS
 62
    7
 10
1016.3528529431342
 20
788.15885284578394
 11
1017.1092857669682
 21
793.40793323778769
  0
LINE
  8
_0-1_DEFPOINTS
  6
CONTINUOUS
 62
    7
 10
1017.1092857669682
 20
793.40793323778769
 11
1016.3528529431342
 21
798.65700695595308
  0
LINE
  8
_0-1_DEFPOINTS
  6
CONTINUOUS
 62
    7
 10
1016.3528529431342
 20
798.65700695595308
 11
1014.0789428495526
 21
803.5680974947652
  0
LINE
  8
_0-1_DEFPOINTS
  6
CONTINUOUS
 62
    7
 10
1010.1932941978879
 20
791.43866382876126
 11
1010.5772601212677
 21
793.09408933058887
  0
LINE
  8
_0-1_DEFPOINTS
  6
CONTINUOUS
 62
    7
 10
1010.5772601212677
 20
793.09408933058887
 11
1010.4094130948134
 21
794.74146618375198
  0
LINE
  8
_0-1_DEFPOINTS
  6
CONTINUOUS
 62
    7
 10
1010.4094130948134
 20
794.74146618375198
 11
1009.7311509358245
 21
796.25204270497625
  0
LINE
  8
_0-1_DEFPOINTS
  6
CONTINUOUS
 62
    7
 10
1009.7311509358245
 20
796.25204270497625
 11
1008.5723524171614
 21
797.49361016288731
  0
LINE
  8
_0-1_DEFPOINTS
  6
CONTINUOUS
 62
    7
 10
1008.5723524171614
 20
797.49361016288731
 11
1007.0709791185805
 21
798.29143413018392
  0
LINE
  8
_0-1_DEFPOINTS
  6
CONTINUOUS
 62
    7
 10
1007.0709791185805
 20
798.29143413018392
 11
1005.4362425146461
 21
798.55699281923535
  0
LINE
  8
_0-1_DEFPOINTS
  6
CONTINUOUS
 62
    7
 10
1005.4362425146461
 20
798.55699281923535
 11
1003.8015125845495
 21
798.29143413018392
  0
LINE
  8
_0-1_DEFPOINTS
  6
CONTINUOUS
 62
    7
 10
1003.8015125845495
 20
798.29143413018392
 11
1002.3001326121307
 21
797.49361016288731
  0
LINE
  8
_0-1_DEFPOINTS
  6
CONTINUOUS
 62
    7
 10
1002.3001326121307
 20
797.49361016288731
 11
1001.1413340934678
 21
796.25204270497625
  0
LINE
  8
_0-1_DEFPOINTS
  6
CONTINUOUS
 62
    7
 10
1001.1413340934678
 20
796.25204270497625
 11
1000.4630719344789
 21
794.74146618375198
  0
LINE
  8
_0-1_DEFPOINTS
  6
CONTINUOUS
 62
    7
 10
1000.4630719344789
 20
794.74146618375198
 11
1000.2952315818624
 21
793.09408933058887
  0
LINE
  8
_0-1_DEFPOINTS
  6
CONTINUOUS
 62
    7
 10
1000.2952315818624
 20
793.09408933058887
 11
1000.6791975052425
 21
791.43866382876126
  0
LINE
  8
_0-1_DEFPOINTS
  6
CONTINUOUS
 62
    7
 10
935.77735732352812
 20
816.2033613665767
 11
935.34050790759818
 21
816.3436120727772
  0
LINE
  8
_0-1_DEFPOINTS
  6
CONTINUOUS
 62
    7
 10
935.34050790759818
 20
816.3436120727772
 11
934.89446194286313
 21
816.44477410963589
  0
LINE
  8
_0-1_DEFPOINTS
  6
CONTINUOUS
 62
    7
 10
934.89446194286313
 20
816.44477410963589
 11
934.43921942932275
 21
816.50570625084993
  0
LINE
  8
_0-1_DEFPOINTS
  6
CONTINUOUS
 62
    7
 10
934.43921942932275
 20
816.50570625084993
 11
933.97937864137987
 21
816.52639514874295
  0
LINE
  8
_0-1_DEFPOINTS
  6
CONTINUOUS
 62
    7
 10
933.97937864137987
 20
770.25267845777284
 11
934.43921942932275
 21
770.29176712711455
  0
LINE
  8
_0-1_DEFPOINTS
  6
CONTINUOUS
 62
    7
 10
934.43921942932275
 20
770.29176712711455
 11
934.89446194286313
 21
770.37224026608044
  0
LINE
  8
_0-1_DEFPOINTS
  6
CONTINUOUS
 62
    7
 10
934.89446194286313
 20
770.37224026608044
 11
935.34050790759818
 21
770.49294330069085
  0
LINE
  8
_0-1_DEFPOINTS
  6
CONTINUOUS
 62
    7
 10
935.34050790759818
 20
770.49294330069085
 11
935.77275237528727
 21
770.65503747876369
  0
LINE
  8
_0-1_DEFPOINTS
  6
CONTINUOUS
 62
    7
 10
933.97018209257442
 20
769.87100833467525
 11
934.43691695520238
 21
769.91354737827828
  0
LINE
  8
_0-1_DEFPOINTS
  6
CONTINUOUS
 62
    7
 10
934.43691695520238
 20
769.91354737827828
 11
934.89675774314549
 21
770.00091459192902
  0
LINE
  8
_0-1_DEFPOINTS
  6
CONTINUOUS
 62
    7
 10
934.89675774314549
 20
770.00091459192902
 11
935.34510618200102
 21
770.13312332330338
  0
LINE
  8
_0-1_DEFPOINTS
  6
CONTINUOUS
 62
    7
 10
935.34510618200102
 20
770.13312332330338
 11
935.77965312381025
 21
770.30901232458405
  0
LINE
  8
_0-1_DEFPOINTS
  6
CONTINUOUS
 62
    7
 10
935.77735732352812
 20
816.55858306956145
 11
935.34280370788053
 21
816.71033279868766
  0
LINE
  8
_0-1_DEFPOINTS
  6
CONTINUOUS
 62
    7
 10
935.34280370788053
 20
816.71033279868766
 11
934.89906021726597
 21
816.81954348421061
  0
LINE
  8
_0-1_DEFPOINTS
  6
CONTINUOUS
 62
    7
 10
934.89906021726597
 20
816.81954348421061
 11
934.44381770372559
 21
816.88507389982715
  0
LINE
  8
_0-1_DEFPOINTS
  6
CONTINUOUS
 62
    7
 10
934.44381770372559
 20
816.88507389982715
 11
933.98397691578236
 21
816.90691737169936
  0
LINE
  8
_0-1_DEFPOINTS
  6
CONTINUOUS
 62
    7
 10
1010.2024907466932
 20
793.31596107589621
 11
1010.05764176609
 21
794.57707620539713
  0
LINE
  8
_0-1_DEFPOINTS
  6
CONTINUOUS
 62
    7
 10
1010.05764176609
 20
794.57707620539713
 11
1009.5954985040266
 21
795.73817052434242
  0
LINE
  8
_0-1_DEFPOINTS
  6
CONTINUOUS
 62
    7
 10
1009.5954985040266
 20
795.73817052434242
 11
1008.8482555551598
 21
796.7383252391943
  0
LINE
  8
_0-1_DEFPOINTS
  6
CONTINUOUS
 62
    7
 10
1008.8482555551598
 20
796.7383252391943
 11
1007.8481075141457
 21
797.52119980930343
  0
LINE
  8
_0-1_DEFPOINTS
  6
CONTINUOUS
 62
    7
 10
1007.8481075141457
 20
797.52119980930343
 11
1006.6755141722749
 21
798.01208061792386
  0
LINE
  8
_0-1_DEFPOINTS
  6
CONTINUOUS
 62
    7
 10
1006.6755141722749
 20
798.01208061792386
 11
1005.4362425146461
 21
798.17532269613764
  0
LINE
  8
_0-1_DEFPOINTS
  6
CONTINUOUS
 62
    7
 10
1005.4362425146461
 20
798.17532269613764
 11
1004.1969775308554
 21
798.01208061792386
  0
LINE
  8
_0-1_DEFPOINTS
  6
CONTINUOUS
 62
    7
 10
1004.1969775308554
 20
798.01208061792386
 11
1003.0243841889844
 21
797.52119980930343
  0
LINE
  8
_0-1_DEFPOINTS
  6
CONTINUOUS
 62
    7
 10
1003.0243841889844
 20
797.52119980930343
 11
1002.0242294741325
 21
796.7383252391943
  0
LINE
  8
_0-1_DEFPOINTS
  6
CONTINUOUS
 62
    7
 10
1002.0242294741325
 20
796.7383252391943
 11
1001.2769931991036
 21
795.73817052434242
  0
LINE
  8
_0-1_DEFPOINTS
  6
CONTINUOUS
 62
    7
 10
1001.2769931991036
 20
795.73817052434242
 11
1000.8148499370401
 21
794.57707620539713
  0
LINE
  8
_0-1_DEFPOINTS
  6
CONTINUOUS
 62
    7
 10
1000.8148499370401
 20
794.57707620539713
 11
1000.670000956437
 21
793.31596107589621
  0
LINE
  8
_0-1_DEFPOINTS
  6
CONTINUOUS
 62
    7
 10
1005.4385449887664
 20
635.94830855134876
 11
1007.2917029637466
 21
636.32307792592337
  0
LINE
  8
_0-1_DEFPOINTS
  6
CONTINUOUS
 62
    7
 10
1007.2917029637466
 20
636.32307792592337
 11
1008.8068710855356
 21
637.34506943880933
  0
LINE
  8
_0-1_DEFPOINTS
  6
CONTINUOUS
 62
    7
 10
1008.8068710855356
 20
637.34506943880933
 11
1009.8277213721185
 21
638.86024423443632
  0
LINE
  8
_0-1_DEFPOINTS
  6
CONTINUOUS
 62
    7
 10
1009.8277213721185
 20
638.86024423443632
 11
1010.2024907466932
 21
640.71569800969894
  0
LINE
  8
_0-1_DEFPOINTS
  6
CONTINUOUS
 62
    7
 10
926.40581381120342
 20
799.47667439512156
 11
926.51617239686743
 21
799.39160298175329
  0
LINE
  8
_0-1_DEFPOINTS
  6
CONTINUOUS
 62
    7
 10
926.51617239686743
 20
799.39160298175329
 11
926.64262827985999
 21
799.33871948920341
  0
LINE
  8
_0-1_DEFPOINTS
  6
CONTINUOUS
 62
    7
 10
926.64262827985999
 20
799.33871948920341
 11
926.77828071165777
 21
799.31917849145179
  0
LINE
  8
_0-1_DEFPOINTS
  6
CONTINUOUS
 62
    7
 10
926.77828071165777
 20
799.31917849145179
 11
926.91623561757581
 21
799.33757158906224
  0
LINE
  8
_0-1_DEFPOINTS
  6
CONTINUOUS
 62
    7
 10
926.91623561757581
 20
799.33757158906224
 11
927.04498730085049
 21
799.390455081612
  0
LINE
  8
_0-1_DEFPOINTS
  6
CONTINUOUS
 62
    7
 10
927.04498730085049
 20
799.390455081612
 11
927.15535256035264
 21
799.47437192100119
  0
LINE
  8
_0-1_DEFPOINTS
  6
CONTINUOUS
 62
    7
 10
927.15535256035264
 20
799.47437192100119
 11
927.23812149960065
 21
799.58243470638308
  0
LINE
  8
_0-1_DEFPOINTS
  6
CONTINUOUS
 62
    7
 10
927.23812149960065
 20
799.58243470638308
 11
927.29330079243277
 21
799.71234096363696
  0
LINE
  8
_0-1_DEFPOINTS
  6
CONTINUOUS
 62
    7
 10
927.29330079243277
 20
799.71234096363696
 11
927.31169389004344
 21
799.8502891957171
  0
LINE
  8
_0-1_DEFPOINTS
  6
CONTINUOUS
 62
    7
 10
927.31169389004344
 20
799.8502891957171
 11
927.29330079243277
 21
799.98709620149407
  0
LINE
  8
_0-1_DEFPOINTS
  6
CONTINUOUS
 62
    7
 10
927.29330079243277
 20
799.98709620149407
 11
927.23812149960065
 21
800.1135520844864
  0
LINE
  8
_0-1_DEFPOINTS
  6
CONTINUOUS
 62
    7
 10
927.23812149960065
 20
800.1135520844864
 11
927.15305008623227
 21
800.22506524412961
  0
LINE
  8
_0-1_DEFPOINTS
  6
CONTINUOUS
 62
    7
 10
926.40581381120342
 20
774.04865742166646
 11
926.51617239686743
 21
773.96358600829797
  0
LINE
  8
_0-1_DEFPOINTS
  6
CONTINUOUS
 62
    7
 10
926.51617239686743
 20
773.96358600829797
 11
926.64262827985999
 21
773.90955461560702
  0
LINE
  8
_0-1_DEFPOINTS
  6
CONTINUOUS
 62
    7
 10
926.64262827985999
 20
773.90955461560702
 11
926.77828071165777
 21
773.89116151799635
  0
LINE
  8
_0-1_DEFPOINTS
  6
CONTINUOUS
 62
    7
 10
926.77828071165777
 20
773.89116151799635
 11
926.91623561757581
 21
773.90955461560702
  0
LINE
  8
_0-1_DEFPOINTS
  6
CONTINUOUS
 62
    7
 10
926.91623561757581
 20
773.90955461560702
 11
927.04498730085049
 21
773.96358600829797
  0
LINE
  8
_0-1_DEFPOINTS
  6
CONTINUOUS
 62
    7
 10
927.04498730085049
 20
773.96358600829797
 11
927.15535256035264
 21
774.04636162138422
  0
LINE
  8
_0-1_DEFPOINTS
  6
CONTINUOUS
 62
    7
 10
927.15535256035264
 20
774.04636162138422
 11
927.23812149960065
 21
774.15557230690706
  0
LINE
  8
_0-1_DEFPOINTS
  6
CONTINUOUS
 62
    7
 10
927.23812149960065
 20
774.15557230690706
 11
927.29330079243277
 21
774.28662646430212
  0
LINE
  8
_0-1_DEFPOINTS
  6
CONTINUOUS
 62
    7
 10
927.29330079243277
 20
774.28662646430212
 11
927.31169389004344
 21
774.42458137022015
  0
LINE
  8
_0-1_DEFPOINTS
  6
CONTINUOUS
 62
    7
 10
927.31169389004344
 20
774.42458137022015
 11
927.29330079243277
 21
774.56023380201805
  0
LINE
  8
_0-1_DEFPOINTS
  6
CONTINUOUS
 62
    7
 10
927.29330079243277
 20
774.56023380201805
 11
927.23812149960065
 21
774.68668968501049
  0
LINE
  8
_0-1_DEFPOINTS
  6
CONTINUOUS
 62
    7
 10
927.23812149960065
 20
774.68668968501049
 11
927.15305008623227
 21
774.79704827067451
  0
LINE
  8
_0-1_DEFPOINTS
  6
CONTINUOUS
 62
    7
 10
927.15535256035264
 20
811.97742706143856
 11
927.27261189453975
 21
812.15216816257794
  0
LINE
  8
_0-1_DEFPOINTS
  6
CONTINUOUS
 62
    7
 10
927.27261189453975
 20
812.15216816257794
 11
927.31169389004344
 21
812.351048535872
  0
LINE
  8
_0-1_DEFPOINTS
  6
CONTINUOUS
 62
    7
 10
927.31169389004344
 20
812.351048535872
 11
927.27261189453975
 21
812.54992890916594
  0
LINE
  8
_0-1_DEFPOINTS
  6
CONTINUOUS
 62
    7
 10
927.27261189453975
 20
812.54992890916594
 11
927.15535256035264
 21
812.72581791044661
  0
LINE
  8
_0-1_DEFPOINTS
  6
CONTINUOUS
 62
    7
 10
927.15535256035264
 20
812.72581791044661
 11
926.98061145921315
 21
812.84307724463372
  0
LINE
  8
_0-1_DEFPOINTS
  6
CONTINUOUS
 62
    7
 10
926.98061145921315
 20
812.84307724463372
 11
926.78287898606027
 21
812.88216591397543
  0
LINE
  8
_0-1_DEFPOINTS
  6
CONTINUOUS
 62
    7
 10
926.78287898606027
 20
812.88216591397543
 11
926.58285071262515
 21
812.84307724463372
  0
LINE
  8
_0-1_DEFPOINTS
  6
CONTINUOUS
 62
    7
 10
926.58285071262515
 20
812.84307724463372
 11
926.40810961148554
 21
812.72581791044661
  0
LINE
  8
_0-1_DEFPOINTS
  6
CONTINUOUS
 62
    7
 10
927.15535256035264
 20
786.54941676182148
 11
927.27261189453975
 21
786.72415118912284
  0
LINE
  8
_0-1_DEFPOINTS
  6
CONTINUOUS
 62
    7
 10
927.27261189453975
 20
786.72415118912284
 11
927.31169389004344
 21
786.92303823625491
  0
LINE
  8
_0-1_DEFPOINTS
  6
CONTINUOUS
 62
    7
 10
927.31169389004344
 20
786.92303823625491
 11
927.27261189453975
 21
787.12306650969003
  0
LINE
  8
_0-1_DEFPOINTS
  6
CONTINUOUS
 62
    7
 10
927.27261189453975
 20
787.12306650969003
 11
927.15535256035264
 21
787.29780761082952
  0
LINE
  8
_0-1_DEFPOINTS
  6
CONTINUOUS
 62
    7
 10
927.15535256035264
 20
787.29780761082952
 11
926.98061145921315
 21
787.41391237103755
  0
LINE
  8
_0-1_DEFPOINTS
  6
CONTINUOUS
 62
    7
 10
926.98061145921315
 20
787.41391237103755
 11
926.78287898606027
 21
787.45300104037915
  0
LINE
  8
_0-1_DEFPOINTS
  6
CONTINUOUS
 62
    7
 10
926.78287898606027
 20
787.45300104037915
 11
926.58285071262515
 21
787.41391237103755
  0
LINE
  8
_0-1_DEFPOINTS
  6
CONTINUOUS
 62
    7
 10
926.58285071262515
 20
787.41391237103755
 11
926.40810961148554
 21
787.29780761082952
  0
LINE
  8
_0-1_DEFPOINTS
  6
CONTINUOUS
 62
    7
 10
935.99807449485616
 20
816.20795964097942
 11
935.98198387136574
 21
816.31486785238189
  0
LINE
  8
_0-1_DEFPOINTS
  6
CONTINUOUS
 62
    7
 10
935.98198387136574
 20
816.31486785238189
 11
935.93829692762142
 21
816.4102837146969
  0
LINE
  8
_0-1_DEFPOINTS
  6
CONTINUOUS
 62
    7
 10
935.93829692762142
 20
816.4102837146969
 11
935.86472453717874
 21
816.48731315323926
  0
LINE
  8
_0-1_DEFPOINTS
  6
CONTINUOUS
 62
    7
 10
935.86472453717874
 20
816.48731315323926
 11
935.77275237528727
 21
816.54249244607115
  0
LINE
  8
_0-1_DEFPOINTS
  6
CONTINUOUS
 62
    7
 10
935.79115214673607
 20
770.32395504793328
 11
935.87851936038669
 21
770.38028224090658
  0
LINE
  8
_0-1_DEFPOINTS
  6
CONTINUOUS
 62
    7
 10
935.87851936038669
 20
770.38028224090658
 11
935.94289520202415
 21
770.45615710546963
  0
LINE
  8
_0-1_DEFPOINTS
  6
CONTINUOUS
 62
    7
 10
935.94289520202415
 20
770.45615710546963
 11
935.9842796716481
 21
770.54812926736099
  0
LINE
  8
_0-1_DEFPOINTS
  6
CONTINUOUS
 62
    7
 10
935.9842796716481
 20
770.54812926736099
 11
935.99807449485616
 21
770.65158710450203
  0
LINE
  8
_0-1_DEFPOINTS
  6
CONTINUOUS
 62
    7
 10
926.52536894567277
 20
799.59622952959091
 11
926.60124381023593
 21
799.53759986249747
  0
LINE
  8
_0-1_DEFPOINTS
  6
CONTINUOUS
 62
    7
 10
926.60124381023593
 20
799.53759986249747
 11
926.68861102388655
 21
799.50196156741731
  0
LINE
  8
_0-1_DEFPOINTS
  6
CONTINUOUS
 62
    7
 10
926.68861102388655
 20
799.50196156741731
 11
926.78058318577791
 21
799.49046921832974
  0
LINE
  8
_0-1_DEFPOINTS
  6
CONTINUOUS
 62
    7
 10
926.78058318577791
 20
799.49046921832974
 11
926.87254867383126
 21
799.50196156741731
  0
LINE
  8
_0-1_DEFPOINTS
  6
CONTINUOUS
 62
    7
 10
926.87254867383126
 20
799.50196156741731
 11
926.96221836160248
 21
799.53874776263865
  0
LINE
  8
_0-1_DEFPOINTS
  6
CONTINUOUS
 62
    7
 10
926.96221836160248
 20
799.53874776263865
 11
927.03579075204516
 21
799.59508162944985
  0
LINE
  8
_0-1_DEFPOINTS
  6
CONTINUOUS
 62
    7
 10
927.03579075204516
 20
799.59508162944985
 11
927.09097004487728
 21
799.66865401989253
  0
LINE
  8
_0-1_DEFPOINTS
  6
CONTINUOUS
 62
    7
 10
927.09097004487728
 20
799.66865401989253
 11
927.12776291393652
 21
799.75602790738117
  0
LINE
  8
_0-1_DEFPOINTS
  6
CONTINUOUS
 62
    7
 10
927.12776291393652
 20
799.75602790738117
 11
927.14155773714469
 21
799.8502891957171
  0
LINE
  8
_0-1_DEFPOINTS
  6
CONTINUOUS
 62
    7
 10
927.14155773714469
 20
799.8502891957171
 11
927.13005871421899
 21
799.94226135760846
  0
LINE
  8
_0-1_DEFPOINTS
  6
CONTINUOUS
 62
    7
 10
927.13005871421899
 20
799.94226135760846
 11
927.09327251899765
 21
800.02848067111813
  0
LINE
  8
_0-1_DEFPOINTS
  6
CONTINUOUS
 62
    7
 10
927.09327251899765
 20
800.02848067111813
 11
927.03579075204516
 21
800.10435553568118
  0
LINE
  8
_0-1_DEFPOINTS
  6
CONTINUOUS
 62
    7
 10
926.52536894567277
 20
774.16936713011501
 11
926.60124381023593
 21
774.11073746302145
  0
LINE
  8
_0-1_DEFPOINTS
  6
CONTINUOUS
 62
    7
 10
926.60124381023593
 20
774.11073746302145
 11
926.68861102388655
 21
774.0750991679414
  0
LINE
  8
_0-1_DEFPOINTS
  6
CONTINUOUS
 62
    7
 10
926.68861102388655
 20
774.0750991679414
 11
926.78058318577791
 21
774.06130434473323
  0
LINE
  8
_0-1_DEFPOINTS
  6
CONTINUOUS
 62
    7
 10
926.78058318577791
 20
774.06130434473323
 11
926.87254867383126
 21
774.07280336765893
  0
LINE
  8
_0-1_DEFPOINTS
  6
CONTINUOUS
 62
    7
 10
926.87254867383126
 20
774.07280336765893
 11
926.96221836160248
 21
774.11073746302145
  0
LINE
  8
_0-1_DEFPOINTS
  6
CONTINUOUS
 62
    7
 10
926.96221836160248
 20
774.11073746302145
 11
927.03579075204516
 21
774.16821922997383
  0
LINE
  8
_0-1_DEFPOINTS
  6
CONTINUOUS
 62
    7
 10
927.03579075204516
 20
774.16821922997383
 11
927.09097004487728
 21
774.24179162041651
  0
LINE
  8
_0-1_DEFPOINTS
  6
CONTINUOUS
 62
    7
 10
927.09097004487728
 20
774.24179162041651
 11
927.12776291393652
 21
774.32915883406736
  0
LINE
  8
_0-1_DEFPOINTS
  6
CONTINUOUS
 62
    7
 10
927.12776291393652
 20
774.32915883406736
 11
927.14155773714469
 21
774.42342679624107
  0
LINE
  8
_0-1_DEFPOINTS
  6
CONTINUOUS
 62
    7
 10
927.14155773714469
 20
774.42342679624107
 11
927.13005871421899
 21
774.51539895813255
  0
LINE
  8
_0-1_DEFPOINTS
  6
CONTINUOUS
 62
    7
 10
927.13005871421899
 20
774.51539895813255
 11
927.09327251899765
 21
774.60161827164211
  0
LINE
  8
_0-1_DEFPOINTS
  6
CONTINUOUS
 62
    7
 10
927.09327251899765
 20
774.60161827164211
 11
927.03579075204516
 21
774.67749313620516
  0
LINE
  8
_0-1_DEFPOINTS
  6
CONTINUOUS
 62
    7
 10
927.03579075204516
 20
812.09698886974593
 11
927.11626389101093
 21
812.21654400421539
  0
LINE
  8
_0-1_DEFPOINTS
  6
CONTINUOUS
 62
    7
 10
927.11626389101093
 20
812.21654400421539
 11
927.14155773714469
 21
812.35219643601317
  0
LINE
  8
_0-1_DEFPOINTS
  6
CONTINUOUS
 62
    7
 10
927.14155773714469
 20
812.35219643601317
 11
927.11626389101093
 21
812.48784886781095
  0
LINE
  8
_0-1_DEFPOINTS
  6
CONTINUOUS
 62
    7
 10
927.11626389101093
 20
812.48784886781095
 11
927.03579075204516
 21
812.60510820199806
  0
LINE
  8
_0-1_DEFPOINTS
  6
CONTINUOUS
 62
    7
 10
927.03579075204516
 20
812.60510820199806
 11
926.91623561757581
 21
812.68443344082266
  0
LINE
  8
_0-1_DEFPOINTS
  6
CONTINUOUS
 62
    7
 10
926.91623561757581
 20
812.68443344082266
 11
926.78058318577791
 21
812.71087518709737
  0
LINE
  8
_0-1_DEFPOINTS
  6
CONTINUOUS
 62
    7
 10
926.78058318577791
 20
812.71087518709737
 11
926.64493075398025
 21
812.68443344082266
  0
LINE
  8
_0-1_DEFPOINTS
  6
CONTINUOUS
 62
    7
 10
926.64493075398025
 20
812.68443344082266
 11
926.52536894567277
 21
812.60510820199806
  0
LINE
  8
_0-1_DEFPOINTS
  6
CONTINUOUS
 62
    7
 10
927.03579075204516
 20
786.66897189629083
 11
927.11626389101093
 21
786.78853370459831
  0
LINE
  8
_0-1_DEFPOINTS
  6
CONTINUOUS
 62
    7
 10
927.11626389101093
 20
786.78853370459831
 11
927.14155773714469
 21
786.92533403653727
  0
LINE
  8
_0-1_DEFPOINTS
  6
CONTINUOUS
 62
    7
 10
927.14155773714469
 20
786.92533403653727
 11
927.11626389101093
 21
787.06098646833493
  0
LINE
  8
_0-1_DEFPOINTS
  6
CONTINUOUS
 62
    7
 10
927.11626389101093
 20
787.06098646833493
 11
927.03579075204516
 21
787.18054827664241
  0
LINE
  8
_0-1_DEFPOINTS
  6
CONTINUOUS
 62
    7
 10
927.03579075204516
 20
787.18054827664241
 11
926.91623561757581
 21
787.25871894148781
  0
LINE
  8
_0-1_DEFPOINTS
  6
CONTINUOUS
 62
    7
 10
926.91623561757581
 20
787.25871894148781
 11
926.78058318577791
 21
787.28401278762158
  0
LINE
  8
_0-1_DEFPOINTS
  6
CONTINUOUS
 62
    7
 10
926.78058318577791
 20
787.28401278762158
 11
926.64493075398025
 21
787.25871894148781
  0
LINE
  8
_0-1_DEFPOINTS
  6
CONTINUOUS
 62
    7
 10
926.64493075398025
 20
787.25871894148781
 11
926.52536894567277
 21
787.18054827664241
  0
LINE
  8
_0-1_DEFPOINTS
  6
CONTINUOUS
 62
    7
 10
935.78655387233334
 20
770.29061255313536
 11
935.79804622142103
 21
770.33315159673873
  0
LINE
  8
_0-1_DEFPOINTS
  6
CONTINUOUS
 62
    7
 10
935.79804622142103
 20
770.33315159673873
 11
935.80954524434674
 21
770.37568396650386
  0
LINE
  8
_0-1_DEFPOINTS
  6
CONTINUOUS
 62
    7
 10
935.80954524434674
 20
770.37568396650386
 11
935.81874179315207
 21
770.41822301010711
  0
LINE
  8
_0-1_DEFPOINTS
  6
CONTINUOUS
 62
    7
 10
935.81874179315207
 20
770.41822301010711
 11
935.83023414223953
 21
770.46075537987224
  0
LINE
  8
_0-1_DEFPOINTS
  6
CONTINUOUS
 62
    7
 10
935.83023414223953
 20
770.46075537987224
 11
935.80954524434674
 21
770.50329442347538
  0
LINE
  8
_0-1_DEFPOINTS
  6
CONTINUOUS
 62
    7
 10
935.80954524434674
 20
770.50329442347538
 11
935.78655387233334
 21
770.54582679324062
  0
LINE
  8
_0-1_DEFPOINTS
  6
CONTINUOUS
 62
    7
 10
935.78655387233334
 20
770.54582679324062
 11
935.76355582648193
 21
770.58721126286457
  0
LINE
  8
_0-1_DEFPOINTS
  6
CONTINUOUS
 62
    7
 10
935.76355582648193
 20
770.58721126286457
 11
935.74286692858891
 21
770.62975030646783
  0
LINE
  8
_0-1_DEFPOINTS
  6
CONTINUOUS
 62
    7
 10
933.96558381817181
 20
770.24808018337012
 11
933.96558381817181
 21
770.15266432105534
  0
LINE
  8
_0-1_DEFPOINTS
  6
CONTINUOUS
 62
    7
 10
933.96558381817181
 20
770.15266432105534
 11
933.96558381817181
 21
770.05724845874045
  0
LINE
  8
_0-1_DEFPOINTS
  6
CONTINUOUS
 62
    7
 10
933.96558381817181
 20
770.05724845874045
 11
933.96558381817181
 21
769.96183259642544
  0
LINE
  8
_0-1_DEFPOINTS
  6
CONTINUOUS
 62
    7
 10
933.96558381817181
 20
769.96183259642544
 11
933.96558381817181
 21
769.86641006027253
  0
LINE
  8
_0-1_DEFPOINTS
  6
CONTINUOUS
 62
    7
 10
935.74516272887126
 20
816.52524724860177
 11
935.75435927767671
 21
816.48271487883653
  0
LINE
  8
_0-1_DEFPOINTS
  6
CONTINUOUS
 62
    7
 10
935.75435927767671
 20
816.48271487883653
 11
935.7658583006023
 21
816.44017583523328
  0
LINE
  8
_0-1_DEFPOINTS
  6
CONTINUOUS
 62
    7
 10
935.7658583006023
 20
816.44017583523328
 11
935.77735732352812
 21
816.39764346546815
  0
LINE
  8
_0-1_DEFPOINTS
  6
CONTINUOUS
 62
    7
 10
935.77735732352812
 20
816.39764346546815
 11
935.78655387233334
 21
816.35510442186489
  0
LINE
  8
_0-1_DEFPOINTS
  6
CONTINUOUS
 62
    7
 10
935.78655387233334
 20
816.35510442186489
 11
935.77735732352812
 21
816.31257205209977
  0
LINE
  8
_0-1_DEFPOINTS
  6
CONTINUOUS
 62
    7
 10
935.77735732352812
 20
816.31257205209977
 11
935.7658583006023
 21
816.27003300849651
  0
LINE
  8
_0-1_DEFPOINTS
  6
CONTINUOUS
 62
    7
 10
935.7658583006023
 20
816.27003300849651
 11
935.75435927767671
 21
816.22864853887245
  0
LINE
  8
_0-1_DEFPOINTS
  6
CONTINUOUS
 62
    7
 10
935.75435927767671
 20
816.22864853887245
 11
935.74516272887126
 21
816.18611616910721
  0
LINE
  8
_0-1_DEFPOINTS
  6
CONTINUOUS
 62
    7
 10
926.3782174909494
 20
799.4467822745853
 11
926.41041208560614
 21
799.48931464435032
  0
LINE
  8
_0-1_DEFPOINTS
  6
CONTINUOUS
 62
    7
 10
926.41041208560614
 20
799.48931464435032
 11
926.44260000642475
 21
799.53185368795346
  0
LINE
  8
_0-1_DEFPOINTS
  6
CONTINUOUS
 62
    7
 10
926.44260000642475
 20
799.53185368795346
 11
926.47478792724337
 21
799.5743860577187
  0
LINE
  8
_0-1_DEFPOINTS
  6
CONTINUOUS
 62
    7
 10
926.47478792724337
 20
799.5743860577187
 11
926.5069758480621
 21
799.61692510132207
  0
LINE
  8
_0-1_DEFPOINTS
  6
CONTINUOUS
 62
    7
 10
923.0305869659112
 20
802.79556737360258
 11
923.08346378462284
 21
802.80591182254909
  0
LINE
  8
_0-1_DEFPOINTS
  6
CONTINUOUS
 62
    7
 10
923.08346378462284
 20
802.80591182254909
 11
923.1363472771726
 21
802.8174108454748
  0
LINE
  8
_0-1_DEFPOINTS
  6
CONTINUOUS
 62
    7
 10
923.1363472771726
 20
802.8174108454748
 11
923.18923076972226
 21
802.82775529442119
  0
LINE
  8
_0-1_DEFPOINTS
  6
CONTINUOUS
 62
    7
 10
923.18923076972226
 20
802.82775529442119
 11
923.2421075884339
 21
802.83810641720584
  0
LINE
  8
_0-1_DEFPOINTS
  6
CONTINUOUS
 62
    7
 10
926.3782174909494
 20
774.01991987510928
 11
926.41041208560614
 21
774.06245224487429
  0
LINE
  8
_0-1_DEFPOINTS
  6
CONTINUOUS
 62
    7
 10
926.41041208560614
 20
774.06245224487429
 11
926.44260000642475
 21
774.10499128847778
  0
LINE
  8
_0-1_DEFPOINTS
  6
CONTINUOUS
 62
    7
 10
926.44260000642475
 20
774.10499128847778
 11
926.47478792724337
 21
774.14752365824279
  0
LINE
  8
_0-1_DEFPOINTS
  6
CONTINUOUS
 62
    7
 10
926.47478792724337
 20
774.14752365824279
 11
926.5069758480621
 21
774.19006270184605
  0
LINE
  8
_0-1_DEFPOINTS
  6
CONTINUOUS
 62
    7
 10
923.0305869659112
 20
777.36755707398538
 11
923.08346378462284
 21
777.37790152293201
  0
LINE
  8
_0-1_DEFPOINTS
  6
CONTINUOUS
 62
    7
 10
923.08346378462284
 20
777.37790152293201
 11
923.1363472771726
 21
777.38824597187829
  0
LINE
  8
_0-1_DEFPOINTS
  6
CONTINUOUS
 62
    7
 10
923.1363472771726
 20
777.38824597187829
 11
923.18923076972226
 21
777.39974499480411
  0
LINE
  8
_0-1_DEFPOINTS
  6
CONTINUOUS
 62
    7
 10
923.18923076972226
 20
777.39974499480411
 11
923.2421075884339
 21
777.41008944375062
  0
LINE
  8
_0-1_DEFPOINTS
  6
CONTINUOUS
 62
    7
 10
987.86805130598827
 20
783.93637558874525
 11
988.00599953806818
 21
784.26515554545517
  0
LINE
  8
_0-1_DEFPOINTS
  6
CONTINUOUS
 62
    7
 10
988.00599953806818
 20
784.26515554545517
 11
988.14395444398656
 21
784.59394217600334
  0
LINE
  8
_0-1_DEFPOINTS
  6
CONTINUOUS
 62
    7
 10
988.14395444398656
 20
784.59394217600334
 11
988.28190934990459
 21
784.92272880655128
  0
LINE
  8
_0-1_DEFPOINTS
  6
CONTINUOUS
 62
    7
 10
988.28190934990459
 20
784.92272880655128
 11
988.41985758198462
 21
785.25036753695804
  0
LINE
  8
_0-1_DEFPOINTS
  6
CONTINUOUS
 62
    7
 10
988.41985758198462
 20
785.25036753695804
 11
988.59000040872161
 21
785.56880304472134
  0
LINE
  8
_0-1_DEFPOINTS
  6
CONTINUOUS
 62
    7
 10
988.59000040872161
 20
785.56880304472134
 11
988.76014323545837
 21
785.88609732618181
  0
LINE
  8
_0-1_DEFPOINTS
  6
CONTINUOUS
 62
    7
 10
988.76014323545837
 20
785.88609732618181
 11
988.93027938835701
 21
786.20338493380382
  0
LINE
  8
_0-1_DEFPOINTS
  6
CONTINUOUS
 62
    7
 10
988.93027938835701
 20
786.20338493380382
 11
989.09811974097352
 21
786.52182711540547
  0
LINE
  8
_0-1_DEFPOINTS
  6
CONTINUOUS
 62
    7
 10
989.09811974097352
 20
786.52182711540547
 11
989.28895813944132
 21
786.81841915129655
  0
LINE
  8
_0-1_DEFPOINTS
  6
CONTINUOUS
 62
    7
 10
989.28895813944132
 20
786.81841915129655
 11
989.48209233819171
 21
787.11501786102588
  0
LINE
  8
_0-1_DEFPOINTS
  6
CONTINUOUS
 62
    7
 10
989.48209233819171
 20
787.11501786102588
 11
989.67292406282138
 21
787.41161657075509
  0
LINE
  8
_0-1_DEFPOINTS
  6
CONTINUOUS
 62
    7
 10
989.67292406282138
 20
787.41161657075509
 11
989.86375578745128
 21
787.7082152804843
  0
LINE
  8
_0-1_DEFPOINTS
  6
CONTINUOUS
 62
    7
 10
989.86375578745128
 20
787.7082152804843
 11
990.075283083812
 21
788.0048073163756
  0
LINE
  8
_0-1_DEFPOINTS
  6
CONTINUOUS
 62
    7
 10
990.075283083812
 20
788.0048073163756
 11
990.28681038017282
 21
788.30140602610504
  0
LINE
  8
_0-1_DEFPOINTS
  6
CONTINUOUS
 62
    7
 10
990.28681038017282
 20
788.30140602610504
 11
990.49833767653377
 21
788.59800473583414
  0
LINE
  8
_0-1_DEFPOINTS
  6
CONTINUOUS
 62
    7
 10
990.49833767653377
 20
788.59800473583414
 11
990.70986497289459
 21
788.89459677172545
  0
LINE
  8
_0-1_DEFPOINTS
  6
CONTINUOUS
 62
    7
 10
990.70986497289459
 20
788.89459677172545
 11
991.1651074864352
 21
789.44526182141874
  0
LINE
  8
_0-1_DEFPOINTS
  6
CONTINUOUS
 62
    7
 10
991.1651074864352
 20
789.44526182141874
 11
991.62034332613734
 21
789.99706809741519
  0
LINE
  8
_0-1_DEFPOINTS
  6
CONTINUOUS
 62
    7
 10
991.62034332613734
 20
789.99706809741519
 11
992.07558583967761
 21
790.54772647327036
  0
LINE
  8
_0-1_DEFPOINTS
  6
CONTINUOUS
 62
    7
 10
992.07558583967761
 20
790.54772647327036
 11
992.53082835321811
 21
791.09838484912586
  0
LINE
  8
_0-1_DEFPOINTS
  6
CONTINUOUS
 62
    7
 10
992.53082835321811
 20
791.09838484912586
 11
992.76534702159233
 21
791.37428798712392
  0
LINE
  8
_0-1_DEFPOINTS
  6
CONTINUOUS
 62
    7
 10
992.76534702159233
 20
791.37428798712392
 11
992.9975698896842
 21
791.64904322498103
  0
LINE
  8
_0-1_DEFPOINTS
  6
CONTINUOUS
 62
    7
 10
992.9975698896842
 20
791.64904322498103
 11
993.22978608393805
 21
791.92379846283814
  0
LINE
  8
_0-1_DEFPOINTS
  6
CONTINUOUS
 62
    7
 10
993.22978608393805
 20
791.92379846283814
 11
993.46430475231227
 21
792.19970160083653
  0
LINE
  8
_0-1_DEFPOINTS
  6
CONTINUOUS
 62
    7
 10
993.46430475231227
 20
792.19970160083653
 11
993.57926828621703
 21
792.33765650675446
  0
LINE
  8
_0-1_DEFPOINTS
  6
CONTINUOUS
 62
    7
 10
993.57926828621703
 20
792.33765650675446
 11
993.69652762040414
 21
792.47560473883459
  0
LINE
  8
_0-1_DEFPOINTS
  6
CONTINUOUS
 62
    7
 10
993.69652762040414
 20
792.47560473883459
 11
993.81378695459136
 21
792.61355964475285
  0
LINE
  8
_0-1_DEFPOINTS
  6
CONTINUOUS
 62
    7
 10
993.81378695459136
 20
792.61355964475285
 11
993.92874381465799
 21
792.75150787683287
  0
LINE
  8
_0-1_DEFPOINTS
  6
CONTINUOUS
 62
    7
 10
993.92874381465799
 20
792.75150787683287
 11
993.97012828428217
 21
792.82508694111357
  0
LINE
  8
_0-1_DEFPOINTS
  6
CONTINUOUS
 62
    7
 10
993.97012828428217
 20
792.82508694111357
 11
994.01381522802637
 21
792.89980723169742
  0
LINE
  8
_0-1_DEFPOINTS
  6
CONTINUOUS
 62
    7
 10
994.01381522802637
 20
792.89980723169742
 11
994.05750217177092
 21
792.97453419611941
  0
LINE
  8
_0-1_DEFPOINTS
  6
CONTINUOUS
 62
    7
 10
994.05750217177092
 20
792.97453419611941
 11
994.09888664139487
 21
793.04810658656208
  0
LINE
  8
_0-1_DEFPOINTS
  6
CONTINUOUS
 62
    7
 10
994.09888664139487
 20
793.04810658656208
 11
994.1310745622136
 21
793.13317799993058
  0
LINE
  8
_0-1_DEFPOINTS
  6
CONTINUOUS
 62
    7
 10
994.1310745622136
 20
793.13317799993058
 11
994.16326248303221
 21
793.21824941329874
  0
LINE
  8
_0-1_DEFPOINTS
  6
CONTINUOUS
 62
    7
 10
994.16326248303221
 20
793.21824941329874
 11
994.19545040385083
 21
793.30332082666746
  0
LINE
  8
_0-1_DEFPOINTS
  6
CONTINUOUS
 62
    7
 10
994.19545040385083
 20
793.30332082666746
 11
994.22763832466956
 21
793.38723766605654
  0
LINE
  8
_0-1_DEFPOINTS
  6
CONTINUOUS
 62
    7
 10
994.22763832466956
 20
793.38723766605654
 11
994.19545040385083
 21
793.47116117928385
  0
LINE
  8
_0-1_DEFPOINTS
  6
CONTINUOUS
 62
    7
 10
994.19545040385083
 20
793.47116117928385
 11
994.16326248303221
 21
793.55623259265235
  0
LINE
  8
_0-1_DEFPOINTS
  6
CONTINUOUS
 62
    7
 10
994.16326248303221
 20
793.55623259265235
 11
994.1310745622136
 21
793.64129733218249
  0
LINE
  8
_0-1_DEFPOINTS
  6
CONTINUOUS
 62
    7
 10
994.1310745622136
 20
793.64129733218249
 11
994.09888664139487
 21
793.72636874555099
  0
LINE
  8
_0-1_DEFPOINTS
  6
CONTINUOUS
 62
    7
 10
994.09888664139487
 20
793.72636874555099
 11
994.05750217177092
 21
793.79994780983168
  0
LINE
  8
_0-1_DEFPOINTS
  6
CONTINUOUS
 62
    7
 10
994.05750217177092
 20
793.79994780983168
 11
994.01381522802637
 21
793.87466810041565
  0
LINE
  8
_0-1_DEFPOINTS
  6
CONTINUOUS
 62
    7
 10
994.01381522802637
 20
793.87466810041565
 11
993.97012828428217
 21
793.94939506483752
  0
LINE
  8
_0-1_DEFPOINTS
  6
CONTINUOUS
 62
    7
 10
993.97012828428217
 20
793.94939506483752
 11
993.92874381465799
 21
794.0229674552802
  0
LINE
  8
_0-1_DEFPOINTS
  6
CONTINUOUS
 62
    7
 10
993.92874381465799
 20
794.0229674552802
 11
993.81378695459136
 21
794.16092236119857
  0
LINE
  8
_0-1_DEFPOINTS
  6
CONTINUOUS
 62
    7
 10
993.81378695459136
 20
794.16092236119857
 11
993.69652762040414
 21
794.29887059327848
  0
LINE
  8
_0-1_DEFPOINTS
  6
CONTINUOUS
 62
    7
 10
993.69652762040414
 20
794.29887059327848
 11
993.57926828621703
 21
794.43682549919663
  0
LINE
  8
_0-1_DEFPOINTS
  6
CONTINUOUS
 62
    7
 10
993.57926828621703
 20
794.43682549919663
 11
993.46430475231227
 21
794.57362583113559
  0
LINE
  8
_0-1_DEFPOINTS
  6
CONTINUOUS
 62
    7
 10
993.46430475231227
 20
794.57362583113559
 11
993.22978608393805
 21
794.83918452018747
  0
LINE
  8
_0-1_DEFPOINTS
  6
CONTINUOUS
 62
    7
 10
993.22978608393805
 20
794.83918452018747
 11
992.9975698896842
 21
795.10359530909795
  0
LINE
  8
_0-1_DEFPOINTS
  6
CONTINUOUS
 62
    7
 10
992.9975698896842
 20
795.10359530909795
 11
992.76534702159233
 21
795.36799942417031
  0
LINE
  8
_0-1_DEFPOINTS
  6
CONTINUOUS
 62
    7
 10
992.76534702159233
 20
795.36799942417031
 11
992.53082835321811
 21
795.63355811322208
  0
LINE
  8
_0-1_DEFPOINTS
  6
CONTINUOUS
 62
    7
 10
992.53082835321811
 20
795.63355811322208
 11
992.07558583967761
 21
796.19571551200329
  0
LINE
  8
_0-1_DEFPOINTS
  6
CONTINUOUS
 62
    7
 10
992.07558583967761
 20
796.19571551200329
 11
991.62034332613734
 21
796.75671833680497
  0
LINE
  8
_0-1_DEFPOINTS
  6
CONTINUOUS
 62
    7
 10
991.62034332613734
 20
796.75671833680497
 11
991.1651074864352
 21
797.31772116160664
  0
LINE
  8
_0-1_DEFPOINTS
  6
CONTINUOUS
 62
    7
 10
991.1651074864352
 20
797.31772116160664
 11
990.70986497289459
 21
797.87987856038762
  0
LINE
  8
_0-1_DEFPOINTS
  6
CONTINUOUS
 62
    7
 10
990.70986497289459
 20
797.87987856038762
 11
990.49833767653377
 21
798.16612614733242
  0
LINE
  8
_0-1_DEFPOINTS
  6
CONTINUOUS
 62
    7
 10
990.49833767653377
 20
798.16612614733242
 11
990.28681038017282
 21
798.45122583413604
  0
LINE
  8
_0-1_DEFPOINTS
  6
CONTINUOUS
 62
    7
 10
990.28681038017282
 20
798.45122583413604
 11
990.075283083812
 21
798.73748009491896
  0
LINE
  8
_0-1_DEFPOINTS
  6
CONTINUOUS
 62
    7
 10
990.075283083812
 20
798.73748009491896
 11
989.86145998716893
 21
799.02372768186353
  0
LINE
  8
_0-1_DEFPOINTS
  6
CONTINUOUS
 62
    7
 10
989.86145998716893
 20
799.02372768186353
 11
989.67062158870112
 21
799.33067084053937
  0
LINE
  8
_0-1_DEFPOINTS
  6
CONTINUOUS
 62
    7
 10
989.67062158870112
 20
799.33067084053937
 11
989.48209233819171
 21
799.63761399921509
  0
LINE
  8
_0-1_DEFPOINTS
  6
CONTINUOUS
 62
    7
 10
989.48209233819171
 20
799.63761399921509
 11
989.2912539397239
 21
799.94571173187001
  0
LINE
  8
_0-1_DEFPOINTS
  6
CONTINUOUS
 62
    7
 10
989.2912539397239
 20
799.94571173187001
 11
989.100422215094
 21
800.25265489054595
  0
LINE
  8
_0-1_DEFPOINTS
  6
CONTINUOUS
 62
    7
 10
989.100422215094
 20
800.25265489054595
 11
988.93027938835701
 21
800.57109039830925
  0
LINE
  8
_0-1_DEFPOINTS
  6
CONTINUOUS
 62
    7
 10
988.93027938835701
 20
800.57109039830925
 11
988.76014323545837
 21
800.88838467976927
  0
LINE
  8
_0-1_DEFPOINTS
  6
CONTINUOUS
 62
    7
 10
988.76014323545837
 20
800.88838467976927
 11
988.59000040872161
 21
801.20567228739174
  0
LINE
  8
_0-1_DEFPOINTS
  6
CONTINUOUS
 62
    7
 10
988.59000040872161
 20
801.20567228739174
 11
988.41985758198462
 21
801.52410779515503
  0
LINE
  8
_0-1_DEFPOINTS
  6
CONTINUOUS
 62
    7
 10
988.41985758198462
 20
801.52410779515503
 11
988.28190934990459
 21
801.85174652556179
  0
LINE
  8
_0-1_DEFPOINTS
  6
CONTINUOUS
 62
    7
 10
988.28190934990459
 20
801.85174652556179
 11
988.14395444398656
 21
802.18053315610996
  0
LINE
  8
_0-1_DEFPOINTS
  6
CONTINUOUS
 62
    7
 10
988.14395444398656
 20
802.18053315610996
 11
988.00599953806818
 21
802.5093197866579
  0
LINE
  8
_0-1_DEFPOINTS
  6
CONTINUOUS
 62
    7
 10
988.00599953806818
 20
802.5093197866579
 11
987.87034710627063
 21
802.83810641720584
  0
LINE
  8
_0-0_0
  6
CONTINUOUS
 62
    7
 10
876.25254263893476
 20
806.10067220271333
 11
876.25254263893476
 21
780.67380980323765
  0
LINE
  8
_0-0_0
  6
CONTINUOUS
 62
    7
 10
876.25254263893476
 20
806.10067220271333
 11
877.12078352726951
 21
801.1766334376523
  0
LINE
  8
_0-0_0
  6
CONTINUOUS
 62
    7
 10
876.25254263893476
 20
806.10067220271333
 11
875.38430175060034
 21
801.1766334376523
  0
LINE
  8
_0-0_0
  6
CONTINUOUS
 62
    7
 10
876.25254263893476
 20
780.67380980323765
 11
875.38430175060034
 21
785.59784856829879
  0
LINE
  8
_0-0_0
  6
CONTINUOUS
 62
    7
 10
876.25254263893476
 20
780.67380980323765
 11
877.12078352726951
 21
785.59784856829879
  0
LINE
  8
_0-0_0
  6
CONTINUOUS
 62
    7
 10
876.25254263893476
 20
806.10067220271333
 11
895.86038577618979
 21
806.10067220271333
  0
LINE
  8
_0-0_0
  6
CONTINUOUS
 62
    7
 10
876.25254263893476
 20
780.67380980323765
 11
895.86038577618979
 21
780.67380980323765
  0
TEXT
  8
_0-0_0
 62
    7
 10
873.75254263893476
 20
785.26224100297554
 40
15
 41
1
 50
90
  1
25
  0
LINE
  8
_0-1_DEFPOINTS
  6
CONTINUOUS
 62
    7
 10
531.1164697239924
 20
816.90691737169936
 11
510.99731738361351
 21
816.90691737169936
  0
LINE
  8
_0-1_DEFPOINTS
  6
CONTINUOUS
 62
    7
 10
510.99731738361351
 20
816.90691737169936
 11
490.87701046925537
 21
816.90691737169936
  0
LINE
  8
_0-1_DEFPOINTS
  6
CONTINUOUS
 62
    7
 10
490.87701046925537
 20
816.90691737169936
 11
470.75785145503835
 21
816.90691737169936
  0
LINE
  8
_0-1_DEFPOINTS
  6
CONTINUOUS
 62
    7
 10
470.75785145503835
 20
816.90691737169936
 11
450.6386924408215
 21
816.90691737169936
  0
LINE
  8
_0-1_DEFPOINTS
  6
CONTINUOUS
 62
    7
 10
555.9938283215921
 20
635.90691740788668
 11
529.65533299489425
 21
635.90691740788668
  0
LINE
  8
_0-1_DEFPOINTS
  6
CONTINUOUS
 62
    7
 10
529.65533299489425
 20
635.90691740788668
 11
503.31683766819646
 21
635.90691740788668
  0
LINE
  8
_0-1_DEFPOINTS
  6
CONTINUOUS
 62
    7
 10
503.31683766819646
 20
635.90691740788668
 11
476.97833566766059
 21
635.90691740788668
  0
LINE
  8
_0-1_DEFPOINTS
  6
CONTINUOUS
 62
    7
 10
476.97833566766059
 20
635.90691740788668
 11
450.63984034096273
 21
635.90691740788668
  0
LINE
  8
_0-1_DEFPOINTS
  6
CONTINUOUS
 62
    7
 10
538.17961942163447
 20
769.86641006027253
 11
523.16698761910015
 21
769.86641006027253
  0
LINE
  8
_0-1_DEFPOINTS
  6
CONTINUOUS
 62
    7
 10
523.16698761910015
 20
769.86641006027253
 11
508.15435581656584
 21
769.86641006027253
  0
LINE
  8
_0-1_DEFPOINTS
  6
CONTINUOUS
 62
    7
 10
508.15435581656584
 20
769.86641006027253
 11
493.14172401403169
 21
769.86641006027253
  0
LINE
  8
_0-1_DEFPOINTS
  6
CONTINUOUS
 62
    7
 10
493.14172401403169
 20
769.86641006027253
 11
478.12908553765936
 21
769.86641006027253
  0
LINE
  8
_0-1_DEFPOINTS
  6
CONTINUOUS
 62
    7
 10
538.17961942163447
 20
816.90691737169936
 11
523.16698761910015
 21
816.90691737169936
  0
LINE
  8
_0-1_DEFPOINTS
  6
CONTINUOUS
 62
    7
 10
523.16698761910015
 20
816.90691737169936
 11
508.15435581656584
 21
816.90691737169936
  0
LINE
  8
_0-1_DEFPOINTS
  6
CONTINUOUS
 62
    7
 10
508.15435581656584
 20
816.90691737169936
 11
493.14172401403169
 21
816.90691737169936
  0
LINE
  8
_0-1_DEFPOINTS
  6
CONTINUOUS
 62
    7
 10
493.14172401403169
 20
816.90691737169936
 11
478.12908553765936
 21
816.90691737169936
  0
LINE
  8
_0-1_DEFPOINTS
  6
CONTINUOUS
 62
    7
 10
531.75219951321606
 20
770.24808018337012
 11
531.75219951321606
 21
773.79690022966088
  0
LINE
  8
_0-1_DEFPOINTS
  6
CONTINUOUS
 62
    7
 10
531.75219951321606
 20
773.79690022966088
 11
531.75219951321606
 21
777.34686150225434
  0
LINE
  8
_0-1_DEFPOINTS
  6
CONTINUOUS
 62
    7
 10
531.75219951321606
 20
777.34686150225434
 11
531.75219951321606
 21
780.89682944868605
  0
LINE
  8
_0-1_DEFPOINTS
  6
CONTINUOUS
 62
    7
 10
531.75219951321606
 20
800.0296285712592
 11
531.75219951321606
 21
805.52817035498595
  0
LINE
  8
_0-1_DEFPOINTS
  6
CONTINUOUS
 62
    7
 10
531.75219951321606
 20
805.52817035498595
 11
531.75219951321606
 21
811.02670546487479
  0
LINE
  8
_0-1_DEFPOINTS
  6
CONTINUOUS
 62
    7
 10
531.75219951321606
 20
811.02670546487479
 11
531.75219951321606
 21
816.52524724860177
  0
LINE
  8
_0-1_DEFPOINTS
  6
CONTINUOUS
 62
    7
 10
532.09133726654852
 20
816.1872640692485
 11
532.09133726654852
 21
810.80483371956745
  0
LINE
  8
_0-1_DEFPOINTS
  6
CONTINUOUS
 62
    7
 10
532.09133726654852
 20
810.80483371956745
 11
532.09133726654852
 21
805.42240336988652
  0
LINE
  8
_0-1_DEFPOINTS
  6
CONTINUOUS
 62
    7
 10
532.09133726654852
 20
805.42240336988652
 11
532.09133726654852
 21
800.03997969404372
  0
LINE
  8
_0-1_DEFPOINTS
  6
CONTINUOUS
 62
    7
 10
532.09133726654852
 20
781.08651327317477
 11
532.09133726654852
 21
777.60092784221854
  0
LINE
  8
_0-1_DEFPOINTS
  6
CONTINUOUS
 62
    7
 10
532.09133726654852
 20
777.60092784221854
 11
532.09133726654852
 21
774.11533573742418
  0
LINE
  8
_0-1_DEFPOINTS
  6
CONTINUOUS
 62
    7
 10
532.09133726654852
 20
774.11533573742418
 11
532.09133726654852
 21
770.62975030646783
  0
LINE
  8
_0-1_DEFPOINTS
  6
CONTINUOUS
 62
    7
 10
532.43046834604297
 20
816.52524724860177
 11
532.43046834604297
 21
811.08993340637107
  0
LINE
  8
_0-1_DEFPOINTS
  6
CONTINUOUS
 62
    7
 10
532.43046834604297
 20
811.08993340637107
 11
532.43046834604297
 21
805.65462623797839
  0
LINE
  8
_0-1_DEFPOINTS
  6
CONTINUOUS
 62
    7
 10
532.43046834604297
 20
805.65462623797839
 11
532.43046834604297
 21
800.21931239574792
  0
LINE
  8
_0-1_DEFPOINTS
  6
CONTINUOUS
 62
    7
 10
532.43046834604297
 20
781.09685772212129
 11
532.43046834604297
 21
777.49516085711889
  0
LINE
  8
_0-1_DEFPOINTS
  6
CONTINUOUS
 62
    7
 10
532.43046834604297
 20
777.49516085711889
 11
532.43046834604297
 21
773.89346399211695
  0
LINE
  8
_0-1_DEFPOINTS
  6
CONTINUOUS
 62
    7
 10
532.43046834604297
 20
773.89346399211695
 11
532.43046834604297
 21
770.29061255313536
  0
LINE
  8
_0-1_DEFPOINTS
  6
CONTINUOUS
 62
    7
 10
533.78699266402077
 20
771.90120321107725
 11
533.78699266402077
 21
775.21780038927602
  0
LINE
  8
_0-1_DEFPOINTS
  6
CONTINUOUS
 62
    7
 10
533.78699266402077
 20
775.21780038927602
 11
533.78699266402077
 21
778.53324966733339
  0
LINE
  8
_0-1_DEFPOINTS
  6
CONTINUOUS
 62
    7
 10
533.78699266402077
 20
778.53324966733339
 11
533.78699266402077
 21
781.84869894539088
  0
LINE
  8
_0-1_DEFPOINTS
  6
CONTINUOUS
 62
    7
 10
533.78699266402077
 20
800.09285651275547
 11
533.78699266402077
 21
805.02004434889602
  0
LINE
  8
_0-1_DEFPOINTS
  6
CONTINUOUS
 62
    7
 10
533.78699266402077
 20
805.02004434889602
 11
533.78699266402077
 21
809.94723218503634
  0
LINE
  8
_0-1_DEFPOINTS
  6
CONTINUOUS
 62
    7
 10
533.78699266402077
 20
809.94723218503634
 11
533.78699266402077
 21
814.87327212103582
  0
LINE
  8
_0-1_DEFPOINTS
  6
CONTINUOUS
 62
    7
 10
576.75906157397935
 20
771.90120321107725
 11
576.75906157397935
 21
775.49371020111209
  0
LINE
  8
_0-1_DEFPOINTS
  6
CONTINUOUS
 62
    7
 10
576.75906157397935
 20
775.49371020111209
 11
576.75906157397935
 21
779.08505594332996
  0
LINE
  8
_0-1_DEFPOINTS
  6
CONTINUOUS
 62
    7
 10
576.75906157397935
 20
779.08505594332996
 11
576.75906157397935
 21
782.6764083593855
  0
LINE
  8
_0-1_DEFPOINTS
  6
CONTINUOUS
 62
    7
 10
576.75906157397935
 20
800.82400216429392
 11
576.75906157397935
 21
805.50747478325502
  0
LINE
  8
_0-1_DEFPOINTS
  6
CONTINUOUS
 62
    7
 10
576.75906157397935
 20
805.50747478325502
 11
576.75906157397935
 21
810.1909474022159
  0
LINE
  8
_0-1_DEFPOINTS
  6
CONTINUOUS
 62
    7
 10
576.75906157397935
 20
810.1909474022159
 11
576.75906157397935
 21
814.87327212103582
  0
LINE
  8
_0-1_DEFPOINTS
  6
CONTINUOUS
 62
    7
 10
578.07305352219191
 20
770.29061255313536
 11
578.07305352219191
 21
774.19006270184605
  0
LINE
  8
_0-1_DEFPOINTS
  6
CONTINUOUS
 62
    7
 10
578.07305352219191
 20
774.19006270184605
 11
578.07305352219191
 21
778.08835827657754
  0
LINE
  8
_0-1_DEFPOINTS
  6
CONTINUOUS
 62
    7
 10
578.07305352219191
 20
800.98380054208428
 11
578.07305352219191
 21
806.16504804435078
  0
LINE
  8
_0-1_DEFPOINTS
  6
CONTINUOUS
 62
    7
 10
578.07305352219191
 20
806.16504804435078
 11
578.07305352219191
 21
811.34514764647633
  0
LINE
  8
_0-1_DEFPOINTS
  6
CONTINUOUS
 62
    7
 10
578.07305352219191
 20
811.34514764647633
 11
578.07305352219191
 21
816.52639514874295
  0
LINE
  8
_0-1_DEFPOINTS
  6
CONTINUOUS
 62
    7
 10
578.41218460168636
 20
770.62975030646783
 11
578.41218460168636
 21
774.41308234729445
  0
LINE
  8
_0-1_DEFPOINTS
  6
CONTINUOUS
 62
    7
 10
578.41218460168636
 20
774.41308234729445
 11
578.41218460168636
 21
778.19526648798023
  0
LINE
  8
_0-1_DEFPOINTS
  6
CONTINUOUS
 62
    7
 10
578.41218460168636
 20
800.80331326640112
 11
578.41218460168636
 21
805.93052937597679
  0
LINE
  8
_0-1_DEFPOINTS
  6
CONTINUOUS
 62
    7
 10
578.41218460168636
 20
805.93052937597679
 11
578.41218460168636
 21
811.05774548555246
  0
LINE
  8
_0-1_DEFPOINTS
  6
CONTINUOUS
 62
    7
 10
578.41218460168636
 20
811.05774548555246
 11
578.41218460168636
 21
816.18611616910721
  0
LINE
  8
_0-1_DEFPOINTS
  6
CONTINUOUS
 62
    7
 10
578.75131568118081
 20
770.24808018337012
 11
578.75131568118081
 21
774.09349226555207
  0
LINE
  8
_0-1_DEFPOINTS
  6
CONTINUOUS
 62
    7
 10
578.75131568118081
 20
774.09349226555207
 11
578.75131568118081
 21
777.94005892171299
  0
LINE
  8
_0-1_DEFPOINTS
  6
CONTINUOUS
 62
    7
 10
578.75131568118081
 20
800.82515673827311
 11
578.75131568118081
 21
806.05928105925159
  0
LINE
  8
_0-1_DEFPOINTS
  6
CONTINUOUS
 62
    7
 10
578.75131568118081
 20
806.05928105925159
 11
578.75131568118081
 21
811.29226415392645
  0
LINE
  8
_0-1_DEFPOINTS
  6
CONTINUOUS
 62
    7
 10
578.75131568118081
 20
811.29226415392645
 11
578.75131568118081
 21
816.52639514874295
  0
LINE
  8
_0-1_DEFPOINTS
  6
CONTINUOUS
 62
    7
 10
532.13386963631376
 20
769.86641006027253
 11
543.69310392871046
 21
769.86641006027253
  0
LINE
  8
_0-1_DEFPOINTS
  6
CONTINUOUS
 62
    7
 10
543.69310392871046
 20
769.86641006027253
 11
555.25233154726902
 21
769.86641006027253
  0
LINE
  8
_0-1_DEFPOINTS
  6
CONTINUOUS
 62
    7
 10
555.25233154726902
 20
769.86641006027253
 11
566.81041793952454
 21
769.86641006027253
  0
LINE
  8
_0-1_DEFPOINTS
  6
CONTINUOUS
 62
    7
 10
566.81041793952454
 20
769.86641006027253
 11
578.36965223192112
 21
769.86641006027253
  0
LINE
  8
_0-1_DEFPOINTS
  6
CONTINUOUS
 62
    7
 10
532.43046834604297
 20
770.29061255313536
 11
543.841403283575
 21
770.29061255313536
  0
LINE
  8
_0-1_DEFPOINTS
  6
CONTINUOUS
 62
    7
 10
543.841403283575
 20
770.29061255313536
 11
555.25233154726902
 21
770.29061255313536
  0
LINE
  8
_0-1_DEFPOINTS
  6
CONTINUOUS
 62
    7
 10
555.25233154726902
 20
770.29061255313536
 11
566.66326648480106
 21
770.29061255313536
  0
LINE
  8
_0-1_DEFPOINTS
  6
CONTINUOUS
 62
    7
 10
566.66326648480106
 20
770.29061255313536
 11
578.07305352219191
 21
770.29061255313536
  0
LINE
  8
_0-1_DEFPOINTS
  6
CONTINUOUS
 62
    7
 10
532.09133726654852
 20
770.62975030646783
 11
543.67126045683824
 21
770.62975030646783
  0
LINE
  8
_0-1_DEFPOINTS
  6
CONTINUOUS
 62
    7
 10
543.67126045683824
 20
770.62975030646783
 11
555.25118364712785
 21
770.62975030646783
  0
LINE
  8
_0-1_DEFPOINTS
  6
CONTINUOUS
 62
    7
 10
555.25118364712785
 20
770.62975030646783
 11
566.83111351125558
 21
770.62975030646783
  0
LINE
  8
_0-1_DEFPOINTS
  6
CONTINUOUS
 62
    7
 10
566.83111351125558
 20
770.62975030646783
 11
578.4110367015453
 21
770.62975030646783
  0
LINE
  8
_0-1_DEFPOINTS
  6
CONTINUOUS
 62
    7
 10
576.75906157397935
 20
771.90120321107725
 11
566.01604434648971
 21
771.90120321107725
  0
LINE
  8
_0-1_DEFPOINTS
  6
CONTINUOUS
 62
    7
 10
566.01604434648971
 20
771.90120321107725
 11
555.27302711900006
 21
771.90120321107725
  0
LINE
  8
_0-1_DEFPOINTS
  6
CONTINUOUS
 62
    7
 10
555.27302711900006
 20
771.90120321107725
 11
544.53000989151042
 21
771.90120321107725
  0
LINE
  8
_0-1_DEFPOINTS
  6
CONTINUOUS
 62
    7
 10
544.53000989151042
 20
771.90120321107725
 11
533.78699266402077
 21
771.90120321107725
  0
LINE
  8
_0-1_DEFPOINTS
  6
CONTINUOUS
 62
    7
 10
576.75906157397935
 20
814.87327212103582
 11
566.01604434648971
 21
814.87327212103582
  0
LINE
  8
_0-1_DEFPOINTS
  6
CONTINUOUS
 62
    7
 10
566.01604434648971
 20
814.87327212103582
 11
555.27302711900006
 21
814.87327212103582
  0
LINE
  8
_0-1_DEFPOINTS
  6
CONTINUOUS
 62
    7
 10
555.27302711900006
 20
814.87327212103582
 11
544.53000989151042
 21
814.87327212103582
  0
LINE
  8
_0-1_DEFPOINTS
  6
CONTINUOUS
 62
    7
 10
544.53000989151042
 20
814.87327212103582
 11
533.78699266402077
 21
814.87327212103582
  0
LINE
  8
_0-1_DEFPOINTS
  6
CONTINUOUS
 62
    7
 10
532.09133726654852
 20
816.1872640692485
 11
543.67126045683824
 21
816.1872640692485
  0
LINE
  8
_0-1_DEFPOINTS
  6
CONTINUOUS
 62
    7
 10
543.67126045683824
 20
816.1872640692485
 11
555.25118364712785
 21
816.1872640692485
  0
LINE
  8
_0-1_DEFPOINTS
  6
CONTINUOUS
 62
    7
 10
555.25118364712785
 20
816.1872640692485
 11
566.83111351125558
 21
816.1872640692485
  0
LINE
  8
_0-1_DEFPOINTS
  6
CONTINUOUS
 62
    7
 10
566.83111351125558
 20
816.1872640692485
 11
578.4110367015453
 21
816.1872640692485
  0
LINE
  8
_0-1_DEFPOINTS
  6
CONTINUOUS
 62
    7
 10
578.07305352219191
 20
816.52524724860177
 11
566.66326648480106
 21
816.52524724860177
  0
LINE
  8
_0-1_DEFPOINTS
  6
CONTINUOUS
 62
    7
 10
566.66326648480106
 20
816.52524724860177
 11
555.25233154726902
 21
816.52524724860177
  0
LINE
  8
_0-1_DEFPOINTS
  6
CONTINUOUS
 62
    7
 10
555.25233154726902
 20
816.52524724860177
 11
543.841403283575
 21
816.52524724860177
  0
LINE
  8
_0-1_DEFPOINTS
  6
CONTINUOUS
 62
    7
 10
543.841403283575
 20
816.52524724860177
 11
532.43046834604297
 21
816.52524724860177
  0
LINE
  8
_0-1_DEFPOINTS
  6
CONTINUOUS
 62
    7
 10
532.13386963631376
 20
816.90691737169936
 11
543.69310392871046
 21
816.90691737169936
  0
LINE
  8
_0-1_DEFPOINTS
  6
CONTINUOUS
 62
    7
 10
543.69310392871046
 20
816.90691737169936
 11
555.25233154726902
 21
816.90691737169936
  0
LINE
  8
_0-1_DEFPOINTS
  6
CONTINUOUS
 62
    7
 10
555.25233154726902
 20
816.90691737169936
 11
566.81041793952454
 21
816.90691737169936
  0
LINE
  8
_0-1_DEFPOINTS
  6
CONTINUOUS
 62
    7
 10
566.81041793952454
 20
816.90691737169936
 11
578.36965223192112
 21
816.90691737169936
  0
LINE
  8
_0-1_DEFPOINTS
  6
CONTINUOUS
 62
    7
 10
555.2937226907311
 20
803.55775304581869
 11
551.34369152359102
 21
802.75992907852242
  0
LINE
  8
_0-1_DEFPOINTS
  6
CONTINUOUS
 62
    7
 10
551.34369152359102
 20
802.75992907852242
 11
548.11676403316346
 21
800.5848852215172
  0
LINE
  8
_0-1_DEFPOINTS
  6
CONTINUOUS
 62
    7
 10
548.11676403316346
 20
800.5848852215172
 11
545.94172017615824
 21
797.3591056312307
  0
LINE
  8
_0-1_DEFPOINTS
  6
CONTINUOUS
 62
    7
 10
545.94172017615824
 20
797.3591056312307
 11
545.14389620886197
 21
793.40793323778769
  0
LINE
  8
_0-1_DEFPOINTS
  6
CONTINUOUS
 62
    7
 10
545.14389620886197
 20
793.40793323778769
 11
545.94172017615824
 21
789.45675417050643
  0
LINE
  8
_0-1_DEFPOINTS
  6
CONTINUOUS
 62
    7
 10
545.94172017615824
 20
789.45675417050643
 11
548.11676403316346
 21
786.23097458021994
  0
LINE
  8
_0-1_DEFPOINTS
  6
CONTINUOUS
 62
    7
 10
548.11676403316346
 20
786.23097458021994
 11
551.34369152359102
 21
784.05593072321471
  0
LINE
  8
_0-1_DEFPOINTS
  6
CONTINUOUS
 62
    7
 10
551.34369152359102
 20
784.05593072321471
 11
555.2937226907311
 21
783.25810675591833
  0
LINE
  8
_0-1_DEFPOINTS
  6
CONTINUOUS
 62
    7
 10
555.2937226907311
 20
783.25810675591833
 11
559.24374718403305
 21
784.05593072321471
  0
LINE
  8
_0-1_DEFPOINTS
  6
CONTINUOUS
 62
    7
 10
559.24374718403305
 20
784.05593072321471
 11
562.47067467446061
 21
786.23097458021994
  0
LINE
  8
_0-1_DEFPOINTS
  6
CONTINUOUS
 62
    7
 10
562.47067467446061
 20
786.23097458021994
 11
564.64571853146583
 21
789.45675417050643
  0
LINE
  8
_0-1_DEFPOINTS
  6
CONTINUOUS
 62
    7
 10
564.64571853146583
 20
789.45675417050643
 11
565.44354249876221
 21
793.40793323778769
  0
LINE
  8
_0-1_DEFPOINTS
  6
CONTINUOUS
 62
    7
 10
565.44354249876221
 20
793.40793323778769
 11
564.64571853146583
 21
797.3591056312307
  0
LINE
  8
_0-1_DEFPOINTS
  6
CONTINUOUS
 62
    7
 10
564.64571853146583
 20
797.3591056312307
 11
562.47067467446061
 21
800.5848852215172
  0
LINE
  8
_0-1_DEFPOINTS
  6
CONTINUOUS
 62
    7
 10
562.47067467446061
 20
800.5848852215172
 11
559.24374718403305
 21
802.75992907852242
  0
LINE
  8
_0-1_DEFPOINTS
  6
CONTINUOUS
 62
    7
 10
559.24374718403305
 20
802.75992907852242
 11
555.2937226907311
 21
803.55775304581869
  0
LINE
  8
_0-1_DEFPOINTS
  6
CONTINUOUS
 62
    7
 10
531.79473855681931
 20
770.26877575510127
 11
531.82347610337638
 21
770.12967294904206
  0
LINE
  8
_0-1_DEFPOINTS
  6
CONTINUOUS
 62
    7
 10
531.82347610337638
 20
770.12967294904206
 11
531.89935096793954
 21
770.01470941513719
  0
LINE
  8
_0-1_DEFPOINTS
  6
CONTINUOUS
 62
    7
 10
531.89935096793954
 20
770.01470941513719
 11
532.01430782800628
 21
769.93768665043308
  0
LINE
  8
_0-1_DEFPOINTS
  6
CONTINUOUS
 62
    7
 10
532.01430782800628
 20
769.93768665043308
 11
532.1545652080448
 21
769.90894910387567
  0
LINE
  8
_0-1_DEFPOINTS
  6
CONTINUOUS
 62
    7
 10
578.39034112981426
 20
769.90894910387567
 11
578.52944393587347
 21
769.93653875029167
  0
LINE
  8
_0-1_DEFPOINTS
  6
CONTINUOUS
 62
    7
 10
578.52944393587347
 20
769.93653875029167
 11
578.64440746977823
 21
770.01356151499613
  0
LINE
  8
_0-1_DEFPOINTS
  6
CONTINUOUS
 62
    7
 10
578.64440746977823
 20
770.01356151499613
 11
578.72143023448257
 21
770.12852504890077
  0
LINE
  8
_0-1_DEFPOINTS
  6
CONTINUOUS
 62
    7
 10
578.72143023448257
 20
770.12852504890077
 11
578.75016778103964
 21
770.26877575510127
  0
LINE
  8
_0-1_DEFPOINTS
  6
CONTINUOUS
 62
    7
 10
578.75131568118081
 20
816.54709072047376
 11
578.72257813462363
 21
816.6861935265332
  0
LINE
  8
_0-1_DEFPOINTS
  6
CONTINUOUS
 62
    7
 10
578.72257813462363
 20
816.6861935265332
 11
578.64555536991941
 21
816.80115038659994
  0
LINE
  8
_0-1_DEFPOINTS
  6
CONTINUOUS
 62
    7
 10
578.64555536991941
 20
816.80115038659994
 11
578.53059183601465
 21
816.87817315130417
  0
LINE
  8
_0-1_DEFPOINTS
  6
CONTINUOUS
 62
    7
 10
578.53059183601465
 20
816.87817315130417
 11
578.39149570379345
 21
816.90691737169936
  0
LINE
  8
_0-1_DEFPOINTS
  6
CONTINUOUS
 62
    7
 10
532.15571310818598
 20
816.90691737169936
 11
532.01546240198547
 21
816.87932105144546
  0
LINE
  8
_0-1_DEFPOINTS
  6
CONTINUOUS
 62
    7
 10
532.01546240198547
 20
816.87932105144546
 11
531.90049886808072
 21
816.80229828674101
  0
LINE
  8
_0-1_DEFPOINTS
  6
CONTINUOUS
 62
    7
 10
531.90049886808072
 20
816.80229828674101
 11
531.82347610337638
 21
816.68734142667427
  0
LINE
  8
_0-1_DEFPOINTS
  6
CONTINUOUS
 62
    7
 10
531.82347610337638
 20
816.68734142667427
 11
531.79588645696049
 21
816.54709072047376
  0
LINE
  8
_0-1_DEFPOINTS
  6
CONTINUOUS
 62
    7
 10
532.43046834604297
 20
770.29061255313536
 11
532.37758485349332
 21
770.32280714779222
  0
LINE
  8
_0-1_DEFPOINTS
  6
CONTINUOUS
 62
    7
 10
532.37758485349332
 20
770.32280714779222
 11
532.32470136094355
 21
770.35499506861072
  0
LINE
  8
_0-1_DEFPOINTS
  6
CONTINUOUS
 62
    7
 10
532.32470136094355
 20
770.35499506861072
 11
532.27182454223191
 21
770.38718298942956
  0
LINE
  8
_0-1_DEFPOINTS
  6
CONTINUOUS
 62
    7
 10
532.27182454223191
 20
770.38718298942956
 11
532.21894104968214
 21
770.41822301010711
  0
LINE
  8
_0-1_DEFPOINTS
  6
CONTINUOUS
 62
    7
 10
532.21894104968214
 20
770.41822301010711
 11
532.18675312886353
 21
770.47109982881875
  0
LINE
  8
_0-1_DEFPOINTS
  6
CONTINUOUS
 62
    7
 10
532.18675312886353
 20
770.47109982881875
 11
532.1545652080448
 21
770.52398332136841
  0
LINE
  8
_0-1_DEFPOINTS
  6
CONTINUOUS
 62
    7
 10
532.1545652080448
 20
770.52398332136841
 11
532.12237061338806
 21
770.57686681391829
  0
LINE
  8
_0-1_DEFPOINTS
  6
CONTINUOUS
 62
    7
 10
532.12237061338806
 20
770.57686681391829
 11
532.09133726654852
 21
770.62975030646783
  0
LINE
  8
_0-1_DEFPOINTS
  6
CONTINUOUS
 62
    7
 10
532.43046834604297
 20
816.52524724860177
 11
532.37758485349332
 21
816.50455167687051
  0
LINE
  8
_0-1_DEFPOINTS
  6
CONTINUOUS
 62
    7
 10
532.37758485349332
 20
816.50455167687051
 11
532.32470136094355
 21
816.48271487883653
  0
LINE
  8
_0-1_DEFPOINTS
  6
CONTINUOUS
 62
    7
 10
532.32470136094355
 20
816.48271487883653
 11
532.27182454223191
 21
816.46087140696432
  0
LINE
  8
_0-1_DEFPOINTS
  6
CONTINUOUS
 62
    7
 10
532.27182454223191
 20
816.46087140696432
 11
532.21894104968214
 21
816.44017583523328
  0
LINE
  8
_0-1_DEFPOINTS
  6
CONTINUOUS
 62
    7
 10
532.21894104968214
 20
816.44017583523328
 11
532.18675312886353
 21
816.37694789373711
  0
LINE
  8
_0-1_DEFPOINTS
  6
CONTINUOUS
 62
    7
 10
532.18675312886353
 20
816.37694789373711
 11
532.1545652080448
 21
816.31371995224083
  0
LINE
  8
_0-1_DEFPOINTS
  6
CONTINUOUS
 62
    7
 10
532.1545652080448
 20
816.31371995224083
 11
532.12237061338806
 21
816.24934411060337
  0
LINE
  8
_0-1_DEFPOINTS
  6
CONTINUOUS
 62
    7
 10
532.12237061338806
 20
816.24934411060337
 11
532.09133726654852
 21
816.18611616910721
  0
LINE
  8
_0-1_DEFPOINTS
  6
CONTINUOUS
 62
    7
 10
578.41218460168636
 20
770.62975030646783
 11
578.37999668086775
 21
770.57686681391829
  0
LINE
  8
_0-1_DEFPOINTS
  6
CONTINUOUS
 62
    7
 10
578.37999668086775
 20
770.57686681391829
 11
578.34780876004902
 21
770.52398332136841
  0
LINE
  8
_0-1_DEFPOINTS
  6
CONTINUOUS
 62
    7
 10
578.34780876004902
 20
770.52398332136841
 11
578.31562083923029
 21
770.47109982881875
  0
LINE
  8
_0-1_DEFPOINTS
  6
CONTINUOUS
 62
    7
 10
578.31562083923029
 20
770.47109982881875
 11
578.28458081855285
 21
770.41822301010711
  0
LINE
  8
_0-1_DEFPOINTS
  6
CONTINUOUS
 62
    7
 10
578.28458081855285
 20
770.41822301010711
 11
578.23169732600309
 21
770.38718298942956
  0
LINE
  8
_0-1_DEFPOINTS
  6
CONTINUOUS
 62
    7
 10
578.23169732600309
 20
770.38718298942956
 11
578.17881383345343
 21
770.35499506861072
  0
LINE
  8
_0-1_DEFPOINTS
  6
CONTINUOUS
 62
    7
 10
578.17881383345343
 20
770.35499506861072
 11
578.12593701474168
 21
770.32280714779222
  0
LINE
  8
_0-1_DEFPOINTS
  6
CONTINUOUS
 62
    7
 10
578.12593701474168
 20
770.32280714779222
 11
578.07305352219191
 21
770.29061255313536
  0
LINE
  8
_0-1_DEFPOINTS
  6
CONTINUOUS
 62
    7
 10
578.41218460168636
 20
770.62975030646783
 11
578.49725601505486
 21
770.53432777031492
  0
LINE
  8
_0-1_DEFPOINTS
  6
CONTINUOUS
 62
    7
 10
578.49725601505486
 20
770.53432777031492
 11
578.58232742842324
 21
770.43891190799991
  0
LINE
  8
_0-1_DEFPOINTS
  6
CONTINUOUS
 62
    7
 10
578.58232742842324
 20
770.43891190799991
 11
578.66739884179151
 21
770.34349604568524
  0
LINE
  8
_0-1_DEFPOINTS
  6
CONTINUOUS
 62
    7
 10
578.66739884179151
 20
770.34349604568524
 11
578.75131568118081
 21
770.24808018337012
  0
LINE
  8
_0-1_DEFPOINTS
  6
CONTINUOUS
 62
    7
 10
578.41218460168636
 20
816.1872640692485
 11
578.37999668086775
 21
816.25049201074467
  0
LINE
  8
_0-1_DEFPOINTS
  6
CONTINUOUS
 62
    7
 10
578.37999668086775
 20
816.25049201074467
 11
578.34780876004902
 21
816.31371995224083
  0
LINE
  8
_0-1_DEFPOINTS
  6
CONTINUOUS
 62
    7
 10
578.34780876004902
 20
816.31371995224083
 11
578.31562083923029
 21
816.37809579387817
  0
LINE
  8
_0-1_DEFPOINTS
  6
CONTINUOUS
 62
    7
 10
578.31562083923029
 20
816.37809579387817
 11
578.28458081855285
 21
816.44132373537445
  0
LINE
  8
_0-1_DEFPOINTS
  6
CONTINUOUS
 62
    7
 10
578.28458081855285
 20
816.44132373537445
 11
578.23169732600309
 21
816.46316720724656
  0
LINE
  8
_0-1_DEFPOINTS
  6
CONTINUOUS
 62
    7
 10
578.23169732600309
 20
816.46316720724656
 11
578.17881383345343
 21
816.48386277897771
  0
LINE
  8
_0-1_DEFPOINTS
  6
CONTINUOUS
 62
    7
 10
578.17881383345343
 20
816.48386277897771
 11
578.12593701474168
 21
816.50455167687051
  0
LINE
  8
_0-1_DEFPOINTS
  6
CONTINUOUS
 62
    7
 10
578.12593701474168
 20
816.50455167687051
 11
578.07305352219191
 21
816.52639514874295
  0
LINE
  8
_0-1_DEFPOINTS
  6
CONTINUOUS
 62
    7
 10
578.75131568118081
 20
816.52524724860177
 11
578.66739884179151
 21
816.44017583523328
  0
LINE
  8
_0-1_DEFPOINTS
  6
CONTINUOUS
 62
    7
 10
578.66739884179151
 20
816.44017583523328
 11
578.58232742842324
 21
816.35510442186489
  0
LINE
  8
_0-1_DEFPOINTS
  6
CONTINUOUS
 62
    7
 10
578.58232742842324
 20
816.35510442186489
 11
578.49725601505486
 21
816.27003300849651
  0
LINE
  8
_0-1_DEFPOINTS
  6
CONTINUOUS
 62
    7
 10
578.49725601505486
 20
816.27003300849651
 11
578.41218460168636
 21
816.18611616910721
  0
LINE
  8
_0-1_DEFPOINTS
  6
CONTINUOUS
 62
    7
 10
532.09133726654852
 20
770.62975030646783
 11
532.00741375332132
 21
770.53432777031492
  0
LINE
  8
_0-1_DEFPOINTS
  6
CONTINUOUS
 62
    7
 10
532.00741375332132
 20
770.53432777031492
 11
531.92234233995282
 21
770.43891190799991
  0
LINE
  8
_0-1_DEFPOINTS
  6
CONTINUOUS
 62
    7
 10
531.92234233995282
 20
770.43891190799991
 11
531.83727092658444
 21
770.34349604568524
  0
LINE
  8
_0-1_DEFPOINTS
  6
CONTINUOUS
 62
    7
 10
531.83727092658444
 20
770.34349604568524
 11
531.75219951321606
 21
770.24808018337012
  0
LINE
  8
_0-1_DEFPOINTS
  6
CONTINUOUS
 62
    7
 10
531.75219951321606
 20
816.52524724860177
 11
531.83727092658444
 21
816.44017583523328
  0
LINE
  8
_0-1_DEFPOINTS
  6
CONTINUOUS
 62
    7
 10
531.83727092658444
 20
816.44017583523328
 11
531.92234233995282
 21
816.35510442186489
  0
LINE
  8
_0-1_DEFPOINTS
  6
CONTINUOUS
 62
    7
 10
531.92234233995282
 20
816.35510442186489
 11
532.00741375332132
 21
816.27003300849651
  0
LINE
  8
_0-1_DEFPOINTS
  6
CONTINUOUS
 62
    7
 10
532.00741375332132
 20
816.27003300849651
 11
532.09133726654852
 21
816.18611616910721
  0
LINE
  8
_0-1_DEFPOINTS
  6
CONTINUOUS
 62
    7
 10
532.43046834604297
 20
770.29061255313536
 11
532.35688928176228
 21
770.18485224187407
  0
LINE
  8
_0-1_DEFPOINTS
  6
CONTINUOUS
 62
    7
 10
532.35688928176228
 20
770.18485224187407
 11
532.28216899117842
 21
770.07909193061266
  0
LINE
  8
_0-1_DEFPOINTS
  6
CONTINUOUS
 62
    7
 10
532.28216899117842
 20
770.07909193061266
 11
532.20744202675644
 21
769.97332494551313
  0
LINE
  8
_0-1_DEFPOINTS
  6
CONTINUOUS
 62
    7
 10
532.20744202675644
 20
769.97332494551313
 11
532.13386963631376
 21
769.86641006027253
  0
LINE
  8
_0-1_DEFPOINTS
  6
CONTINUOUS
 62
    7
 10
578.07305352219191
 20
770.29061255313536
 11
578.1477804866139
 21
770.18485224187407
  0
LINE
  8
_0-1_DEFPOINTS
  6
CONTINUOUS
 62
    7
 10
578.1477804866139
 20
770.18485224187407
 11
578.22135287705646
 21
770.07909193061266
  0
LINE
  8
_0-1_DEFPOINTS
  6
CONTINUOUS
 62
    7
 10
578.22135287705646
 20
770.07909193061266
 11
578.29492526749937
 21
769.97332494551313
  0
LINE
  8
_0-1_DEFPOINTS
  6
CONTINUOUS
 62
    7
 10
578.29492526749937
 20
769.97332494551313
 11
578.36965223192112
 21
769.86641006027253
  0
LINE
  8
_0-1_DEFPOINTS
  6
CONTINUOUS
 62
    7
 10
532.13386963631376
 20
816.90691737169936
 11
532.20744202675644
 21
816.81149483554645
  0
LINE
  8
_0-1_DEFPOINTS
  6
CONTINUOUS
 62
    7
 10
532.20744202675644
 20
816.81149483554645
 11
532.28216899117842
 21
816.71607897323156
  0
LINE
  8
_0-1_DEFPOINTS
  6
CONTINUOUS
 62
    7
 10
532.28216899117842
 20
816.71607897323156
 11
532.35688928176228
 21
816.62066311091667
  0
LINE
  8
_0-1_DEFPOINTS
  6
CONTINUOUS
 62
    7
 10
532.35688928176228
 20
816.62066311091667
 11
532.43046834604297
 21
816.52524724860177
  0
LINE
  8
_0-1_DEFPOINTS
  6
CONTINUOUS
 62
    7
 10
578.36965223192112
 20
816.90691737169936
 11
578.29492526749937
 21
816.81149483554645
  0
LINE
  8
_0-1_DEFPOINTS
  6
CONTINUOUS
 62
    7
 10
578.29492526749937
 20
816.81149483554645
 11
578.22135287705646
 21
816.71607897323156
  0
LINE
  8
_0-1_DEFPOINTS
  6
CONTINUOUS
 62
    7
 10
578.22135287705646
 20
816.71607897323156
 11
578.1477804866139
 21
816.62066311091667
  0
LINE
  8
_0-1_DEFPOINTS
  6
CONTINUOUS
 62
    7
 10
578.1477804866139
 20
816.62066311091667
 11
578.07305352219191
 21
816.52524724860177
  0
LINE
  8
_0-1_DEFPOINTS
  6
CONTINUOUS
 62
    7
 10
564.72389587014936
 20
802.83695184322653
 11
564.68135682654611
 21
801.68160369882514
  0
LINE
  8
_0-1_DEFPOINTS
  6
CONTINUOUS
 62
    7
 10
564.68135682654611
 20
801.68160369882514
 11
564.63997235692204
 21
800.52741012840283
  0
LINE
  8
_0-1_DEFPOINTS
  6
CONTINUOUS
 62
    7
 10
564.63997235692204
 20
800.52741012840283
 11
564.59743998715692
 21
799.37320988414263
  0
LINE
  8
_0-1_DEFPOINTS
  6
CONTINUOUS
 62
    7
 10
564.59743998715692
 20
799.37320988414263
 11
564.55490094355366
 21
798.2178617397409
  0
LINE
  8
_0-1_DEFPOINTS
  6
CONTINUOUS
 62
    7
 10
576.75906157397935
 20
814.87327212103582
 11
573.75055545459759
 21
811.86476600165406
  0
LINE
  8
_0-1_DEFPOINTS
  6
CONTINUOUS
 62
    7
 10
573.75055545459759
 20
811.86476600165406
 11
570.74204933521582
 21
808.85511198213112
  0
LINE
  8
_0-1_DEFPOINTS
  6
CONTINUOUS
 62
    7
 10
570.74204933521582
 20
808.85511198213112
 11
567.732395315693
 21
805.84660586274947
  0
LINE
  8
_0-1_DEFPOINTS
  6
CONTINUOUS
 62
    7
 10
567.732395315693
 20
805.84660586274947
 11
564.72389587014936
 21
802.83810641720584
  0
LINE
  8
_0-1_DEFPOINTS
  6
CONTINUOUS
 62
    7
 10
564.72389587014936
 20
783.93637558874525
 11
567.732395315693
 21
780.9278694693636
  0
LINE
  8
_0-1_DEFPOINTS
  6
CONTINUOUS
 62
    7
 10
567.732395315693
 20
780.9278694693636
 11
570.74204933521582
 21
777.91936334998195
  0
LINE
  8
_0-1_DEFPOINTS
  6
CONTINUOUS
 62
    7
 10
570.74204933521582
 20
777.91936334998195
 11
573.75055545459759
 21
774.90970933045901
  0
LINE
  8
_0-1_DEFPOINTS
  6
CONTINUOUS
 62
    7
 10
573.75055545459759
 20
774.90970933045901
 11
576.75906157397935
 21
771.90120321107725
  0
LINE
  8
_0-1_DEFPOINTS
  6
CONTINUOUS
 62
    7
 10
564.55375304341248
 20
788.64053710559938
 11
564.59628541317772
 21
787.46450006330497
  0
LINE
  8
_0-1_DEFPOINTS
  6
CONTINUOUS
 62
    7
 10
564.59628541317772
 20
787.46450006330497
 11
564.63766988280167
 21
786.28845634717231
  0
LINE
  8
_0-1_DEFPOINTS
  6
CONTINUOUS
 62
    7
 10
564.63766988280167
 20
786.28845634717231
 11
564.68020892640493
 21
785.11241263103989
  0
LINE
  8
_0-1_DEFPOINTS
  6
CONTINUOUS
 62
    7
 10
564.68020892640493
 20
785.11241263103989
 11
564.72274129617006
 21
783.93637558874525
  0
LINE
  8
_0-1_DEFPOINTS
  6
CONTINUOUS
 62
    7
 10
545.77962599808563
 20
802.83695184322653
 11
547.10396906908284
 21
802.7944194734614
  0
LINE
  8
_0-1_DEFPOINTS
  6
CONTINUOUS
 62
    7
 10
547.10396906908284
 20
802.7944194734614
 11
548.42830546624191
 21
802.75188710369639
  0
LINE
  8
_0-1_DEFPOINTS
  6
CONTINUOUS
 62
    7
 10
548.42830546624191
 20
802.75188710369639
 11
549.75264853723911
 21
802.70934806009291
  0
LINE
  8
_0-1_DEFPOINTS
  6
CONTINUOUS
 62
    7
 10
549.75264853723911
 20
802.70934806009291
 11
551.07698493439807
 21
802.66681569032789
  0
LINE
  8
_0-1_DEFPOINTS
  6
CONTINUOUS
 62
    7
 10
533.78699266402077
 20
814.87327212103582
 11
536.78515433445602
 21
811.86476600165406
  0
LINE
  8
_0-1_DEFPOINTS
  6
CONTINUOUS
 62
    7
 10
536.78515433445602
 20
811.86476600165406
 11
539.78330933105326
 21
808.85511198213112
  0
LINE
  8
_0-1_DEFPOINTS
  6
CONTINUOUS
 62
    7
 10
539.78330933105326
 20
808.85511198213112
 11
542.78147100148851
 21
805.84660586274947
  0
LINE
  8
_0-1_DEFPOINTS
  6
CONTINUOUS
 62
    7
 10
542.78147100148851
 20
805.84660586274947
 11
545.77962599808563
 21
802.83810641720584
  0
LINE
  8
_0-1_DEFPOINTS
  6
CONTINUOUS
 62
    7
 10
559.42653693383681
 20
802.66796359046884
 11
560.75087333099589
 21
802.71049596023431
  0
LINE
  8
_0-1_DEFPOINTS
  6
CONTINUOUS
 62
    7
 10
560.75087333099589
 20
802.71049596023431
 11
562.07521640199298
 21
802.75303500383734
  0
LINE
  8
_0-1_DEFPOINTS
  6
CONTINUOUS
 62
    7
 10
562.07521640199298
 20
802.75303500383734
 11
563.39955279915216
 21
802.79556737360258
  0
LINE
  8
_0-1_DEFPOINTS
  6
CONTINUOUS
 62
    7
 10
563.39955279915216
 20
802.79556737360258
 11
564.72389587014936
 21
802.83810641720584
  0
LINE
  8
_0-1_DEFPOINTS
  6
CONTINUOUS
 62
    7
 10
545.77962599808563
 20
783.93637558874525
 11
545.82216504168889
 21
784.99630787083197
  0
LINE
  8
_0-1_DEFPOINTS
  6
CONTINUOUS
 62
    7
 10
545.82216504168889
 20
784.99630787083197
 11
545.86469741145402
 21
786.05508557893927
  0
LINE
  8
_0-1_DEFPOINTS
  6
CONTINUOUS
 62
    7
 10
545.86469741145402
 20
786.05508557893927
 11
545.90722978121926
 21
787.11386996088459
  0
LINE
  8
_0-1_DEFPOINTS
  6
CONTINUOUS
 62
    7
 10
545.90722978121926
 20
787.11386996088459
 11
545.94976882482251
 21
788.17380224297131
  0
LINE
  8
_0-1_DEFPOINTS
  6
CONTINUOUS
 62
    7
 10
545.94976882482251
 20
797.83619161664319
 11
545.90722978121926
 21
799.08580772321841
  0
LINE
  8
_0-1_DEFPOINTS
  6
CONTINUOUS
 62
    7
 10
545.90722978121926
 20
799.08580772321841
 11
545.86469741145402
 21
800.33657172993514
  0
LINE
  8
_0-1_DEFPOINTS
  6
CONTINUOUS
 62
    7
 10
545.86469741145402
 20
800.33657172993514
 11
545.82216504168889
 21
801.58733573665131
  0
LINE
  8
_0-1_DEFPOINTS
  6
CONTINUOUS
 62
    7
 10
545.82216504168889
 20
801.58733573665131
 11
545.77962599808563
 21
802.83695184322653
  0
LINE
  8
_0-1_DEFPOINTS
  6
CONTINUOUS
 62
    7
 10
564.72389587014936
 20
783.93637558874525
 11
563.39955279915216
 21
783.97890795851049
  0
LINE
  8
_0-1_DEFPOINTS
  6
CONTINUOUS
 62
    7
 10
563.39955279915216
 20
783.97890795851049
 11
562.07521640199298
 21
784.02144032827562
  0
LINE
  8
_0-1_DEFPOINTS
  6
CONTINUOUS
 62
    7
 10
562.07521640199298
 20
784.02144032827562
 11
560.75087333099589
 21
784.06397937187887
  0
LINE
  8
_0-1_DEFPOINTS
  6
CONTINUOUS
 62
    7
 10
560.75087333099589
 20
784.06397937187887
 11
559.42653693383681
 21
784.10651174164423
  0
LINE
  8
_0-1_DEFPOINTS
  6
CONTINUOUS
 62
    7
 10
545.77962599808563
 20
783.93637558874525
 11
542.78147100148851
 21
780.9278694693636
  0
LINE
  8
_0-1_DEFPOINTS
  6
CONTINUOUS
 62
    7
 10
542.78147100148851
 20
780.9278694693636
 11
539.78330933105326
 21
777.91936334998195
  0
LINE
  8
_0-1_DEFPOINTS
  6
CONTINUOUS
 62
    7
 10
539.78330933105326
 20
777.91936334998195
 11
536.78515433445602
 21
774.90970933045901
  0
LINE
  8
_0-1_DEFPOINTS
  6
CONTINUOUS
 62
    7
 10
536.78515433445602
 20
774.90970933045901
 11
533.78699266402077
 21
771.90120321107725
  0
LINE
  8
_0-1_DEFPOINTS
  6
CONTINUOUS
 62
    7
 10
551.07698493439807
 20
784.10536384150294
 11
549.75264853723911
 21
784.06283147173781
  0
LINE
  8
_0-1_DEFPOINTS
  6
CONTINUOUS
 62
    7
 10
549.75264853723911
 20
784.06283147173781
 11
548.42830546624191
 21
784.02144032827562
  0
LINE
  8
_0-1_DEFPOINTS
  6
CONTINUOUS
 62
    7
 10
548.42830546624191
 20
784.02144032827562
 11
547.10396906908284
 21
783.97890795851049
  0
LINE
  8
_0-1_DEFPOINTS
  6
CONTINUOUS
 62
    7
 10
547.10396906908284
 20
783.97890795851049
 11
545.77962599808563
 21
783.93637558874525
  0
LINE
  8
_0-0_0
  6
CONTINUOUS
 62
    7
 10
489.20531367426781
 20
816.90691737169936
 11
489.20531367426781
 21
769.86641006027253
  0
LINE
  8
_0-0_0
  6
CONTINUOUS
 62
    7
 10
489.20531367426781
 20
816.90691737169936
 11
490.07355456260251
 21
811.98287860663845
  0
LINE
  8
_0-0_0
  6
CONTINUOUS
 62
    7
 10
489.20531367426781
 20
816.90691737169936
 11
488.33707278593317
 21
811.98287860663845
  0
LINE
  8
_0-0_0
  6
CONTINUOUS
 62
    7
 10
489.20531367426781
 20
769.86641006027253
 11
488.33707278593317
 21
774.79044882533356
  0
LINE
  8
_0-0_0
  6
CONTINUOUS
 62
    7
 10
489.20531367426781
 20
769.86641006027253
 11
490.07355456260251
 21
774.79044882533356
  0
LINE
  8
_0-0_0
  6
CONTINUOUS
 62
    7
 10
489.20531367426781
 20
816.90691737169936
 11
499.66283001413717
 21
816.90691737169936
  0
LINE
  8
_0-0_0
  6
CONTINUOUS
 62
    7
 10
489.20531367426781
 20
769.86641006027253
 11
499.66283001413717
 21
769.86641006027253
  0
TEXT
  8
_0-0_0
 62
    7
 10
486.70531367426781
 20
785.26166371598606
 40
15
 41
1
 50
90
  1
47
  0
LINE
  8
_0-0_0
  6
CONTINUOUS
 62
    7
 10
461.01601326274522
 20
816.90691737169936
 11
461.01601326274522
 21
635.90691740788668
  0
LINE
  8
_0-0_0
  6
CONTINUOUS
 62
    7
 10
461.01601326274522
 20
816.90691737169936
 11
461.88425415107986
 21
811.98287860663845
  0
LINE
  8
_0-0_0
  6
CONTINUOUS
 62
    7
 10
461.01601326274522
 20
816.90691737169936
 11
460.14777237441052
 21
811.98287860663845
  0
LINE
  8
_0-0_0
  6
CONTINUOUS
 62
    7
 10
461.01601326274522
 20
635.90691740788668
 11
460.14777237441052
 21
640.83095617294771
  0
LINE
  8
_0-0_0
  6
CONTINUOUS
 62
    7
 10
461.01601326274522
 20
635.90691740788668
 11
461.88425415107986
 21
640.83095617294771
  0
LINE
  8
_0-0_0
  6
CONTINUOUS
 62
    7
 10
461.01601326274522
 20
816.90691737169936
 11
469.94847513638348
 21
816.90691737169936
  0
LINE
  8
_0-0_0
  6
CONTINUOUS
 62
    7
 10
461.01601326274522
 20
635.90691740788668
 11
469.94847513638348
 21
635.90691740788668
  0
TEXT
  8
_0-0_0
 62
    7
 10
458.51601326274522
 20
713.90691738979308
 40
15
 41
1
 50
90
  1
181
  0
LINE
  8
_0-1_DEFPOINTS
  6
CONTINUOUS
 62
    7
 10
578.75131568118081
 20
781.78661890403589
 11
578.75131568118081
 21
784.37247228598551
  0
LINE
  8
_0-1_DEFPOINTS
  6
CONTINUOUS
 62
    7
 10
578.41218460168636
 20
781.97745062866579
 11
578.41218460168636
 21
784.47473832997025
  0
ARC
  8
_0-1_DEFPOINTS
  6
CONTINUOUS
 62
    7
 10
556.98972514339971
 20
717.29529104290555
 40
71.811100544690532
 50
98.254643716037577
 51
84.263881411035868
  0
ARC
  8
_0-1_DEFPOINTS
  6
CONTINUOUS
 62
    7
 10
556.98972514339971
 20
717.29529104290555
 40
81.362941233705058
 50
97.516673724329323
 51
85.076922403211256
  0
LINE
  8
_0-1_DEFPOINTS
  6
CONTINUOUS
 62
    7
 10
533.78699266402077
 20
795.27965749984162
 11
533.78699266402077
 21
800.09285651275547
  0
LINE
  8
_0-1_DEFPOINTS
  6
CONTINUOUS
 62
    7
 10
532.43046834604297
 20
800.21931239574792
 11
532.43046834604297
 21
794.86313948387249
  0
LINE
  8
_0-1_DEFPOINTS
  6
CONTINUOUS
 62
    7
 10
532.09133726654852
 20
800.03997969404372
 11
532.09133726654852
 21
794.75494820283097
  0
LINE
  8
_0-1_DEFPOINTS
  6
CONTINUOUS
 62
    7
 10
531.75219951321606
 20
794.64511655185652
 11
531.75219951321606
 21
800.0296285712592
  0
LINE
  8
_0-1_DEFPOINTS
  6
CONTINUOUS
 62
    7
 10
531.75219951321606
 20
780.89682944868605
 11
531.75219951321606
 21
784.52550345894247
  0
LINE
  8
_0-1_DEFPOINTS
  6
CONTINUOUS
 62
    7
 10
532.09133726654852
 20
784.65183818253774
 11
532.09133726654852
 21
781.08651327317477
  0
LINE
  8
_0-1_DEFPOINTS
  6
CONTINUOUS
 62
    7
 10
532.43046834604297
 20
784.77622958855045
 11
532.43046834604297
 21
781.09685772212129
  0
LINE
  8
_0-1_DEFPOINTS
  6
CONTINUOUS
 62
    7
 10
533.78699266402077
 20
781.84869894539088
 11
533.78699266402077
 21
785.25459774132628
  0
LINE
  8
_0-1_DEFPOINTS
  6
CONTINUOUS
 62
    7
 10
576.75906157397935
 20
782.6764083593855
 11
576.75906157397935
 21
786.33156772795132
  0
LINE
  8
_0-1_DEFPOINTS
  6
CONTINUOUS
 62
    7
 10
578.07305352219191
 20
781.98665385130892
 11
578.07305352219191
 21
785.94168516460468
  0
LINE
  8
_0-1_DEFPOINTS
  6
CONTINUOUS
 62
    7
 10
578.07305352219191
 20
778.08835827657754
 11
578.07305352219191
 21
785.94168516460468
  0
LINE
  8
_0-1_DEFPOINTS
  6
CONTINUOUS
 62
    7
 10
578.41218460168636
 20
778.19526648798023
 11
578.41218460168636
 21
785.83660991114516
  0
LINE
  8
_0-1_DEFPOINTS
  6
CONTINUOUS
 62
    7
 10
578.75131568118081
 20
777.94005892171299
 11
578.75131568118081
 21
785.72969276240315
  0
LINE
  8
_0-1_DEFPOINTS
  6
CONTINUOUS
 62
    7
 10
578.41218460168636
 20
795.78736985954401
 11
578.41218460168636
 21
800.80331326640112
  0
LINE
  8
_0-1_DEFPOINTS
  6
CONTINUOUS
 62
    7
 10
578.07305352219191
 20
795.87914097831742
 11
578.07305352219191
 21
800.98380054208428
  0
LINE
  8
_0-1_DEFPOINTS
  6
CONTINUOUS
 62
    7
 10
578.75131568118081
 20
795.69402434558901
 11
578.75131568118081
 21
800.82515673827311
  0
LINE
  8
_0-1_DEFPOINTS
  6
CONTINUOUS
 62
    7
 10
576.75906157397935
 20
796.21994842761569
 11
576.75906157397935
 21
800.82400216429392
  0
LINE
  8
ADD_LINE
  6
DOT
 62
    9
 10
72.960954729070977
 20
106.29765795200051
 11
1391.280690635117
 21
106.29765795200051
  0
LINE
  8
ADD_LINE
  6
DOT
 62
    9
 10
72.960954729070977
 20
87.882020092000559
 11
1391.280690635117
 21
87.882020092000559
  0
LINE
  8
ADD_LINE
  6
DOT
 62
    9
 10
552.26534132157099
 20
136.08845421350054
 11
552.26534132157099
 21
77.315689013500446
  0
LINE
  8
ADD_LINE
  6
DOT
 62
    9
 10
1021.2649782135711
 20
136.08845421350054
 11
1021.2649782135711
 21
77.315689013500446
  0
LINE
  8
ADD_LINE
  6
DOT
 62
    9
 10
992.80637254901967
 20
114.19374848700052
 11
1391.280690635117
 21
114.19374848700052
  0
TEXT
  8
_f-0____-240
 62
    7
 10
552.26534132157099
 20
87.882020092000559
 40
17.308493026288048
 41
1.0000000000000056
 50
0
  1
487T
  0
TEXT
  8
_f-0____-240
 62
    7
 10
552.26534132157099
 20
106.29765795200051
 40
17.308493026288048
 41
1.0000000000000056
 50
0
  1
タオルリング
  0
TEXT
  8
_f-0____-240
 62
    7
 10
1021.2649782135711
 20
114.19374848700052
 40
17.308493026288048
 41
1.000000000000008
 50
0
  1
KOHLER　メモワーズ
  0
ENDSEC
  0
EOF
