  0
SECTION
  2
HEADER
  9
$ACADVER
  1
AC1009
  9
$INSBASE
 10
0
 20
0
 30
0
  9
$EXTMIN
 10
0
 20
0
  9
$EXTMAX
 10
2970
 20
2100
  9
$LIMMIN
 10
0
 20
0
  9
$LIMMAX
 10
2970
 20
2100
  9
$LTSCALE
 40
10
  0
ENDSEC
  0
SECTION
  2
TABLES
  0
TABLE
  2
LTYPE
 70
     9
  0
LTYPE
  2
CONTINUOUS
 70
    64
  3
実線
 72
    65
 73
     0
 40
0.0
  0
LTYPE
  2
DASHED1
 70
    64
  3
--  --  --  --  --  --  --  --  
 72
    65
 73
     2
 40
2.5
 49
1.25
 49
-1.25
  0
LTYPE
  2
DASHED2
 70
    64
  3
----    ----    ----    ----    
 72
    65
 73
     2
 40
5.0
 49
2.5
 49
-2.5
  0
LTYPE
  2
DASHED3
 70
    64
  3
------  ------  ------  ------  
 72
    65
 73
     2
 40
5.0
 49
3.75
 49
-1.25
  0
LTYPE
  2
CENTER1
 70
    64
  3
----- - ----- - ----- - ----- - 
 72
    65
 73
     4
 40
10.0
 49
6.25
 49
-1.25
 49
1.25
 49
-1.25
  0
LTYPE
  2
CENTER2
 70
    64
  3
----------  --  ----------  --  
 72
    65
 73
     4
 40
20.0
 49
12.5
 49
-2.5
 49
2.5
 49
-2.5
  0
LTYPE
  2
PHANTOM1
 70
    64
  3
--- - - --- - - --- - - --- - - 
 72
    65
 73
     6
 40
10.0
 49
3.25
 49
-1.25
 49
1.25
 49
-1.25
 49
1.25
 49
-1.25
  0
LTYPE
  2
PHANTOM2
 70
    64
  3
--------  -  -  --------  -  -  
 72
    65
 73
     6
 40
20.0
 49
10.0
 49
-2.5
 49
1.25
 49
-2.5
 49
1.25
 49
-2.5
  0
LTYPE
  2
DOT
 70
    64
  3
-   -   -   -   -   -   -   -   
 72
    65
 73
     2
 40
2.5
 49
0.625
 49
-1.875
  0
LTYPE
  2
DUMMY
 70
    64
  3
ダミー
 72
    65
 73
     0
 40
0.0
  0
LTYPE
  2
RAND1
 70
    64
  3
ランダム線1
 72
    65
 73
     4
 40
10.0
 49
1.0
 49
-2.0
 49
3.0
 49
-4.0
  0
LTYPE
  2
RAND2
 70
    64
  3
ランダム線2
 72
    65
 73
     4
 40
14.0
 49
2.0
 49
-3.0
 49
4.0
 49
-5.0
  0
LTYPE
  2
RAND3
 70
    64
  3
ランダム線3
 72
    65
 73
     4
 40
18.0
 49
3.0
 49
-4.0
 49
5.0
 49
-6.0
  0
LTYPE
  2
RAND4
 70
    64
  3
ランダム線4
 72
    65
 73
     4
 40
22.0
 49
4.0
 49
-5.0
 49
6.0
 49
-7.0
  0
LTYPE
  2
RAND5
 70
    64
  3
ランダム線5
 72
    65
 73
     4
 40
26.0
 49
5.0
 49
-6.0
 49
7.0
 49
-8.0
  0
LTYPE
  2
LONG1
 70
    64
  3
----------  --  ----------  --  
 72
    65
 73
     4
 40
40.0
 49
32.5
 49
-2.5
 49
2.5
 49
-2.5
  0
LTYPE
  2
LONG2
 70
    64
  3
--------  -  -  --------  -  -  
 72
    65
 73
     6
 40
40.0
 49
30.0
 49
-2.5
 49
1.25
 49
-2.5
 49
1.25
 49
-2.5
  0
LTYPE
  2
LONG3
 70
    64
  3
+++++++++++++++..+++++++++++++++
 72
    65
 73
     2
 40
40.0
 49
37.5
 49
-2.5
  0
LTYPE
  2
LONG4
 70
    64
  3
+++++++++++++++..+++++++++++++++
 72
    65
 73
     2
 40
80.0
 49
75.0
 49
-5.0
  0
LTYPE
  2
LONG5
 70
    64
  3
----------  --  ----------  --  
 72
    65
 73
     4
 40
60.0
 49
37.5
 49
-7.5
 49
7.5
 49
-7.5
  0
LTYPE
  2
dashed
 70
   64
  3
-------   -------------   ------
 72
   65
 73
    2
 40
7.5
 49
6
 49
-1.5
  0
LTYPE
  2
dashed_spaced
 70
   64
  3
----        --------        ----
 72
   65
 73
    2
 40
12
 49
6
 49
-6
  0
LTYPE
  2
long_dashed_dotted
 70
   64
  3
------------- --- --------------
 72
   65
 73
    4
 40
15.25
 49
12
 49
-1.5
 49
0.25
 49
-1.5
  0
LTYPE
  2
long_dashed_double-dotted
 70
   64
  3
----------- --- --- ------------
 72
   65
 73
    6
 40
17
 49
12
 49
-1.5
 49
0.25
 49
-1.5
 49
0.25
 49
-1.5
  0
LTYPE
  2
long_dashed_triplicate-dotted
 70
   64
  3
--------- --- --- --- ----------
 72
   65
 73
    8
 40
18.75
 49
12
 49
-1.5
 49
0.25
 49
-1.5
 49
0.25
 49
-1.5
 49
0.25
 49
-1.5
  0
LTYPE
  2
dotted
 70
   64
  3
   -       -       -       -    
 72
   65
 73
    2
 40
1.75
 49
0.25
 49
-1.5
  0
LTYPE
  2
chain
 70
   64
  3
-------------- -- --------------
 72
   65
 73
    4
 40
18.5
 49
12
 49
-1.5
 49
3.5
 49
-1.5
  0
LTYPE
  2
chain_double_dash
 70
   64
  3
------------ -- -- -------------
 72
   65
 73
    6
 40
23.5
 49
12
 49
-1.5
 49
3.5
 49
-1.5
 49
3.5
 49
-1.5
  0
LTYPE
  2
dashed_dotted
 70
   64
  3
-----------     -     ----------
 72
   65
 73
    4
 40
9.25
 49
6
 49
-1.5
 49
0.25
 49
-1.5
  0
LTYPE
  2
double-dashed_dotted
 70
   64
  3
------   -----------   -   -----
 72
   65
 73
    6
 40
16.75
 49
6
 49
-1.5
 49
6
 49
-1.5
 49
0.25
 49
-1.5
  0
LTYPE
  2
dashed_double-dotted
 70
   64
  3
---------    -    -    ---------
 72
   65
 73
    6
 40
11
 49
6
 49
-1.5
 49
0.25
 49
-1.5
 49
0.25
 49
-1.5
  0
LTYPE
  2
double-dashed_double-dotted
 70
   64
  3
-----   ---------   -   -   ----
 72
   65
 73
    8
 40
18.5
 49
6
 49
-1.5
 49
6
 49
-1.5
 49
0.25
 49
-1.5
 49
0.25
 49
-1.5
  0
LTYPE
  2
dashed_triplicate-dotted
 70
   64
  3
-------    -    -    -    ------
 72
   65
 73
    8
 40
12.75
 49
6
 49
-1.5
 49
0.25
 49
-1.5
 49
0.25
 49
-1.5
 49
0.25
 49
-1.5
  0
LTYPE
  2
double-dashed_triplicate-dotted
 70
   64
  3
-----  ---------  -  -  -  -----
 72
   65
 73
   10
 40
20.25
 49
6
 49
-1.5
 49
6
 49
-1.5
 49
0.25
 49
-1.5
 49
0.25
 49
-1.5
 49
0.25
 49
-1.5
  0
LTYPE
  2
undefined
 70
   64
  3
--------------------------------
 72
   65
 73
    0
 40
0
  0
LTYPE
  2
AI9-LType1
 70
   64
  3
------    ------------    ------
 72
   65
 73
    2
 40
3.8799980000000001
 49
2.8220000000000001
 49
-1.057998
  0
LTYPE
  2
_
 70
   64
  3
                                
 72
   65
 73
    0
 40
0
  0
LTYPE
  2
__19
 70
   64
  3
                                
 72
   65
 73
    0
 40
0
  0
LTYPE
  2
__20
 70
   64
  3
                                
 72
   65
 73
    0
 40
0
  0
LTYPE
  2
__21
 70
   64
  3
                                
 72
   65
 73
    0
 40
0
  0
LTYPE
  2
__22
 70
   64
  3
                                
 72
   65
 73
    0
 40
0
  0
LTYPE
  2
__23
 70
   64
  3
                                
 72
   65
 73
    0
 40
0
  0
LTYPE
  2
__24
 70
   64
  3
                                
 72
   65
 73
    0
 40
0
  0
LTYPE
  2
__25
 70
   64
  3
                                
 72
   65
 73
    0
 40
0
  0
LTYPE
  2
__26
 70
   64
  3
                                
 72
   65
 73
    0
 40
0
  0
LTYPE
  2
__27
 70
   64
  3
                                
 72
   65
 73
    0
 40
0
  0
LTYPE
  2
__28
 70
   64
  3
                                
 72
   65
 73
    0
 40
0
  0
LTYPE
  2
__29
 70
   64
  3
                                
 72
   65
 73
    0
 40
0
  0
LTYPE
  2
__30
 70
   64
  3
                                
 72
   65
 73
    0
 40
0
  0
LTYPE
  2
__31
 70
   64
  3
                                
 72
   65
 73
    0
 40
0
  0
LTYPE
  2
__32
 70
   64
  3
                                
 72
   65
 73
    0
 40
0
  0
ENDTAB
  0
TABLE
  2
STYLE
  5
3
100
AcDbSymbolTable
 70
     1
  0
STYLE
  5
10
100
AcDbSymbolTableRecord
100
AcDbTextStyleTableRecord
  2
STANDARD
 70
     0
 40
0.0
 41
1.0
 50
0.0
 71
     0
 42
0.2
  3
txt
  4
bigfont.shx
  0
STYLE
  5
26
100
AcDbSymbolTableRecord
100
AcDbTextStyleTableRecord
  2
TATEGAKI
 70
    68
 40
0.0
 41
1.0
 50
0.0
 71
     0
 42
1.0
  3
txt
  4
bigfont.shx
  0
ENDTAB
  0
TABLE
  2
LAYER
 70
    4
  0
LAYER
  2
_0-0_0
 70
   64
 62
    7
  6
CONTINUOUS
  0
LAYER
  2
_0-1_レイヤ___1
 70
   64
 62
    7
  6
CONTINUOUS
  0
LAYER
  2
_f-0_
 70
   64
 62
    7
  6
CONTINUOUS
  0
LAYER
  2
ADD_LINE
 70
   64
 62
    7
  6
CONTINUOUS
  0
ENDTAB
  0
ENDSEC
  0
SECTION
  2
BLOCKS
  0
ENDSEC
  0
SECTION
  2
ENTITIES
  0
LINE
  8
_0-1_レイヤ___1
  6
CONTINUOUS
 62
  131
 10
489.69511063313053
 20
1430.0367010143673
 11
487.95862885646113
 21
1420.1886234842455
  0
LINE
  8
_0-1_レイヤ___1
  6
CONTINUOUS
 62
  131
 10
489.69511063313053
 20
1430.0367010143673
 11
491.4315924097998
 21
1420.1886234842455
  0
LINE
  8
_0-1_レイヤ___1
  6
CONTINUOUS
 62
  131
 10
2138.7319513774746
 20
906.51663672201994
 11
2128.7858581945775
 21
905.4797035529507
  0
LINE
  8
_0-1_レイヤ___1
  6
CONTINUOUS
 62
  131
 10
2138.7319513774746
 20
906.51663672201994
 11
2129.7403330389611
 21
902.14047405885231
  0
LINE
  8
_0-1_レイヤ___1
  6
CONTINUOUS
 62
  131
 10
1877.0705388504675
 20
1104.9957324802576
 11
1875.2799408566432
 21
1095.1573505592041
  0
LINE
  8
_0-1_レイヤ___1
  6
CONTINUOUS
 62
  131
 10
1877.0705388504675
 20
1104.9957324802576
 11
1878.7528519236082
 21
1095.1382570060837
  0
LINE
  8
_0-0_0
  6
CONTINUOUS
 62
    7
 10
1043.4383631586873
 20
1595.139791850745
 11
1043.4383631586873
 21
1589.0707135519983
  0
LINE
  8
_0-0_0
  6
CONTINUOUS
 62
    7
 10
1043.4383631586873
 20
1589.0707135519983
 11
1043.4383631586873
 21
1582.9997712360775
  0
LINE
  8
_0-0_0
  6
CONTINUOUS
 62
    7
 10
1043.4383631586873
 20
1582.9997712360775
 11
1043.4383631586873
 21
1576.9288396948227
  0
LINE
  8
_0-0_0
  6
CONTINUOUS
 62
    7
 10
1043.4383631586873
 20
1576.9288396948227
 11
1043.4383631586873
 21
1570.8597613960762
  0
LINE
  8
_0-0_0
  6
CONTINUOUS
 62
    7
 10
537.12122881281289
 20
1570.8597613960762
 11
538.45939919980287
 21
1570.0876703980493
  0
LINE
  8
_0-0_0
  6
CONTINUOUS
 62
    7
 10
538.45939919980287
 20
1570.0876703980493
 11
539.79570556961903
 21
1569.3155794000224
  0
LINE
  8
_0-0_0
  6
CONTINUOUS
 62
    7
 10
539.79570556961903
 20
1569.3155794000224
 11
541.13202271410103
 21
1568.5434884019955
  0
LINE
  8
_0-0_0
  6
CONTINUOUS
 62
    7
 10
541.13202271410103
 20
1568.5434884019955
 11
542.4683290839173
 21
1567.7695441614603
  0
LINE
  8
_0-0_0
  6
CONTINUOUS
 62
    7
 10
537.12122881281289
 20
1595.139791850745
 11
537.12122881281289
 21
1589.0707135519983
  0
LINE
  8
_0-0_0
  6
CONTINUOUS
 62
    7
 10
537.12122881281289
 20
1589.0707135519983
 11
537.12122881281289
 21
1582.9997712360775
  0
LINE
  8
_0-0_0
  6
CONTINUOUS
 62
    7
 10
537.12122881281289
 20
1582.9997712360775
 11
537.12122881281289
 21
1576.9288396948227
  0
LINE
  8
_0-0_0
  6
CONTINUOUS
 62
    7
 10
537.12122881281289
 20
1576.9288396948227
 11
537.12122881281289
 21
1570.8597613960762
  0
LINE
  8
_0-0_0
  6
CONTINUOUS
 62
    7
 10
537.11937557030433
 20
1595.139791850745
 11
663.69958847169391
 21
1595.139791850745
  0
LINE
  8
_0-0_0
  6
CONTINUOUS
 62
    7
 10
663.69958847169391
 20
1595.139791850745
 11
790.27979059841732
 21
1595.139791850745
  0
LINE
  8
_0-0_0
  6
CONTINUOUS
 62
    7
 10
790.27979059841732
 20
1595.139791850745
 11
916.85815025729823
 21
1595.139791850745
  0
LINE
  8
_0-0_0
  6
CONTINUOUS
 62
    7
 10
916.85815025729823
 20
1595.139791850745
 11
1043.4383631586873
 21
1595.139791850745
  0
LINE
  8
_0-0_0
  6
CONTINUOUS
 62
    7
 10
542.4701823264254
 20
1567.7695441614603
 11
666.41860769669404
 21
1567.7695441614603
  0
LINE
  8
_0-0_0
  6
CONTINUOUS
 62
    7
 10
666.41860769669404
 20
1567.7695441614603
 11
790.36888630947089
 21
1567.7695441614603
  0
LINE
  8
_0-0_0
  6
CONTINUOUS
 62
    7
 10
790.36888630947089
 20
1567.7695441614603
 11
914.31916492224764
 21
1567.7695441614603
  0
LINE
  8
_0-0_0
  6
CONTINUOUS
 62
    7
 10
914.31916492224764
 20
1567.7695441614603
 11
1038.2694327603585
 21
1567.7695441614603
  0
LINE
  8
_0-0_0
  6
CONTINUOUS
 62
    7
 10
537.12122881281289
 20
1576.3794718124313
 11
663.70144171420202
 21
1576.3794718124313
  0
LINE
  8
_0-0_0
  6
CONTINUOUS
 62
    7
 10
663.70144171420202
 20
1576.3794718124313
 11
790.27979059841732
 21
1576.3794718124313
  0
LINE
  8
_0-0_0
  6
CONTINUOUS
 62
    7
 10
790.27979059841732
 20
1576.3794718124313
 11
916.85815025729823
 21
1576.3794718124313
  0
LINE
  8
_0-0_0
  6
CONTINUOUS
 62
    7
 10
916.85815025729823
 20
1576.3794718124313
 11
1043.4383631586873
 21
1576.3794718124313
  0
LINE
  8
_0-0_0
  6
CONTINUOUS
 62
    7
 10
1038.2063363177501
 20
1567.7695441614603
 11
1039.5148009512786
 21
1568.5434884019955
  0
LINE
  8
_0-0_0
  6
CONTINUOUS
 62
    7
 10
1039.5148009512786
 20
1568.5434884019955
 11
1040.8232763594729
 21
1569.3155794000224
  0
LINE
  8
_0-0_0
  6
CONTINUOUS
 62
    7
 10
1040.8232763594729
 20
1569.3155794000224
 11
1042.129887750493
 21
1570.0876703980493
  0
LINE
  8
_0-0_0
  6
CONTINUOUS
 62
    7
 10
1042.129887750493
 20
1570.0876703980493
 11
1043.4383631586873
 21
1570.8597613960762
  0
LINE
  8
_0-0_0
  6
CONTINUOUS
 62
    7
 10
1010.7562806792848
 20
1686.6566780442026
 11
1010.7562806792848
 21
1663.7667841894172
  0
LINE
  8
_0-0_0
  6
CONTINUOUS
 62
    7
 10
1010.7562806792848
 20
1663.7667841894172
 11
1010.7562806792848
 21
1640.8750370921225
  0
LINE
  8
_0-0_0
  6
CONTINUOUS
 62
    7
 10
1010.7562806792848
 20
1640.8750370921225
 11
1010.7562806792848
 21
1617.9851432373368
  0
LINE
  8
_0-0_0
  6
CONTINUOUS
 62
    7
 10
1010.7562806792848
 20
1617.9851432373368
 11
1010.7562806792848
 21
1595.0952493825514
  0
LINE
  8
_0-0_0
  6
CONTINUOUS
 62
    7
 10
569.64741265353666
 20
1686.6566780442026
 11
569.64741265353666
 21
1663.7667841894172
  0
LINE
  8
_0-0_0
  6
CONTINUOUS
 62
    7
 10
569.64741265353666
 20
1663.7667841894172
 11
569.64741265353666
 21
1640.8750370921225
  0
LINE
  8
_0-0_0
  6
CONTINUOUS
 62
    7
 10
569.64741265353666
 20
1640.8750370921225
 11
569.64741265353666
 21
1617.9851432373368
  0
LINE
  8
_0-0_0
  6
CONTINUOUS
 62
    7
 10
569.64741265353666
 20
1617.9851432373368
 11
569.64741265353666
 21
1595.0952493825514
  0
LINE
  8
_0-0_0
  6
CONTINUOUS
 62
    7
 10
1013.4233336913921
 20
1683.5404830904736
 11
1013.4233336913921
 21
1661.4393809656208
  0
LINE
  8
_0-0_0
  6
CONTINUOUS
 62
    7
 10
1013.4233336913921
 20
1661.4393809656208
 11
1013.4233336913921
 21
1639.3401320832766
  0
LINE
  8
_0-0_0
  6
CONTINUOUS
 62
    7
 10
1013.4233336913921
 20
1639.3401320832766
 11
1013.4233336913921
 21
1617.2408939755976
  0
LINE
  8
_0-0_0
  6
CONTINUOUS
 62
    7
 10
1013.4233336913921
 20
1617.2408939755976
 11
1013.4233336913921
 21
1595.139791850745
  0
LINE
  8
_0-0_0
  6
CONTINUOUS
 62
    7
 10
566.98593014361995
 20
1683.5404830904736
 11
566.98593014361995
 21
1661.4393809656208
  0
LINE
  8
_0-0_0
  6
CONTINUOUS
 62
    7
 10
566.98593014361995
 20
1661.4393809656208
 11
566.98593014361995
 21
1639.3401320832766
  0
LINE
  8
_0-0_0
  6
CONTINUOUS
 62
    7
 10
566.98593014361995
 20
1639.3401320832766
 11
566.98593014361995
 21
1617.2408939755976
  0
LINE
  8
_0-0_0
  6
CONTINUOUS
 62
    7
 10
566.98593014361995
 20
1617.2408939755976
 11
566.98593014361995
 21
1595.139791850745
  0
LINE
  8
_0-0_0
  6
CONTINUOUS
 62
    7
 10
560.64030927383612
 20
1689.7970190238689
 11
560.64030927383612
 21
1689.0119337789522
  0
LINE
  8
_0-0_0
  6
CONTINUOUS
 62
    7
 10
560.64030927383612
 20
1689.0119337789522
 11
560.64030927383612
 21
1688.226848534036
  0
LINE
  8
_0-0_0
  6
CONTINUOUS
 62
    7
 10
560.64030927383612
 20
1688.226848534036
 11
560.64030927383612
 21
1687.4417632891195
  0
LINE
  8
_0-0_0
  6
CONTINUOUS
 62
    7
 10
560.64030927383612
 20
1687.4417632891195
 11
560.64030927383612
 21
1686.6566780442026
  0
LINE
  8
_0-0_0
  6
CONTINUOUS
 62
    7
 10
557.52410354544111
 20
1683.5404830904736
 11
559.88862549273222
 21
1683.5404830904736
  0
LINE
  8
_0-0_0
  6
CONTINUOUS
 62
    7
 10
559.88862549273222
 20
1683.5404830904736
 11
562.25501145719761
 21
1683.5404830904736
  0
LINE
  8
_0-0_0
  6
CONTINUOUS
 62
    7
 10
562.25501145719761
 20
1683.5404830904736
 11
564.62139742166278
 21
1683.5404830904736
  0
LINE
  8
_0-0_0
  6
CONTINUOUS
 62
    7
 10
564.62139742166278
 20
1683.5404830904736
 11
566.98593014361995
 21
1683.5404830904736
  0
LINE
  8
_0-0_0
  6
CONTINUOUS
 62
    7
 10
557.52410354544111
 20
1683.5404830904736
 11
557.52410354544111
 21
1685.10507230345
  0
LINE
  8
_0-0_0
  6
CONTINUOUS
 62
    7
 10
557.52410354544111
 20
1685.10507230345
 11
557.52410354544111
 21
1686.6696722910922
  0
LINE
  8
_0-0_0
  6
CONTINUOUS
 62
    7
 10
557.52410354544111
 20
1686.6696722910922
 11
557.52410354544111
 21
1688.2324190362265
  0
LINE
  8
_0-0_0
  6
CONTINUOUS
 62
    7
 10
557.52410354544111
 20
1688.2324190362265
 11
557.52410354544111
 21
1689.7970190238689
  0
LINE
  8
_0-0_0
  6
CONTINUOUS
 62
    7
 10
557.52410354544111
 20
1689.7970190238689
 11
558.30361828816706
 21
1689.7970190238689
  0
LINE
  8
_0-0_0
  6
CONTINUOUS
 62
    7
 10
558.30361828816706
 20
1689.7970190238689
 11
559.08313303089267
 21
1689.7970190238689
  0
LINE
  8
_0-0_0
  6
CONTINUOUS
 62
    7
 10
559.08313303089267
 20
1689.7970190238689
 11
559.86264777361862
 21
1689.7970190238689
  0
LINE
  8
_0-0_0
  6
CONTINUOUS
 62
    7
 10
559.86264777361862
 20
1689.7970190238689
 11
560.64030927383612
 21
1689.7970190238689
  0
LINE
  8
_0-0_0
  6
CONTINUOUS
 62
    7
 10
560.64030927383612
 20
1686.6566780442026
 11
675.4238578338859
 21
1686.6566780442026
  0
LINE
  8
_0-0_0
  6
CONTINUOUS
 62
    7
 10
675.4238578338859
 20
1686.6566780442026
 11
790.20555315142713
 21
1686.6566780442026
  0
LINE
  8
_0-0_0
  6
CONTINUOUS
 62
    7
 10
790.20555315142713
 20
1686.6566780442026
 11
904.98725924363441
 21
1686.6566780442026
  0
LINE
  8
_0-0_0
  6
CONTINUOUS
 62
    7
 10
904.98725924363441
 20
1686.6566780442026
 11
1019.7689545611756
 21
1686.6566780442026
  0
LINE
  8
_0-0_0
  6
CONTINUOUS
 62
    7
 10
1019.7671013186673
 20
1689.7970190238689
 11
1019.7671013186673
 21
1689.0119337789522
  0
LINE
  8
_0-0_0
  6
CONTINUOUS
 62
    7
 10
1019.7671013186673
 20
1689.0119337789522
 11
1019.7671013186673
 21
1688.226848534036
  0
LINE
  8
_0-0_0
  6
CONTINUOUS
 62
    7
 10
1019.7671013186673
 20
1688.226848534036
 11
1019.7671013186673
 21
1687.4417632891195
  0
LINE
  8
_0-0_0
  6
CONTINUOUS
 62
    7
 10
1019.7671013186673
 20
1687.4417632891195
 11
1019.7671013186673
 21
1686.6566780442026
  0
LINE
  8
_0-0_0
  6
CONTINUOUS
 62
    7
 10
1022.8832962723966
 20
1683.5404830904736
 11
1020.5187743251055
 21
1683.5404830904736
  0
LINE
  8
_0-0_0
  6
CONTINUOUS
 62
    7
 10
1020.5187743251055
 20
1683.5404830904736
 11
1018.1542416031484
 21
1683.5404830904736
  0
LINE
  8
_0-0_0
  6
CONTINUOUS
 62
    7
 10
1018.1542416031484
 20
1683.5404830904736
 11
1015.7897196558574
 21
1683.5404830904736
  0
LINE
  8
_0-0_0
  6
CONTINUOUS
 62
    7
 10
1015.7897196558574
 20
1683.5404830904736
 11
1013.4233336913921
 21
1683.5404830904736
  0
LINE
  8
_0-0_0
  6
CONTINUOUS
 62
    7
 10
1022.8832962723966
 20
1683.5404830904736
 11
1022.8832962723966
 21
1685.10507230345
  0
LINE
  8
_0-0_0
  6
CONTINUOUS
 62
    7
 10
1022.8832962723966
 20
1685.10507230345
 11
1022.8832962723966
 21
1686.6696722910922
  0
LINE
  8
_0-0_0
  6
CONTINUOUS
 62
    7
 10
1022.8832962723966
 20
1686.6696722910922
 11
1022.8832962723966
 21
1688.2324190362265
  0
LINE
  8
_0-0_0
  6
CONTINUOUS
 62
    7
 10
1022.8832962723966
 20
1688.2324190362265
 11
1022.8832962723966
 21
1689.7970190238689
  0
LINE
  8
_0-0_0
  6
CONTINUOUS
 62
    7
 10
1022.8832962723966
 20
1689.7970190238689
 11
1022.1037815296709
 21
1689.7970190238689
  0
LINE
  8
_0-0_0
  6
CONTINUOUS
 62
    7
 10
1022.1037815296709
 20
1689.7970190238689
 11
1021.324266786945
 21
1689.7970190238689
  0
LINE
  8
_0-0_0
  6
CONTINUOUS
 62
    7
 10
1021.324266786945
 20
1689.7970190238689
 11
1020.5447520442191
 21
1689.7970190238689
  0
LINE
  8
_0-0_0
  6
CONTINUOUS
 62
    7
 10
1020.5447520442191
 20
1689.7970190238689
 11
1019.7671013186673
 21
1689.7970190238689
  0
LINE
  8
_0-0_0
  6
CONTINUOUS
 62
    7
 10
1732.5127380951058
 20
1104.9957324802576
 11
1910.9176925282079
 21
1104.9957324802576
  0
LINE
  8
_0-0_0
  6
CONTINUOUS
 62
    7
 10
1910.9176925282079
 20
1104.9957324802576
 11
2089.3226469613101
 21
1104.9957324802576
  0
LINE
  8
_0-0_0
  6
CONTINUOUS
 62
    7
 10
2089.3226469613101
 20
1104.9957324802576
 11
2267.7276013944124
 21
1104.9957324802576
  0
LINE
  8
_0-0_0
  6
CONTINUOUS
 62
    7
 10
2267.7276013944124
 20
596.34377116588803
 11
2267.7276013944124
 21
723.50861743065502
  0
LINE
  8
_0-0_0
  6
CONTINUOUS
 62
    7
 10
2267.7276013944124
 20
723.50861743065502
 11
2267.7276013944124
 21
850.66974643573997
  0
LINE
  8
_0-0_0
  6
CONTINUOUS
 62
    7
 10
2267.7276013944124
 20
850.66974643573997
 11
2267.7276013944124
 21
977.83088621549041
  0
LINE
  8
_0-0_0
  6
CONTINUOUS
 62
    7
 10
2267.7276013944124
 20
977.83088621549041
 11
2267.7276013944124
 21
1104.9957324802576
  0
LINE
  8
_0-0_0
  6
CONTINUOUS
 62
    7
 10
1577.2742200878265
 20
1118.6261048609117
 11
1577.2742200878265
 21
1115.2185090720818
  0
LINE
  8
_0-0_0
  6
CONTINUOUS
 62
    7
 10
1577.2742200878265
 20
1115.2185090720818
 11
1577.2742200878265
 21
1111.8109240579174
  0
LINE
  8
_0-0_0
  6
CONTINUOUS
 62
    7
 10
1577.2742200878265
 20
1111.8109240579174
 11
1577.2742200878265
 21
1108.4033282690875
  0
LINE
  8
_0-0_0
  6
CONTINUOUS
 62
    7
 10
1577.2742200878265
 20
1108.4033282690875
 11
1577.2742200878265
 21
1104.9957324802576
  0
LINE
  8
_0-0_0
  6
CONTINUOUS
 62
    7
 10
2075.2839578475455
 20
1101.7217748706753
 11
2113.5878299265814
 21
983.8739760204578
  0
LINE
  8
_0-0_0
  6
CONTINUOUS
 62
    7
 10
2113.5878299265814
 20
983.8739760204578
 11
2151.8917020056169
 21
866.02990520458832
  0
LINE
  8
_0-0_0
  6
CONTINUOUS
 62
    7
 10
2151.8917020056169
 20
866.02990520458832
 11
2190.1992913443346
 21
748.18582361405322
  0
LINE
  8
_0-0_0
  6
CONTINUOUS
 62
    7
 10
2190.1992913443346
 20
748.18582361405322
 11
2228.5031634233701
 21
630.33803553850146
  0
LINE
  8
_0-0_0
  6
CONTINUOUS
 62
    7
 10
2228.5031634233701
 20
630.33803553850146
 11
2229.3383508640054
 21
627.7767681946882
  0
LINE
  8
_0-0_0
  6
CONTINUOUS
 62
    7
 10
2229.3383508640054
 20
627.7767681946882
 11
2230.1698318196245
 21
625.21551162554078
  0
LINE
  8
_0-0_0
  6
CONTINUOUS
 62
    7
 10
2230.1698318196245
 20
625.21551162554078
 11
2231.0013235499091
 21
622.65424428172776
  0
LINE
  8
_0-0_0
  6
CONTINUOUS
 62
    7
 10
2231.0013235499091
 20
622.65424428172776
 11
2231.8328045055277
 21
620.08927045289795
  0
LINE
  8
_0-0_0
  6
CONTINUOUS
 62
    7
 10
2231.8328045055277
 20
620.08927045289795
 11
2234.1639249890063
 21
620.84651396152685
  0
LINE
  8
_0-0_0
  6
CONTINUOUS
 62
    7
 10
2234.1639249890063
 20
620.84651396152685
 11
2236.4950454724849
 21
621.60375747015576
  0
LINE
  8
_0-0_0
  6
CONTINUOUS
 62
    7
 10
2236.4950454724849
 20
621.60375747015576
 11
2238.8261659559635
 21
622.36100097878443
  0
LINE
  8
_0-0_0
  6
CONTINUOUS
 62
    7
 10
2238.8261659559635
 20
622.36100097878443
 11
2241.157286439442
 21
623.11824448741345
  0
LINE
  8
_0-0_0
  6
CONTINUOUS
 62
    7
 10
2084.6641232540351
 20
1104.5799920024483
 11
2082.3218617661755
 21
1103.8672909620134
  0
LINE
  8
_0-0_0
  6
CONTINUOUS
 62
    7
 10
2082.3218617661755
 20
1103.8672909620134
 11
2079.9758937932988
 21
1103.1508834365618
  0
LINE
  8
_0-0_0
  6
CONTINUOUS
 62
    7
 10
2079.9758937932988
 20
1103.1508834365618
 11
2077.6299258204226
 21
1102.4344651364445
  0
LINE
  8
_0-0_0
  6
CONTINUOUS
 62
    7
 10
2077.6299258204226
 20
1102.4344651364445
 11
2075.2839578475455
 21
1101.7217748706753
  0
LINE
  8
_0-0_0
  6
CONTINUOUS
 62
    7
 10
2084.6641232540351
 20
1104.5799920024483
 11
2122.9679953330706
 21
986.73220392689655
  0
LINE
  8
_0-0_0
  6
CONTINUOUS
 62
    7
 10
2122.9679953330706
 20
986.73220392689655
 11
2161.2755738971232
 21
868.88812233636122
  0
LINE
  8
_0-0_0
  6
CONTINUOUS
 62
    7
 10
2161.2755738971232
 20
868.88812233636122
 11
2199.5794459761587
 21
751.04404074582601
  0
LINE
  8
_0-0_0
  6
CONTINUOUS
 62
    7
 10
2199.5794459761587
 20
751.04404074582601
 11
2237.8833180551942
 21
633.19625267027425
  0
LINE
  8
_0-0_0
  6
CONTINUOUS
 62
    7
 10
2237.8833180551942
 20
633.19625267027425
 11
2238.7147990108128
 21
630.63499610112694
  0
LINE
  8
_0-0_0
  6
CONTINUOUS
 62
    7
 10
2238.7147990108128
 20
630.63499610112694
 11
2239.5462907410974
 21
628.0737287573138
  0
LINE
  8
_0-0_0
  6
CONTINUOUS
 62
    7
 10
2239.5462907410974
 20
628.0737287573138
 11
2240.3777716967165
 21
625.51247218816638
  0
LINE
  8
_0-0_0
  6
CONTINUOUS
 62
    7
 10
2240.3777716967165
 20
625.51247218816638
 11
2241.2129591373518
 21
622.95120484435313
  0
LINE
  8
_0-0_0
  6
CONTINUOUS
 62
    7
 10
1577.2742200878265
 20
1118.6261048609117
 11
1577.2742200878265
 21
1115.2185090720818
  0
LINE
  8
_0-0_0
  6
CONTINUOUS
 62
    7
 10
1577.2742200878265
 20
1115.2185090720818
 11
1577.2742200878265
 21
1111.8109240579174
  0
LINE
  8
_0-0_0
  6
CONTINUOUS
 62
    7
 10
1577.2742200878265
 20
1111.8109240579174
 11
1577.2742200878265
 21
1108.4033282690875
  0
LINE
  8
_0-0_0
  6
CONTINUOUS
 62
    7
 10
1577.2742200878265
 20
1108.4033282690875
 11
1577.2742200878265
 21
1104.9957324802576
  0
LINE
  8
_0-0_0
  6
CONTINUOUS
 62
    7
 10
1577.2742200878265
 20
1118.6780710738049
 11
1703.5964551672589
 21
1118.6780710738049
  0
LINE
  8
_0-0_0
  6
CONTINUOUS
 62
    7
 10
1703.5964551672589
 20
1118.6780710738049
 11
1829.9149729870092
 21
1118.6780710738049
  0
LINE
  8
_0-0_0
  6
CONTINUOUS
 62
    7
 10
1829.9149729870092
 20
1118.6780710738049
 11
1956.2334908067598
 21
1118.6780710738049
  0
LINE
  8
_0-0_0
  6
CONTINUOUS
 62
    7
 10
1956.2334908067598
 20
1118.6780710738049
 11
2082.5520086265101
 21
1118.6780710738049
  0
LINE
  8
_0-0_0
  6
CONTINUOUS
 62
    7
 10
2082.5520086265101
 20
1118.6780710738049
 11
2082.5520086265101
 21
1115.2556277955769
  0
LINE
  8
_0-0_0
  6
CONTINUOUS
 62
    7
 10
2082.5520086265101
 20
1115.2556277955769
 11
2082.5520086265101
 21
1111.836901777031
  0
LINE
  8
_0-0_0
  6
CONTINUOUS
 62
    7
 10
2082.5520086265101
 20
1111.836901777031
 11
2082.5520086265101
 21
1108.4181757584856
  0
LINE
  8
_0-0_0
  6
CONTINUOUS
 62
    7
 10
2082.5520086265101
 20
1108.4181757584856
 11
2082.5520086265101
 21
1104.9957324802576
  0
LINE
  8
_0-0_0
  6
CONTINUOUS
 62
    7
 10
1599.6834237796859
 20
1213.3018860084503
 11
1599.6834237796859
 21
1212.5168115381994
  0
LINE
  8
_0-0_0
  6
CONTINUOUS
 62
    7
 10
1599.6834237796859
 20
1212.5168115381994
 11
1599.6834237796859
 21
1211.7317262932829
  0
LINE
  8
_0-0_0
  6
CONTINUOUS
 62
    7
 10
1599.6834237796859
 20
1211.7317262932829
 11
1599.6834237796859
 21
1210.9466410483662
  0
LINE
  8
_0-0_0
  6
CONTINUOUS
 62
    7
 10
1599.6834237796859
 20
1210.9466410483662
 11
1599.6834237796859
 21
1210.1615558034496
  0
LINE
  8
_0-0_0
  6
CONTINUOUS
 62
    7
 10
1599.6834237796859
 20
1210.1615558034496
 11
1714.4651190972272
 21
1210.1615558034496
  0
LINE
  8
_0-0_0
  6
CONTINUOUS
 62
    7
 10
1714.4651190972272
 20
1210.1615558034496
 11
1829.2505316744507
 21
1210.1615558034496
  0
LINE
  8
_0-0_0
  6
CONTINUOUS
 62
    7
 10
1829.2505316744507
 20
1210.1615558034496
 11
1944.0359334770087
 21
1210.1615558034496
  0
LINE
  8
_0-0_0
  6
CONTINUOUS
 62
    7
 10
1944.0359334770087
 20
1210.1615558034496
 11
2058.8176395692158
 21
1210.1615558034496
  0
LINE
  8
_0-0_0
  6
CONTINUOUS
 62
    7
 10
1596.5690712937987
 20
1207.0490673347367
 11
1598.9336040157559
 21
1207.0490673347367
  0
LINE
  8
_0-0_0
  6
CONTINUOUS
 62
    7
 10
1598.9336040157559
 20
1207.0490673347367
 11
1601.2981259630469
 21
1207.0490673347367
  0
LINE
  8
_0-0_0
  6
CONTINUOUS
 62
    7
 10
1601.2981259630469
 20
1207.0490673347367
 11
1603.6626586850043
 21
1207.0490673347367
  0
LINE
  8
_0-0_0
  6
CONTINUOUS
 62
    7
 10
1603.6626586850043
 20
1207.0490673347367
 11
1606.0271806322953
 21
1207.0490673347367
  0
LINE
  8
_0-0_0
  6
CONTINUOUS
 62
    7
 10
1596.5690712937987
 20
1207.0490673347367
 11
1596.5690712937987
 21
1208.6118140798712
  0
LINE
  8
_0-0_0
  6
CONTINUOUS
 62
    7
 10
1596.5690712937987
 20
1208.6118140798712
 11
1596.5690712937987
 21
1210.1745500503396
  0
LINE
  8
_0-0_0
  6
CONTINUOUS
 62
    7
 10
1596.5690712937987
 20
1210.1745500503396
 11
1596.5690712937987
 21
1211.7372967954736
  0
LINE
  8
_0-0_0
  6
CONTINUOUS
 62
    7
 10
1596.5690712937987
 20
1211.7372967954736
 11
1596.5690712937987
 21
1213.3018860084503
  0
LINE
  8
_0-0_0
  6
CONTINUOUS
 62
    7
 10
1596.5690712937987
 20
1213.3018860084503
 11
1597.3448795515085
 21
1213.3018860084503
  0
LINE
  8
_0-0_0
  6
CONTINUOUS
 62
    7
 10
1597.3448795515085
 20
1213.3018860084503
 11
1598.1243942942342
 21
1213.3018860084503
  0
LINE
  8
_0-0_0
  6
CONTINUOUS
 62
    7
 10
1598.1243942942342
 20
1213.3018860084503
 11
1598.9039090369602
 21
1213.3018860084503
  0
LINE
  8
_0-0_0
  6
CONTINUOUS
 62
    7
 10
1598.9039090369602
 20
1213.3018860084503
 11
1599.6834237796859
 21
1213.3018860084503
  0
LINE
  8
_0-0_0
  6
CONTINUOUS
 62
    7
 10
1606.0271806322953
 20
1207.0490673347367
 11
1606.0271806322953
 21
1184.9553889545834
  0
LINE
  8
_0-0_0
  6
CONTINUOUS
 62
    7
 10
1606.0271806322953
 20
1184.9553889545834
 11
1606.0271806322953
 21
1162.8635745916038
  0
LINE
  8
_0-0_0
  6
CONTINUOUS
 62
    7
 10
1606.0271806322953
 20
1162.8635745916038
 11
1606.0271806322953
 21
1140.7717494539584
  0
LINE
  8
_0-0_0
  6
CONTINUOUS
 62
    7
 10
1606.0271806322953
 20
1140.7717494539584
 11
1606.0271806322953
 21
1118.6780710738049
  0
LINE
  8
_0-0_0
  6
CONTINUOUS
 62
    7
 10
1608.6886739168779
 20
1210.1615558034496
 11
1608.6886739168779
 21
1187.2790856933627
  0
LINE
  8
_0-0_0
  6
CONTINUOUS
 62
    7
 10
1608.6886739168779
 20
1187.2790856933627
 11
1608.6886739168779
 21
1164.3984688257844
  0
LINE
  8
_0-0_0
  6
CONTINUOUS
 62
    7
 10
1608.6886739168779
 20
1164.3984688257844
 11
1608.6886739168779
 21
1141.5141454731893
  0
LINE
  8
_0-0_0
  6
CONTINUOUS
 62
    7
 10
1608.6886739168779
 20
1141.5141454731893
 11
1608.6886739168779
 21
1118.6335286056105
  0
LINE
  8
_0-0_0
  6
CONTINUOUS
 62
    7
 10
2058.8176395692158
 20
1213.3018860084503
 11
2058.8176395692158
 21
1212.5168115381994
  0
LINE
  8
_0-0_0
  6
CONTINUOUS
 62
    7
 10
2058.8176395692158
 20
1212.5168115381994
 11
2058.8176395692158
 21
1211.7317262932829
  0
LINE
  8
_0-0_0
  6
CONTINUOUS
 62
    7
 10
2058.8176395692158
 20
1211.7317262932829
 11
2058.8176395692158
 21
1210.9466410483662
  0
LINE
  8
_0-0_0
  6
CONTINUOUS
 62
    7
 10
2058.8176395692158
 20
1210.9466410483662
 11
2058.8176395692158
 21
1210.1615558034496
  0
LINE
  8
_0-0_0
  6
CONTINUOUS
 62
    7
 10
2061.9319812804365
 20
1207.0490673347367
 11
2059.5674593331455
 21
1207.0490673347367
  0
LINE
  8
_0-0_0
  6
CONTINUOUS
 62
    7
 10
2059.5674593331455
 20
1207.0490673347367
 11
2057.1992093515064
 21
1207.0490673347367
  0
LINE
  8
_0-0_0
  6
CONTINUOUS
 62
    7
 10
2057.1992093515064
 20
1207.0490673347367
 11
2054.8346874042154
 21
1207.0490673347367
  0
LINE
  8
_0-0_0
  6
CONTINUOUS
 62
    7
 10
2054.8346874042154
 20
1207.0490673347367
 11
2052.470154682258
 21
1207.0490673347367
  0
LINE
  8
_0-0_0
  6
CONTINUOUS
 62
    7
 10
2061.9319812804365
 20
1207.0490673347367
 11
2061.9319812804365
 21
1208.6118140798712
  0
LINE
  8
_0-0_0
  6
CONTINUOUS
 62
    7
 10
2061.9319812804365
 20
1208.6118140798712
 11
2061.9319812804365
 21
1210.1745500503396
  0
LINE
  8
_0-0_0
  6
CONTINUOUS
 62
    7
 10
2061.9319812804365
 20
1210.1745500503396
 11
2061.9319812804365
 21
1211.7372967954736
  0
LINE
  8
_0-0_0
  6
CONTINUOUS
 62
    7
 10
2061.9319812804365
 20
1211.7372967954736
 11
2061.9319812804365
 21
1213.3018860084503
  0
LINE
  8
_0-0_0
  6
CONTINUOUS
 62
    7
 10
2061.9319812804365
 20
1213.3018860084503
 11
2061.1561837973932
 21
1213.3018860084503
  0
LINE
  8
_0-0_0
  6
CONTINUOUS
 62
    7
 10
2061.1561837973932
 20
1213.3018860084503
 11
2060.3766690546677
 21
1213.3018860084503
  0
LINE
  8
_0-0_0
  6
CONTINUOUS
 62
    7
 10
2060.3766690546677
 20
1213.3018860084503
 11
2059.5971543119417
 21
1213.3018860084503
  0
LINE
  8
_0-0_0
  6
CONTINUOUS
 62
    7
 10
2059.5971543119417
 20
1213.3018860084503
 11
2058.8176395692158
 21
1213.3018860084503
  0
LINE
  8
_0-0_0
  6
CONTINUOUS
 62
    7
 10
2052.470154682258
 20
1207.0490673347367
 11
2052.470154682258
 21
1184.9553889545834
  0
LINE
  8
_0-0_0
  6
CONTINUOUS
 62
    7
 10
2052.470154682258
 20
1184.9553889545834
 11
2052.470154682258
 21
1162.8635745916038
  0
LINE
  8
_0-0_0
  6
CONTINUOUS
 62
    7
 10
2052.470154682258
 20
1162.8635745916038
 11
2052.470154682258
 21
1140.7717494539584
  0
LINE
  8
_0-0_0
  6
CONTINUOUS
 62
    7
 10
2052.470154682258
 20
1140.7717494539584
 11
2052.470154682258
 21
1118.6780710738049
  0
LINE
  8
_0-0_0
  6
CONTINUOUS
 62
    7
 10
2049.804954912659
 20
1210.1615558034496
 11
2049.804954912659
 21
1187.2790856933627
  0
LINE
  8
_0-0_0
  6
CONTINUOUS
 62
    7
 10
2049.804954912659
 20
1187.2790856933627
 11
2049.804954912659
 21
1164.3984688257844
  0
LINE
  8
_0-0_0
  6
CONTINUOUS
 62
    7
 10
2049.804954912659
 20
1164.3984688257844
 11
2049.804954912659
 21
1141.5141454731893
  0
LINE
  8
_0-0_0
  6
CONTINUOUS
 62
    7
 10
2049.804954912659
 20
1141.5141454731893
 11
2049.804954912659
 21
1118.6335286056105
  0
LINE
  8
_0-0_0
  6
CONTINUOUS
 62
    7
 10
1204.7608069541116
 20
643.03670102276726
 11
1204.7608069541116
 21
839.78623501637389
  0
LINE
  8
_0-0_0
  6
CONTINUOUS
 62
    7
 10
1204.7608069541116
 20
839.78623501637389
 11
1204.7608069541116
 21
1036.5357690099802
  0
LINE
  8
_0-0_0
  6
CONTINUOUS
 62
    7
 10
1204.7608069541116
 20
1036.5357690099802
 11
1204.7608069541116
 21
1233.2853030035867
  0
LINE
  8
_0-0_0
  6
CONTINUOUS
 62
    7
 10
1204.7608069541116
 20
1233.2853030035867
 11
1204.7608069541116
 21
1430.0367010143673
  0
LINE
  8
_0-0_0
  6
CONTINUOUS
 62
    7
 10
1204.7608069541116
 20
1430.0367010143673
 11
1203.4783200396967
 21
1430.0367010143673
  0
LINE
  8
_0-0_0
  6
CONTINUOUS
 62
    7
 10
1203.4783200396967
 20
1430.0367010143673
 11
1202.1976863677899
 21
1430.0367010143673
  0
LINE
  8
_0-0_0
  6
CONTINUOUS
 62
    7
 10
1202.1976863677899
 20
1430.0367010143673
 11
1200.9170526958835
 21
1430.0367010143673
  0
LINE
  8
_0-0_0
  6
CONTINUOUS
 62
    7
 10
1200.9170526958835
 20
1430.0367010143673
 11
1199.6364297986427
 21
1430.0367010143673
  0
LINE
  8
_0-0_0
  6
CONTINUOUS
 62
    7
 10
1199.6364297986427
 20
1430.0367010143673
 11
1199.6364297986427
 21
1233.2853030035867
  0
LINE
  8
_0-0_0
  6
CONTINUOUS
 62
    7
 10
1199.6364297986427
 20
1233.2853030035867
 11
1199.6364297986427
 21
1036.5357690099802
  0
LINE
  8
_0-0_0
  6
CONTINUOUS
 62
    7
 10
1199.6364297986427
 20
1036.5357690099802
 11
1199.6364297986427
 21
839.78623501637389
  0
LINE
  8
_0-0_0
  6
CONTINUOUS
 62
    7
 10
1199.6364297986427
 20
839.78623501637389
 11
1199.6364297986427
 21
643.03670102276726
  0
LINE
  8
_0-0_0
  6
CONTINUOUS
 62
    7
 10
1204.7608069541116
 20
1366.7400974402278
 11
1210.4271390219383
 21
1366.7400974402278
  0
LINE
  8
_0-0_0
  6
CONTINUOUS
 62
    7
 10
1210.4271390219383
 20
1366.7400974402278
 11
1216.0916070725912
 21
1366.7400974402278
  0
LINE
  8
_0-0_0
  6
CONTINUOUS
 62
    7
 10
1216.0916070725912
 20
1366.7400974402278
 11
1221.7579391404181
 21
1366.7400974402278
  0
LINE
  8
_0-0_0
  6
CONTINUOUS
 62
    7
 10
1221.7579391404181
 20
1366.7400974402278
 11
1227.424271208245
 21
1366.7400974402278
  0
LINE
  8
_0-0_0
  6
CONTINUOUS
 62
    7
 10
1212.9104516590794
 20
706.32216359252538
 11
1212.9104516590794
 21
871.42711844607743
  0
LINE
  8
_0-0_0
  6
CONTINUOUS
 62
    7
 10
1212.9104516590794
 20
871.42711844607743
 11
1212.9104516590794
 21
1036.5320625249637
  0
LINE
  8
_0-0_0
  6
CONTINUOUS
 62
    7
 10
1212.9104516590794
 20
1036.5320625249637
 11
1212.9104516590794
 21
1201.6370066038501
  0
LINE
  8
_0-0_0
  6
CONTINUOUS
 62
    7
 10
1212.9104516590794
 20
1201.6370066038501
 11
1212.9104516590794
 21
1366.7400974402278
  0
LINE
  8
_0-0_0
  6
CONTINUOUS
 62
    7
 10
1219.7943101815383
 20
1366.7400974402278
 11
1219.7943101815383
 21
1201.6370066038501
  0
LINE
  8
_0-0_0
  6
CONTINUOUS
 62
    7
 10
1219.7943101815383
 20
1201.6370066038501
 11
1219.7943101815383
 21
1036.5320625249637
  0
LINE
  8
_0-0_0
  6
CONTINUOUS
 62
    7
 10
1219.7943101815383
 20
1036.5320625249637
 11
1219.7943101815383
 21
871.42711844607743
  0
LINE
  8
_0-0_0
  6
CONTINUOUS
 62
    7
 10
1219.7943101815383
 20
871.42711844607743
 11
1219.7943101815383
 21
706.32216359252538
  0
LINE
  8
_0-0_0
  6
CONTINUOUS
 62
    7
 10
1199.6364297986427
 20
856.31566051197808
 11
1199.6364297986427
 21
802.9968499545962
  0
LINE
  8
_0-0_0
  6
CONTINUOUS
 62
    7
 10
1199.6364297986427
 20
802.9968499545962
 11
1199.6364297986427
 21
749.67803939721398
  0
LINE
  8
_0-0_0
  6
CONTINUOUS
 62
    7
 10
1199.6364297986427
 20
749.67803939721398
 11
1199.6364297986427
 21
696.35922883983199
  0
LINE
  8
_0-0_0
  6
CONTINUOUS
 62
    7
 10
1199.6364297986427
 20
696.35922883983199
 11
1199.6364297986427
 21
643.03670102276726
  0
LINE
  8
_0-0_0
  6
CONTINUOUS
 62
    7
 10
1199.6364297986427
 20
643.03670102276726
 11
1200.9170526958835
 21
643.03670102276726
  0
LINE
  8
_0-0_0
  6
CONTINUOUS
 62
    7
 10
1200.9170526958835
 20
643.03670102276726
 11
1202.1976863677899
 21
643.03670102276726
  0
LINE
  8
_0-0_0
  6
CONTINUOUS
 62
    7
 10
1202.1976863677899
 20
643.03670102276726
 11
1203.4783200396967
 21
643.03670102276726
  0
LINE
  8
_0-0_0
  6
CONTINUOUS
 62
    7
 10
1203.4783200396967
 20
643.03670102276726
 11
1204.7608069541116
 21
643.03670102276726
  0
LINE
  8
_0-0_0
  6
CONTINUOUS
 62
    7
 10
1204.7608069541116
 20
643.03670102276726
 11
1204.7608069541116
 21
696.35922883983199
  0
LINE
  8
_0-0_0
  6
CONTINUOUS
 62
    7
 10
1204.7608069541116
 20
696.35922883983199
 11
1204.7608069541116
 21
749.67803939721398
  0
LINE
  8
_0-0_0
  6
CONTINUOUS
 62
    7
 10
1204.7608069541116
 20
749.67803939721398
 11
1204.7608069541116
 21
802.9968499545962
  0
LINE
  8
_0-0_0
  6
CONTINUOUS
 62
    7
 10
1204.7608069541116
 20
802.9968499545962
 11
1204.7608069541116
 21
856.31566051197808
  0
LINE
  8
_0-0_0
  6
CONTINUOUS
 62
    7
 10
1227.424271208245
 20
856.31566051197808
 11
1227.424271208245
 21
817.62574293392936
  0
LINE
  8
_0-0_0
  6
CONTINUOUS
 62
    7
 10
1227.424271208245
 20
817.62574293392936
 11
1227.424271208245
 21
778.9358253558803
  0
LINE
  8
_0-0_0
  6
CONTINUOUS
 62
    7
 10
1227.424271208245
 20
778.9358253558803
 11
1227.424271208245
 21
740.24590777783123
  0
LINE
  8
_0-0_0
  6
CONTINUOUS
 62
    7
 10
1227.424271208245
 20
740.24590777783123
 11
1227.424271208245
 21
701.5559901997824
  0
LINE
  8
_0-0_0
  6
CONTINUOUS
 62
    7
 10
1204.7608069541116
 20
706.32216359252538
 11
1210.4271390219383
 21
706.32216359252538
  0
LINE
  8
_0-0_0
  6
CONTINUOUS
 62
    7
 10
1210.4271390219383
 20
706.32216359252538
 11
1216.0916070725912
 21
706.32216359252538
  0
LINE
  8
_0-0_0
  6
CONTINUOUS
 62
    7
 10
1216.0916070725912
 20
706.32216359252538
 11
1221.7579391404181
 21
706.32216359252538
  0
LINE
  8
_0-0_0
  6
CONTINUOUS
 62
    7
 10
1221.7579391404181
 20
706.32216359252538
 11
1227.424271208245
 21
706.32216359252538
  0
LINE
  8
_0-0_0
  6
CONTINUOUS
 62
    7
 10
1227.424271208245
 20
701.5559901997824
 11
1253.1204159819108
 21
701.5559901997824
  0
LINE
  8
_0-0_0
  6
CONTINUOUS
 62
    7
 10
1253.1204159819108
 20
701.5559901997824
 11
1278.8165715302423
 21
701.5559901997824
  0
LINE
  8
_0-0_0
  6
CONTINUOUS
 62
    7
 10
1278.8165715302423
 20
701.5559901997824
 11
1304.5127163039081
 21
701.5559901997824
  0
LINE
  8
_0-0_0
  6
CONTINUOUS
 62
    7
 10
1304.5127163039081
 20
701.5559901997824
 11
1330.2088610775741
 21
701.5559901997824
  0
LINE
  8
_0-0_0
  6
CONTINUOUS
 62
    7
 10
1330.2088610775741
 20
1374.2197303304463
 11
1330.2088610775741
 21
1206.0542532210748
  0
LINE
  8
_0-0_0
  6
CONTINUOUS
 62
    7
 10
1330.2088610775741
 20
1206.0542532210748
 11
1330.2088610775741
 21
1037.8869336438602
  0
LINE
  8
_0-0_0
  6
CONTINUOUS
 62
    7
 10
1330.2088610775741
 20
1037.8869336438602
 11
1330.2088610775741
 21
869.72332055166248
  0
LINE
  8
_0-0_0
  6
CONTINUOUS
 62
    7
 10
1330.2088610775741
 20
869.72332055166248
 11
1330.2088610775741
 21
701.5559901997824
  0
LINE
  8
_0-0_0
  6
CONTINUOUS
 62
    7
 10
1323.4233752533758
 20
1374.225300832637
 11
1323.4233752533758
 21
1206.0579704807569
  0
LINE
  8
_0-0_0
  6
CONTINUOUS
 62
    7
 10
1323.4233752533758
 20
1206.0579704807569
 11
1323.4233752533758
 21
1037.8906401288768
  0
LINE
  8
_0-0_0
  6
CONTINUOUS
 62
    7
 10
1323.4233752533758
 20
1037.8906401288768
 11
1323.4233752533758
 21
869.72332055166248
  0
LINE
  8
_0-0_0
  6
CONTINUOUS
 62
    7
 10
1323.4233752533758
 20
869.72332055166248
 11
1323.4233752533758
 21
701.5559901997824
  0
LINE
  8
_0-0_0
  6
CONTINUOUS
 62
    7
 10
1330.2088610775741
 20
1374.2215835729544
 11
1304.5127163039081
 21
1374.2215835729544
  0
LINE
  8
_0-0_0
  6
CONTINUOUS
 62
    7
 10
1304.5127163039081
 20
1374.2215835729544
 11
1278.8165715302423
 21
1374.2215835729544
  0
LINE
  8
_0-0_0
  6
CONTINUOUS
 62
    7
 10
1278.8165715302423
 20
1374.2215835729544
 11
1253.1204159819108
 21
1374.2215835729544
  0
LINE
  8
_0-0_0
  6
CONTINUOUS
 62
    7
 10
1253.1204159819108
 20
1374.2215835729544
 11
1227.424271208245
 21
1374.2215835729544
  0
LINE
  8
_0-0_0
  6
CONTINUOUS
 62
    7
 10
1227.4261244507534
 20
1374.2215835729544
 11
1227.4261244507534
 21
1244.7460348162977
  0
LINE
  8
_0-0_0
  6
CONTINUOUS
 62
    7
 10
1227.4261244507534
 20
1244.7460348162977
 11
1227.4261244507534
 21
1115.270475284975
  0
LINE
  8
_0-0_0
  6
CONTINUOUS
 62
    7
 10
1227.4261244507534
 20
1115.270475284975
 11
1227.4261244507534
 21
985.79307328580944
  0
LINE
  8
_0-0_0
  6
CONTINUOUS
 62
    7
 10
1227.4261244507534
 20
985.79307328580944
 11
1227.4261244507534
 21
856.31566051197808
  0
LINE
  8
_0-0_0
  6
CONTINUOUS
 62
    7
 10
1212.9104516590794
 20
1278.8572258615866
 11
1210.145025948711
 21
1279.5420851657339
  0
LINE
  8
_0-0_0
  6
CONTINUOUS
 62
    7
 10
1210.145025948711
 20
1279.5420851657339
 11
1207.5596341282924
 21
1280.7614756375401
  0
LINE
  8
_0-0_0
  6
CONTINUOUS
 62
    7
 10
1207.5596341282924
 20
1280.7614756375401
 11
1205.6145591438271
 21
1282.5654886980583
  0
LINE
  8
_0-0_0
  6
CONTINUOUS
 62
    7
 10
1205.6145591438271
 20
1282.5654886980583
 11
1204.7663774563023
 21
1285.0079761266879
  0
LINE
  8
_0-0_0
  6
CONTINUOUS
 62
    7
 10
1204.7700839413187
 20
1302.4876624930948
 11
1205.3547173046968
 21
1306.2219138233463
  0
LINE
  8
_0-0_0
  6
CONTINUOUS
 62
    7
 10
1205.3547173046968
 20
1306.2219138233463
 11
1206.5778142615197
 21
1308.9613510399354
  0
LINE
  8
_0-0_0
  6
CONTINUOUS
 62
    7
 10
1206.5778142615197
 20
1308.9613510399354
 11
1208.0477588105837
 21
1310.7505166110561
  0
LINE
  8
_0-0_0
  6
CONTINUOUS
 62
    7
 10
1208.0477588105837
 20
1310.7505166110561
 11
1209.3803586953832
 21
1311.6339745542334
  0
LINE
  8
_0-0_0
  6
CONTINUOUS
 62
    7
 10
1209.3803586953832
 20
1311.6339745542334
 11
1210.2415346297978
 21
1311.9439185890833
  0
LINE
  8
_0-0_0
  6
CONTINUOUS
 62
    7
 10
1210.2415346297978
 20
1311.9439185890833
 11
1211.1194220707846
 21
1312.2018964110396
  0
LINE
  8
_0-0_0
  6
CONTINUOUS
 62
    7
 10
1211.1194220707846
 20
1312.2018964110396
 11
1212.0102929839954
 21
1312.4097720372768
  0
LINE
  8
_0-0_0
  6
CONTINUOUS
 62
    7
 10
1212.0102929839954
 20
1312.4097720372768
 11
1212.9104516590794
 21
1312.5749584378289
  0
LINE
  8
_0-0_0
  6
CONTINUOUS
 62
    7
 10
1214.7515834430928
 20
1327.4451285072123
 11
1214.7515834430928
 21
1311.5801443241664
  0
LINE
  8
_0-0_0
  6
CONTINUOUS
 62
    7
 10
1214.7515834430928
 20
1311.5801443241664
 11
1214.7515834430928
 21
1295.7151601411206
  0
LINE
  8
_0-0_0
  6
CONTINUOUS
 62
    7
 10
1214.7515834430928
 20
1295.7151601411206
 11
1214.7515834430928
 21
1279.8501867327407
  0
LINE
  8
_0-0_0
  6
CONTINUOUS
 62
    7
 10
1214.7515834430928
 20
1279.8501867327407
 11
1214.7515834430928
 21
1263.985202549695
  0
LINE
  8
_0-0_0
  6
CONTINUOUS
 62
    7
 10
1216.8006016280096
 20
1325.9102234983657
 11
1216.8006016280096
 21
1322.8404242553388
  0
LINE
  8
_0-0_0
  6
CONTINUOUS
 62
    7
 10
1216.8006016280096
 20
1322.8404242553388
 11
1216.8006016280096
 21
1319.7687609951377
  0
LINE
  8
_0-0_0
  6
CONTINUOUS
 62
    7
 10
1216.8006016280096
 20
1319.7687609951377
 11
1216.8006016280096
 21
1316.697108509602
  0
LINE
  8
_0-0_0
  6
CONTINUOUS
 62
    7
 10
1216.8006016280096
 20
1316.697108509602
 11
1216.8006016280096
 21
1313.6272984919092
  0
LINE
  8
_0-0_0
  6
CONTINUOUS
 62
    7
 10
1214.7515834430928
 20
1313.1150493330128
 11
1215.1357756995978
 21
1313.1150493330128
  0
LINE
  8
_0-0_0
  6
CONTINUOUS
 62
    7
 10
1215.1357756995978
 20
1313.1150493330128
 11
1215.5199679561028
 21
1313.1150493330128
  0
LINE
  8
_0-0_0
  6
CONTINUOUS
 62
    7
 10
1215.5199679561028
 20
1313.1150493330128
 11
1215.902296195434
 21
1313.1150493330128
  0
LINE
  8
_0-0_0
  6
CONTINUOUS
 62
    7
 10
1215.902296195434
 20
1313.1150493330128
 11
1216.286488451939
 21
1313.1150493330128
  0
LINE
  8
_0-0_0
  6
CONTINUOUS
 62
    7
 10
1214.7515834430928
 20
1326.422483431928
 11
1215.1357756995978
 21
1326.422483431928
  0
LINE
  8
_0-0_0
  6
CONTINUOUS
 62
    7
 10
1215.1357756995978
 20
1326.422483431928
 11
1215.5199679561028
 21
1326.422483431928
  0
LINE
  8
_0-0_0
  6
CONTINUOUS
 62
    7
 10
1215.5199679561028
 20
1326.422483431928
 11
1215.902296195434
 21
1326.422483431928
  0
LINE
  8
_0-0_0
  6
CONTINUOUS
 62
    7
 10
1215.902296195434
 20
1326.422483431928
 11
1216.286488451939
 21
1326.422483431928
  0
LINE
  8
_0-0_0
  6
CONTINUOUS
 62
    7
 10
1212.9104516590794
 20
1327.4358515200049
 11
1213.3707346050826
 21
1327.4377047625135
  0
LINE
  8
_0-0_0
  6
CONTINUOUS
 62
    7
 10
1213.3707346050826
 20
1327.4377047625135
 11
1213.831017551086
 21
1327.4395580050216
  0
LINE
  8
_0-0_0
  6
CONTINUOUS
 62
    7
 10
1213.831017551086
 20
1327.4395580050216
 11
1214.2913004970894
 21
1327.4432752647042
  0
LINE
  8
_0-0_0
  6
CONTINUOUS
 62
    7
 10
1214.2913004970894
 20
1327.4432752647042
 11
1214.7515834430928
 21
1327.4451285072123
  0
LINE
  8
_0-0_0
  6
CONTINUOUS
 62
    7
 10
1216.8006016280096
 20
1325.9102234983657
 11
1216.7597656448322
 21
1326.1088221373961
  0
LINE
  8
_0-0_0
  6
CONTINUOUS
 62
    7
 10
1216.7597656448322
 20
1326.1088221373961
 11
1216.6502627168557
 21
1326.2702912782656
  0
LINE
  8
_0-0_0
  6
CONTINUOUS
 62
    7
 10
1216.6502627168557
 20
1326.2702912782656
 11
1216.4869403334778
 21
1326.3797942062422
  0
LINE
  8
_0-0_0
  6
CONTINUOUS
 62
    7
 10
1216.4869403334778
 20
1326.3797942062422
 11
1216.2883416944474
 21
1326.4206194147539
  0
LINE
  8
_0-0_0
  6
CONTINUOUS
 62
    7
 10
1216.2883416944474
 20
1313.1150493330128
 11
1216.4887935759859
 21
1313.1558745415246
  0
LINE
  8
_0-0_0
  6
CONTINUOUS
 62
    7
 10
1216.4887935759859
 20
1313.1558745415246
 11
1216.6502627168557
 21
1313.2653774695009
  0
LINE
  8
_0-0_0
  6
CONTINUOUS
 62
    7
 10
1216.6502627168557
 20
1313.2653774695009
 11
1216.7597656448322
 21
1313.4287106275447
  0
LINE
  8
_0-0_0
  6
CONTINUOUS
 62
    7
 10
1216.7597656448322
 20
1313.4287106275447
 11
1216.8006016280096
 21
1313.6272984919092
  0
LINE
  8
_0-0_0
  6
CONTINUOUS
 62
    7
 10
1219.8704008710367
 20
1304.2731215791991
 11
1218.5897671991299
 21
1303.7534486756035
  0
LINE
  8
_0-0_0
  6
CONTINUOUS
 62
    7
 10
1218.5897671991299
 20
1303.7534486756035
 11
1217.3109975443977
 21
1303.2319117548341
  0
LINE
  8
_0-0_0
  6
CONTINUOUS
 62
    7
 10
1217.3109975443977
 20
1303.2319117548341
 11
1216.0322171149994
 21
1302.7103856087308
  0
LINE
  8
_0-0_0
  6
CONTINUOUS
 62
    7
 10
1216.0322171149994
 20
1302.7103856087308
 11
1214.7515834430928
 21
1302.1907019304695
  0
LINE
  8
_0-0_0
  6
CONTINUOUS
 62
    7
 10
1218.3354958621903
 20
1311.8362689036146
 11
1218.3354958621903
 21
1309.7891147358719
  0
LINE
  8
_0-0_0
  6
CONTINUOUS
 62
    7
 10
1218.3354958621903
 20
1309.7891147358719
 11
1218.3354958621903
 21
1307.7438245853032
  0
LINE
  8
_0-0_0
  6
CONTINUOUS
 62
    7
 10
1218.3354958621903
 20
1307.7438245853032
 11
1218.3354958621903
 21
1305.6966704175604
  0
LINE
  8
_0-0_0
  6
CONTINUOUS
 62
    7
 10
1218.3354958621903
 20
1305.6966704175604
 11
1218.3354958621903
 21
1303.6495054751517
  0
LINE
  8
_0-0_0
  6
CONTINUOUS
 62
    7
 10
1218.3354958621903
 20
1311.8362689036146
 11
1218.7196881186956
 21
1311.8362689036146
  0
LINE
  8
_0-0_0
  6
CONTINUOUS
 62
    7
 10
1218.7196881186956
 20
1311.8362689036146
 11
1219.1020271326922
 21
1311.8362689036146
  0
LINE
  8
_0-0_0
  6
CONTINUOUS
 62
    7
 10
1219.1020271326922
 20
1311.8362689036146
 11
1219.4843553720234
 21
1311.8362689036146
  0
LINE
  8
_0-0_0
  6
CONTINUOUS
 62
    7
 10
1219.4843553720234
 20
1311.8362689036146
 11
1219.8685476285282
 21
1311.8362689036146
  0
LINE
  8
_0-0_0
  6
CONTINUOUS
 62
    7
 10
1217.5095854087622
 20
1322.1704124405894
 11
1217.5114386512705
 21
1322.172265683098
  0
LINE
  8
_0-0_0
  6
CONTINUOUS
 62
    7
 10
1217.5114386512705
 20
1322.172265683098
 11
1217.5132918937786
 21
1322.172265683098
  0
LINE
  8
_0-0_0
  6
CONTINUOUS
 62
    7
 10
1217.5132918937786
 20
1322.172265683098
 11
1217.5151559109529
 21
1322.172265683098
  0
LINE
  8
_0-0_0
  6
CONTINUOUS
 62
    7
 10
1217.5151559109529
 20
1322.172265683098
 11
1217.517009153461
 21
1322.1741189256063
  0
LINE
  8
_0-0_0
  6
CONTINUOUS
 62
    7
 10
1217.5949638601335
 20
1320.8025470748032
 11
1217.5949638601335
 21
1320.8155413216928
  0
LINE
  8
_0-0_0
  6
CONTINUOUS
 62
    7
 10
1217.5949638601335
 20
1320.8155413216928
 11
1217.5968171026416
 21
1320.8285355685825
  0
LINE
  8
_0-0_0
  6
CONTINUOUS
 62
    7
 10
1217.5968171026416
 20
1320.8285355685825
 11
1217.5986703451499
 21
1320.8396657982983
  0
LINE
  8
_0-0_0
  6
CONTINUOUS
 62
    7
 10
1217.5986703451499
 20
1320.8396657982983
 11
1217.5986703451499
 21
1320.8526600451878
  0
LINE
  8
_0-0_0
  6
CONTINUOUS
 62
    7
 10
1217.517009153461
 20
1318.3879121571272
 11
1217.4780371874579
 21
1318.1076523264082
  0
LINE
  8
_0-0_0
  6
CONTINUOUS
 62
    7
 10
1217.4780371874579
 20
1318.1076523264082
 11
1217.4390544467888
 21
1317.8255392531808
  0
LINE
  8
_0-0_0
  6
CONTINUOUS
 62
    7
 10
1217.4390544467888
 20
1317.8255392531808
 11
1217.3982292382771
 21
1317.543436954619
  0
LINE
  8
_0-0_0
  6
CONTINUOUS
 62
    7
 10
1217.3982292382771
 20
1317.543436954619
 11
1217.3592464976082
 21
1317.2613238813913
  0
LINE
  8
_0-0_0
  6
CONTINUOUS
 62
    7
 10
1217.517009153461
 20
1320.2810209286995
 11
1217.517009153461
 21
1320.4072245885825
  0
LINE
  8
_0-0_0
  6
CONTINUOUS
 62
    7
 10
1217.517009153461
 20
1320.4072245885825
 11
1217.5151559109529
 21
1320.5352814909736
  0
LINE
  8
_0-0_0
  6
CONTINUOUS
 62
    7
 10
1217.5151559109529
 20
1320.5352814909736
 11
1217.5132918937786
 21
1320.6633491680304
  0
LINE
  8
_0-0_0
  6
CONTINUOUS
 62
    7
 10
1217.5132918937786
 20
1320.6633491680304
 11
1217.5095854087622
 21
1320.7914168450875
  0
LINE
  8
_0-0_0
  6
CONTINUOUS
 62
    7
 10
1217.5986703451499
 20
1320.8526600451878
 11
1217.5968171026416
 21
1320.9027730155726
  0
LINE
  8
_0-0_0
  6
CONTINUOUS
 62
    7
 10
1217.5968171026416
 20
1320.9027730155726
 11
1217.5949638601335
 21
1320.9510219687832
  0
LINE
  8
_0-0_0
  6
CONTINUOUS
 62
    7
 10
1217.5949638601335
 20
1320.9510219687832
 11
1217.5949638601335
 21
1320.9992816966596
  0
LINE
  8
_0-0_0
  6
CONTINUOUS
 62
    7
 10
1217.5949638601335
 20
1320.9992816966596
 11
1217.5930998429592
 21
1321.0475414245361
  0
LINE
  8
_0-0_0
  6
CONTINUOUS
 62
    7
 10
1217.5095854087622
 20
1319.7687609951377
 11
1217.5132918937786
 21
1319.8949754296859
  0
LINE
  8
_0-0_0
  6
CONTINUOUS
 62
    7
 10
1217.5132918937786
 20
1319.8949754296859
 11
1217.5151559109529
 21
1320.0230323320773
  0
LINE
  8
_0-0_0
  6
CONTINUOUS
 62
    7
 10
1217.5151559109529
 20
1320.0230323320773
 11
1217.517009153461
 21
1320.1511000091343
  0
LINE
  8
_0-0_0
  6
CONTINUOUS
 62
    7
 10
1217.517009153461
 20
1320.1511000091343
 11
1217.517009153461
 21
1320.2791569115257
  0
LINE
  8
_0-0_0
  6
CONTINUOUS
 62
    7
 10
1217.5968171026416
 20
1319.5646026285826
 11
1217.5986703451499
 21
1319.6054386117594
  0
LINE
  8
_0-0_0
  6
CONTINUOUS
 62
    7
 10
1217.5986703451499
 20
1319.6054386117594
 11
1217.5986703451499
 21
1319.6462638202711
  0
LINE
  8
_0-0_0
  6
CONTINUOUS
 62
    7
 10
1217.5986703451499
 20
1319.6462638202711
 11
1217.5986703451499
 21
1319.6870998034487
  0
LINE
  8
_0-0_0
  6
CONTINUOUS
 62
    7
 10
1217.5986703451499
 20
1319.6870998034487
 11
1217.5986703451499
 21
1319.7279357866259
  0
LINE
  8
_0-0_0
  6
CONTINUOUS
 62
    7
 10
1217.5949638601335
 20
1319.5126364156895
 11
1217.5949638601335
 21
1319.5256306625788
  0
LINE
  8
_0-0_0
  6
CONTINUOUS
 62
    7
 10
1217.5949638601335
 20
1319.5256306625788
 11
1217.5949638601335
 21
1319.5367608922948
  0
LINE
  8
_0-0_0
  6
CONTINUOUS
 62
    7
 10
1217.5949638601335
 20
1319.5367608922948
 11
1217.5949638601335
 21
1319.5497551391845
  0
LINE
  8
_0-0_0
  6
CONTINUOUS
 62
    7
 10
1217.5949638601335
 20
1319.5497551391845
 11
1217.5968171026416
 21
1319.5627493860741
  0
LINE
  8
_0-0_0
  6
CONTINUOUS
 62
    7
 10
1217.5930998429592
 20
1319.4606702027966
 11
1217.5930998429592
 21
1319.4736644496861
  0
LINE
  8
_0-0_0
  6
CONTINUOUS
 62
    7
 10
1217.5930998429592
 20
1319.4736644496861
 11
1217.5930998429592
 21
1319.4866479219102
  0
LINE
  8
_0-0_0
  6
CONTINUOUS
 62
    7
 10
1217.5930998429592
 20
1319.4866479219102
 11
1217.5930998429592
 21
1319.4996421687997
  0
LINE
  8
_0-0_0
  6
CONTINUOUS
 62
    7
 10
1217.5930998429592
 20
1319.4996421687997
 11
1217.5930998429592
 21
1319.5126364156895
  0
LINE
  8
_0-0_0
  6
CONTINUOUS
 62
    7
 10
1217.5949638601335
 20
1320.7988405897866
 11
1217.5949638601335
 21
1320.8006938322951
  0
LINE
  8
_0-0_0
  6
CONTINUOUS
 62
    7
 10
1217.5949638601335
 20
1320.8006938322951
 11
1217.5949638601335
 21
1320.8025470748032
  0
LINE
  8
_0-0_0
  6
CONTINUOUS
 62
    7
 10
1217.5949638601335
 20
1319.7631904929469
 11
1217.5949638601335
 21
1319.765054510121
  0
LINE
  8
_0-0_0
  6
CONTINUOUS
 62
    7
 10
1217.5949638601335
 20
1319.765054510121
 11
1217.5949638601335
 21
1319.7669077526293
  0
LINE
  8
_0-0_0
  6
CONTINUOUS
 62
    7
 10
1217.5949638601335
 20
1319.7669077526293
 11
1217.5930998429592
 21
1319.7669077526293
  0
LINE
  8
_0-0_0
  6
CONTINUOUS
 62
    7
 10
1217.5949638601335
 20
1321.0475414245361
 11
1217.5949638601335
 21
1321.0605356714254
  0
LINE
  8
_0-0_0
  6
CONTINUOUS
 62
    7
 10
1217.5949638601335
 20
1321.0605356714254
 11
1217.5949638601335
 21
1321.0735191436493
  0
LINE
  8
_0-0_0
  6
CONTINUOUS
 62
    7
 10
1217.5949638601335
 20
1321.0735191436493
 11
1217.5949638601335
 21
1321.086513390539
  0
LINE
  8
_0-0_0
  6
CONTINUOUS
 62
    7
 10
1217.5949638601335
 20
1321.086513390539
 11
1217.5930998429592
 21
1321.0995076374286
  0
LINE
  8
_0-0_0
  6
CONTINUOUS
 62
    7
 10
1217.5968171026416
 20
1319.7279357866259
 11
1217.5949638601335
 21
1319.7372127738333
  0
LINE
  8
_0-0_0
  6
CONTINUOUS
 62
    7
 10
1217.5949638601335
 20
1319.7372127738333
 11
1217.5949638601335
 21
1319.7446365185324
  0
LINE
  8
_0-0_0
  6
CONTINUOUS
 62
    7
 10
1217.5949638601335
 20
1319.7446365185324
 11
1217.5949638601335
 21
1319.7539135057395
  0
LINE
  8
_0-0_0
  6
CONTINUOUS
 62
    7
 10
1217.5949638601335
 20
1319.7539135057395
 11
1217.5930998429592
 21
1319.7631904929469
  0
LINE
  8
_0-0_0
  6
CONTINUOUS
 62
    7
 10
1217.5930998429592
 20
1320.7914168450875
 11
1217.5930998429592
 21
1320.7932700875958
  0
LINE
  8
_0-0_0
  6
CONTINUOUS
 62
    7
 10
1217.5930998429592
 20
1320.7932700875958
 11
1217.5930998429592
 21
1320.7951233301042
  0
LINE
  8
_0-0_0
  6
CONTINUOUS
 62
    7
 10
1217.0548729649495
 20
1317.0051993019433
 11
1217.0158902242804
 21
1317.0051993019433
  0
LINE
  8
_0-0_0
  6
CONTINUOUS
 62
    7
 10
1217.0158902242804
 20
1317.0051993019433
 11
1216.9787715007853
 21
1317.0051993019433
  0
LINE
  8
_0-0_0
  6
CONTINUOUS
 62
    7
 10
1216.9787715007853
 20
1317.0051993019433
 11
1216.9416527772905
 21
1317.0051993019433
  0
LINE
  8
_0-0_0
  6
CONTINUOUS
 62
    7
 10
1216.9416527772905
 20
1317.0051993019433
 11
1216.9026808112872
 21
1317.0051993019433
  0
LINE
  8
_0-0_0
  6
CONTINUOUS
 62
    7
 10
1217.5930998429592
 20
1319.7687609951377
 11
1217.5726926260363
 21
1319.7687609951377
  0
LINE
  8
_0-0_0
  6
CONTINUOUS
 62
    7
 10
1217.5726926260363
 20
1319.7687609951377
 11
1217.5504213919394
 21
1319.7687609951377
  0
LINE
  8
_0-0_0
  6
CONTINUOUS
 62
    7
 10
1217.5504213919394
 20
1319.7687609951377
 11
1217.5281501578424
 21
1319.7687609951377
  0
LINE
  8
_0-0_0
  6
CONTINUOUS
 62
    7
 10
1217.5281501578424
 20
1319.7687609951377
 11
1217.5077321662538
 21
1319.7687609951377
  0
LINE
  8
_0-0_0
  6
CONTINUOUS
 62
    7
 10
1217.5095854087622
 20
1320.7914168450875
 11
1217.5300034003508
 21
1320.7914168450875
  0
LINE
  8
_0-0_0
  6
CONTINUOUS
 62
    7
 10
1217.5300034003508
 20
1320.7914168450875
 11
1217.5504213919394
 21
1320.7914168450875
  0
LINE
  8
_0-0_0
  6
CONTINUOUS
 62
    7
 10
1217.5504213919394
 20
1320.7914168450875
 11
1217.5726926260363
 21
1320.7914168450875
  0
LINE
  8
_0-0_0
  6
CONTINUOUS
 62
    7
 10
1217.5726926260363
 20
1320.7914168450875
 11
1217.5930998429592
 21
1320.7914168450875
  0
LINE
  8
_0-0_0
  6
CONTINUOUS
 62
    7
 10
1217.517009153461
 20
1322.1741189256063
 11
1217.4780371874579
 21
1322.4543787563252
  0
LINE
  8
_0-0_0
  6
CONTINUOUS
 62
    7
 10
1217.4780371874579
 20
1322.4543787563252
 11
1217.4390544467888
 21
1322.7364918295527
  0
LINE
  8
_0-0_0
  6
CONTINUOUS
 62
    7
 10
1217.4390544467888
 20
1322.7364918295527
 11
1217.3982292382771
 21
1323.0185941281143
  0
LINE
  8
_0-0_0
  6
CONTINUOUS
 62
    7
 10
1217.3982292382771
 20
1323.0185941281143
 11
1217.3592464976082
 21
1323.3007072013422
  0
LINE
  8
_0-0_0
  6
CONTINUOUS
 62
    7
 10
1217.0548729649495
 20
1323.5549785382818
 11
1217.0158902242804
 21
1323.5549785382818
  0
LINE
  8
_0-0_0
  6
CONTINUOUS
 62
    7
 10
1217.0158902242804
 20
1323.5549785382818
 11
1216.9787715007853
 21
1323.5549785382818
  0
LINE
  8
_0-0_0
  6
CONTINUOUS
 62
    7
 10
1216.9787715007853
 20
1323.5549785382818
 11
1216.9416527772905
 21
1323.5549785382818
  0
LINE
  8
_0-0_0
  6
CONTINUOUS
 62
    7
 10
1216.9416527772905
 20
1323.5549785382818
 11
1216.9026808112872
 21
1323.5549785382818
  0
LINE
  8
_0-0_0
  6
CONTINUOUS
 62
    7
 10
1217.517009153461
 20
1318.3879121571272
 11
1217.5151559109529
 21
1318.389765399636
  0
LINE
  8
_0-0_0
  6
CONTINUOUS
 62
    7
 10
1217.5151559109529
 20
1318.389765399636
 11
1217.5132918937786
 21
1318.389765399636
  0
LINE
  8
_0-0_0
  6
CONTINUOUS
 62
    7
 10
1217.5132918937786
 20
1318.389765399636
 11
1217.5114386512705
 21
1318.389765399636
  0
LINE
  8
_0-0_0
  6
CONTINUOUS
 62
    7
 10
1217.5114386512705
 20
1318.389765399636
 11
1217.5095854087622
 21
1318.389765399636
  0
LINE
  8
_0-0_0
  6
CONTINUOUS
 62
    7
 10
1217.5930998429592
 20
1321.0995076374286
 11
1217.5782523535613
 21
1321.3667732212582
  0
LINE
  8
_0-0_0
  6
CONTINUOUS
 62
    7
 10
1217.5782523535613
 20
1321.3667732212582
 11
1217.5596983791468
 21
1321.6340280304221
  0
LINE
  8
_0-0_0
  6
CONTINUOUS
 62
    7
 10
1217.5596983791468
 20
1321.6340280304221
 11
1217.5355739025415
 21
1321.9031468567598
  0
LINE
  8
_0-0_0
  6
CONTINUOUS
 62
    7
 10
1217.5355739025415
 20
1321.9031468567598
 11
1217.5077321662538
 21
1322.1704124405894
  0
LINE
  8
_0-0_0
  6
CONTINUOUS
 62
    7
 10
1217.5095854087622
 20
1318.389765399636
 11
1217.5355739025415
 21
1318.6570309834653
  0
LINE
  8
_0-0_0
  6
CONTINUOUS
 62
    7
 10
1217.5355739025415
 20
1318.6570309834653
 11
1217.5596983791468
 21
1318.9242857926288
  0
LINE
  8
_0-0_0
  6
CONTINUOUS
 62
    7
 10
1217.5596983791468
 20
1318.9242857926288
 11
1217.5782523535613
 21
1319.1915513764584
  0
LINE
  8
_0-0_0
  6
CONTINUOUS
 62
    7
 10
1217.5782523535613
 20
1319.1915513764584
 11
1217.5930998429592
 21
1319.4606702027966
  0
LINE
  8
_0-0_0
  6
CONTINUOUS
 62
    7
 10
1217.0548729649495
 20
1317.0051993019433
 11
1217.162511875752
 21
1317.0237532763579
  0
LINE
  8
_0-0_0
  6
CONTINUOUS
 62
    7
 10
1217.162511875752
 20
1317.0237532763579
 11
1217.253460829314
 21
1317.0757302639165
  0
LINE
  8
_0-0_0
  6
CONTINUOUS
 62
    7
 10
1217.253460829314
 20
1317.0757302639165
 11
1217.3221277741131
 21
1317.1573914556054
  0
LINE
  8
_0-0_0
  6
CONTINUOUS
 62
    7
 10
1217.3221277741131
 20
1317.1573914556054
 11
1217.3592464976082
 21
1317.2594706388832
  0
LINE
  8
_0-0_0
  6
CONTINUOUS
 62
    7
 10
1217.3592464976082
 20
1323.3007072013422
 11
1217.3221277741131
 21
1323.40278638462
  0
LINE
  8
_0-0_0
  6
CONTINUOUS
 62
    7
 10
1217.3221277741131
 20
1323.40278638462
 11
1217.253460829314
 21
1323.4825943338003
  0
LINE
  8
_0-0_0
  6
CONTINUOUS
 62
    7
 10
1217.253460829314
 20
1323.4825943338003
 11
1217.1606586332437
 21
1323.5345605466932
  0
LINE
  8
_0-0_0
  6
CONTINUOUS
 62
    7
 10
1217.1606586332437
 20
1323.5345605466932
 11
1217.0530089477754
 21
1323.5549785382818
  0
LINE
  8
_0-0_0
  6
CONTINUOUS
 62
    7
 10
1216.8006016280096
 20
1317.0219000338493
 11
1216.8265793471232
 21
1317.0163295316588
  0
LINE
  8
_0-0_0
  6
CONTINUOUS
 62
    7
 10
1216.8265793471232
 20
1317.0163295316588
 11
1216.8525678409023
 21
1317.0126230466421
  0
LINE
  8
_0-0_0
  6
CONTINUOUS
 62
    7
 10
1216.8525678409023
 20
1317.0126230466421
 11
1216.8785455600162
 21
1317.0089057869598
  0
LINE
  8
_0-0_0
  6
CONTINUOUS
 62
    7
 10
1216.8785455600162
 20
1317.0089057869598
 11
1216.9026808112872
 21
1317.0051993019433
  0
LINE
  8
_0-0_0
  6
CONTINUOUS
 62
    7
 10
1216.9026808112872
 20
1323.5549785382818
 11
1216.8785455600162
 21
1323.5494080360911
  0
LINE
  8
_0-0_0
  6
CONTINUOUS
 62
    7
 10
1216.8785455600162
 20
1323.5494080360911
 11
1216.8525678409023
 21
1323.5457015510747
  0
LINE
  8
_0-0_0
  6
CONTINUOUS
 62
    7
 10
1216.8525678409023
 20
1323.5457015510747
 11
1216.8265793471232
 21
1323.5419842913921
  0
LINE
  8
_0-0_0
  6
CONTINUOUS
 62
    7
 10
1216.8265793471232
 20
1323.5419842913921
 11
1216.8006016280096
 21
1323.5382778063758
  0
LINE
  8
_0-0_0
  6
CONTINUOUS
 62
    7
 10
1216.8006016280096
 20
1277.8030325649977
 11
1216.8006016280096
 21
1274.7332225473051
  0
LINE
  8
_0-0_0
  6
CONTINUOUS
 62
    7
 10
1216.8006016280096
 20
1274.7332225473051
 11
1216.8006016280096
 21
1271.663423304278
  0
LINE
  8
_0-0_0
  6
CONTINUOUS
 62
    7
 10
1216.8006016280096
 20
1271.663423304278
 11
1216.8006016280096
 21
1268.593613286585
  0
LINE
  8
_0-0_0
  6
CONTINUOUS
 62
    7
 10
1216.8006016280096
 20
1268.593613286585
 11
1216.8006016280096
 21
1265.5219608010498
  0
LINE
  8
_0-0_0
  6
CONTINUOUS
 62
    7
 10
1218.3354958621903
 20
1278.5714063033424
 11
1218.3354958621903
 21
1280.6185604710849
  0
LINE
  8
_0-0_0
  6
CONTINUOUS
 62
    7
 10
1218.3354958621903
 20
1280.6185604710849
 11
1218.3354958621903
 21
1282.6657146388279
  0
LINE
  8
_0-0_0
  6
CONTINUOUS
 62
    7
 10
1218.3354958621903
 20
1282.6657146388279
 11
1218.3354958621903
 21
1284.7128688065709
  0
LINE
  8
_0-0_0
  6
CONTINUOUS
 62
    7
 10
1218.3354958621903
 20
1284.7128688065709
 11
1218.3354958621903
 21
1286.7600229743132
  0
LINE
  8
_0-0_0
  6
CONTINUOUS
 62
    7
 10
1214.7515834430928
 20
1265.0097008674875
 11
1215.1357756995978
 21
1265.0097008674875
  0
LINE
  8
_0-0_0
  6
CONTINUOUS
 62
    7
 10
1215.1357756995978
 20
1265.0097008674875
 11
1215.5199679561028
 21
1265.0097008674875
  0
LINE
  8
_0-0_0
  6
CONTINUOUS
 62
    7
 10
1215.5199679561028
 20
1265.0097008674875
 11
1215.902296195434
 21
1265.0097008674875
  0
LINE
  8
_0-0_0
  6
CONTINUOUS
 62
    7
 10
1215.902296195434
 20
1265.0097008674875
 11
1216.286488451939
 21
1265.0097008674875
  0
LINE
  8
_0-0_0
  6
CONTINUOUS
 62
    7
 10
1214.7515834430928
 20
1278.3152817238945
 11
1215.1357756995978
 21
1278.3152817238945
  0
LINE
  8
_0-0_0
  6
CONTINUOUS
 62
    7
 10
1215.1357756995978
 20
1278.3152817238945
 11
1215.5199679561028
 21
1278.3152817238945
  0
LINE
  8
_0-0_0
  6
CONTINUOUS
 62
    7
 10
1215.5199679561028
 20
1278.3152817238945
 11
1215.902296195434
 21
1278.3152817238945
  0
LINE
  8
_0-0_0
  6
CONTINUOUS
 62
    7
 10
1215.902296195434
 20
1278.3152817238945
 11
1216.286488451939
 21
1278.3152817238945
  0
LINE
  8
_0-0_0
  6
CONTINUOUS
 62
    7
 10
1218.3354958621903
 20
1278.5714063033424
 11
1218.7196881186956
 21
1278.5714063033424
  0
LINE
  8
_0-0_0
  6
CONTINUOUS
 62
    7
 10
1218.7196881186956
 20
1278.5714063033424
 11
1219.1020271326922
 21
1278.5714063033424
  0
LINE
  8
_0-0_0
  6
CONTINUOUS
 62
    7
 10
1219.1020271326922
 20
1278.5714063033424
 11
1219.4843553720234
 21
1278.5714063033424
  0
LINE
  8
_0-0_0
  6
CONTINUOUS
 62
    7
 10
1219.4843553720234
 20
1278.5714063033424
 11
1219.8685476285282
 21
1278.5714063033424
  0
LINE
  8
_0-0_0
  6
CONTINUOUS
 62
    7
 10
1214.7515834430928
 20
1288.215120033979
 11
1216.0322171149994
 21
1287.6954363557181
  0
LINE
  8
_0-0_0
  6
CONTINUOUS
 62
    7
 10
1216.0322171149994
 20
1287.6954363557181
 11
1217.3109975443977
 21
1287.1757634521227
  0
LINE
  8
_0-0_0
  6
CONTINUOUS
 62
    7
 10
1217.3109975443977
 20
1287.1757634521227
 11
1218.5897671991299
 21
1286.6560905485278
  0
LINE
  8
_0-0_0
  6
CONTINUOUS
 62
    7
 10
1218.5897671991299
 20
1286.6560905485278
 11
1219.8704008710367
 21
1286.1364068702665
  0
LINE
  8
_0-0_0
  6
CONTINUOUS
 62
    7
 10
1216.8006016280096
 20
1277.8030325649977
 11
1216.7597656448322
 21
1278.0034736718708
  0
LINE
  8
_0-0_0
  6
CONTINUOUS
 62
    7
 10
1216.7597656448322
 20
1278.0034736718708
 11
1216.6502627168557
 21
1278.1667960552486
  0
LINE
  8
_0-0_0
  6
CONTINUOUS
 62
    7
 10
1216.6502627168557
 20
1278.1667960552486
 11
1216.4869403334778
 21
1278.2762989832252
  0
LINE
  8
_0-0_0
  6
CONTINUOUS
 62
    7
 10
1216.4869403334778
 20
1278.2762989832252
 11
1216.2883416944474
 21
1278.3152817238945
  0
LINE
  8
_0-0_0
  6
CONTINUOUS
 62
    7
 10
1216.2883416944474
 20
1265.0097008674875
 11
1216.4887935759859
 21
1265.0505368506649
  0
LINE
  8
_0-0_0
  6
CONTINUOUS
 62
    7
 10
1216.4887935759859
 20
1265.0505368506649
 11
1216.6502627168557
 21
1265.1600397786415
  0
LINE
  8
_0-0_0
  6
CONTINUOUS
 62
    7
 10
1216.6502627168557
 20
1265.1600397786415
 11
1216.7597656448322
 21
1265.3233621620193
  0
LINE
  8
_0-0_0
  6
CONTINUOUS
 62
    7
 10
1216.7597656448322
 20
1265.3233621620193
 11
1216.8006016280096
 21
1265.5219608010498
  0
LINE
  8
_0-0_0
  6
CONTINUOUS
 62
    7
 10
1212.9104516590794
 20
1263.9870557922031
 11
1213.3707346050826
 21
1263.9870557922031
  0
LINE
  8
_0-0_0
  6
CONTINUOUS
 62
    7
 10
1213.3707346050826
 20
1263.9870557922031
 11
1213.831017551086
 21
1263.9870557922031
  0
LINE
  8
_0-0_0
  6
CONTINUOUS
 62
    7
 10
1213.831017551086
 20
1263.9870557922031
 11
1214.2913004970894
 21
1263.9870557922031
  0
LINE
  8
_0-0_0
  6
CONTINUOUS
 62
    7
 10
1214.2913004970894
 20
1263.9870557922031
 11
1214.7515834430928
 21
1263.9870557922031
  0
LINE
  8
_0-0_0
  6
CONTINUOUS
 62
    7
 10
1217.5095854087622
 20
1273.0405656572714
 11
1217.5114386512705
 21
1273.0405656572714
  0
LINE
  8
_0-0_0
  6
CONTINUOUS
 62
    7
 10
1217.5114386512705
 20
1273.0405656572714
 11
1217.5132918937786
 21
1273.0424188997795
  0
LINE
  8
_0-0_0
  6
CONTINUOUS
 62
    7
 10
1217.5132918937786
 20
1273.0424188997795
 11
1217.5151559109529
 21
1273.0442721422883
  0
LINE
  8
_0-0_0
  6
CONTINUOUS
 62
    7
 10
1217.5151559109529
 20
1273.0442721422883
 11
1217.517009153461
 21
1273.0442721422883
  0
LINE
  8
_0-0_0
  6
CONTINUOUS
 62
    7
 10
1217.5949638601335
 20
1271.6727002914854
 11
1217.5949638601335
 21
1271.6856945383752
  0
LINE
  8
_0-0_0
  6
CONTINUOUS
 62
    7
 10
1217.5949638601335
 20
1271.6856945383752
 11
1217.5968171026416
 21
1271.6968247680907
  0
LINE
  8
_0-0_0
  6
CONTINUOUS
 62
    7
 10
1217.5968171026416
 20
1271.6968247680907
 11
1217.5986703451499
 21
1271.7098190149804
  0
LINE
  8
_0-0_0
  6
CONTINUOUS
 62
    7
 10
1217.5986703451499
 20
1271.7098190149804
 11
1217.5986703451499
 21
1271.72281326187
  0
LINE
  8
_0-0_0
  6
CONTINUOUS
 62
    7
 10
1217.517009153461
 20
1269.2580653738094
 11
1217.4780371874579
 21
1268.9759523005819
  0
LINE
  8
_0-0_0
  6
CONTINUOUS
 62
    7
 10
1217.4780371874579
 20
1268.9759523005819
 11
1217.4390544467888
 21
1268.6938392273541
  0
LINE
  8
_0-0_0
  6
CONTINUOUS
 62
    7
 10
1217.4390544467888
 20
1268.6938392273541
 11
1217.3982292382771
 21
1268.4117261541267
  0
LINE
  8
_0-0_0
  6
CONTINUOUS
 62
    7
 10
1217.3982292382771
 20
1268.4117261541267
 11
1217.3592464976082
 21
1268.1314770980734
  0
LINE
  8
_0-0_0
  6
CONTINUOUS
 62
    7
 10
1217.5968171026416
 20
1270.5980782286424
 11
1217.5949638601335
 21
1270.6055019733412
  0
LINE
  8
_0-0_0
  6
CONTINUOUS
 62
    7
 10
1217.5949638601335
 20
1270.6055019733412
 11
1217.5949638601335
 21
1270.6147897352143
  0
LINE
  8
_0-0_0
  6
CONTINUOUS
 62
    7
 10
1217.5949638601335
 20
1270.6147897352143
 11
1217.5949638601335
 21
1270.6240667224215
  0
LINE
  8
_0-0_0
  6
CONTINUOUS
 62
    7
 10
1217.5949638601335
 20
1270.6240667224215
 11
1217.5930998429592
 21
1270.6314904671203
  0
LINE
  8
_0-0_0
  6
CONTINUOUS
 62
    7
 10
1217.517009153461
 20
1271.1511633707159
 11
1217.517009153461
 21
1271.279231047773
  0
LINE
  8
_0-0_0
  6
CONTINUOUS
 62
    7
 10
1217.517009153461
 20
1271.279231047773
 11
1217.5151559109529
 21
1271.4072987248298
  0
LINE
  8
_0-0_0
  6
CONTINUOUS
 62
    7
 10
1217.5151559109529
 20
1271.4072987248298
 11
1217.5132918937786
 21
1271.5353556272207
  0
LINE
  8
_0-0_0
  6
CONTINUOUS
 62
    7
 10
1217.5132918937786
 20
1271.5353556272207
 11
1217.5095854087622
 21
1271.661559287104
  0
LINE
  8
_0-0_0
  6
CONTINUOUS
 62
    7
 10
1217.5986703451499
 20
1271.72281326187
 11
1217.5968171026416
 21
1271.7710622150807
  0
LINE
  8
_0-0_0
  6
CONTINUOUS
 62
    7
 10
1217.5968171026416
 20
1271.7710622150807
 11
1217.5949638601335
 21
1271.8193219429568
  0
LINE
  8
_0-0_0
  6
CONTINUOUS
 62
    7
 10
1217.5949638601335
 20
1271.8193219429568
 11
1217.5949638601335
 21
1271.867581670833
  0
LINE
  8
_0-0_0
  6
CONTINUOUS
 62
    7
 10
1217.5949638601335
 20
1271.867581670833
 11
1217.5930998429592
 21
1271.9176946412176
  0
LINE
  8
_0-0_0
  6
CONTINUOUS
 62
    7
 10
1217.5095854087622
 20
1270.6389142118196
 11
1217.5132918937786
 21
1270.7669818888762
  0
LINE
  8
_0-0_0
  6
CONTINUOUS
 62
    7
 10
1217.5132918937786
 20
1270.7669818888762
 11
1217.5151559109529
 21
1270.8950387912678
  0
LINE
  8
_0-0_0
  6
CONTINUOUS
 62
    7
 10
1217.5151559109529
 20
1270.8950387912678
 11
1217.517009153461
 21
1271.0231064683246
  0
LINE
  8
_0-0_0
  6
CONTINUOUS
 62
    7
 10
1217.517009153461
 20
1271.0231064683246
 11
1217.517009153461
 21
1271.1511633707159
  0
LINE
  8
_0-0_0
  6
CONTINUOUS
 62
    7
 10
1217.5968171026416
 20
1270.4347558452641
 11
1217.5986703451499
 21
1270.4755918284418
  0
LINE
  8
_0-0_0
  6
CONTINUOUS
 62
    7
 10
1217.5986703451499
 20
1270.4755918284418
 11
1217.5986703451499
 21
1270.5164170369535
  0
LINE
  8
_0-0_0
  6
CONTINUOUS
 62
    7
 10
1217.5986703451499
 20
1270.5164170369535
 11
1217.5986703451499
 21
1270.5572530201307
  0
LINE
  8
_0-0_0
  6
CONTINUOUS
 62
    7
 10
1217.5986703451499
 20
1270.5572530201307
 11
1217.5986703451499
 21
1270.5999422458162
  0
LINE
  8
_0-0_0
  6
CONTINUOUS
 62
    7
 10
1217.5949638601335
 20
1270.3846428748795
 11
1217.5949638601335
 21
1270.3976371217691
  0
LINE
  8
_0-0_0
  6
CONTINUOUS
 62
    7
 10
1217.5949638601335
 20
1270.3976371217691
 11
1217.5949638601335
 21
1270.4087673514848
  0
LINE
  8
_0-0_0
  6
CONTINUOUS
 62
    7
 10
1217.5949638601335
 20
1270.4087673514848
 11
1217.5949638601335
 21
1270.4217615983746
  0
LINE
  8
_0-0_0
  6
CONTINUOUS
 62
    7
 10
1217.5949638601335
 20
1270.4217615983746
 11
1217.5968171026416
 21
1270.4347558452641
  0
LINE
  8
_0-0_0
  6
CONTINUOUS
 62
    7
 10
1217.5930998429592
 20
1270.3326766619869
 11
1217.5930998429592
 21
1270.3456709088764
  0
LINE
  8
_0-0_0
  6
CONTINUOUS
 62
    7
 10
1217.5930998429592
 20
1270.3456709088764
 11
1217.5930998429592
 21
1270.3568011385921
  0
LINE
  8
_0-0_0
  6
CONTINUOUS
 62
    7
 10
1217.5930998429592
 20
1270.3568011385921
 11
1217.5930998429592
 21
1270.3697953854819
  0
LINE
  8
_0-0_0
  6
CONTINUOUS
 62
    7
 10
1217.5930998429592
 20
1270.3697953854819
 11
1217.5930998429592
 21
1270.3827896323714
  0
LINE
  8
_0-0_0
  6
CONTINUOUS
 62
    7
 10
1217.5949638601335
 20
1271.6689830318028
 11
1217.5949638601335
 21
1271.6708470489768
  0
LINE
  8
_0-0_0
  6
CONTINUOUS
 62
    7
 10
1217.5949638601335
 20
1271.6708470489768
 11
1217.5949638601335
 21
1271.6727002914854
  0
LINE
  8
_0-0_0
  6
CONTINUOUS
 62
    7
 10
1217.5949638601335
 20
1270.6352077268029
 11
1217.5949638601335
 21
1270.6370609693111
  0
LINE
  8
_0-0_0
  6
CONTINUOUS
 62
    7
 10
1217.5949638601335
 20
1270.6370609693111
 11
1217.5949638601335
 21
1270.6389142118196
  0
LINE
  8
_0-0_0
  6
CONTINUOUS
 62
    7
 10
1217.5949638601335
 20
1270.6389142118196
 11
1217.5930998429592
 21
1270.6389142118196
  0
LINE
  8
_0-0_0
  6
CONTINUOUS
 62
    7
 10
1217.5949638601335
 20
1271.9195478837262
 11
1217.5949638601335
 21
1271.9325421306157
  0
LINE
  8
_0-0_0
  6
CONTINUOUS
 62
    7
 10
1217.5949638601335
 20
1271.9325421306157
 11
1217.5949638601335
 21
1271.9455256028396
  0
LINE
  8
_0-0_0
  6
CONTINUOUS
 62
    7
 10
1217.5949638601335
 20
1271.9455256028396
 11
1217.5949638601335
 21
1271.956666607221
  0
LINE
  8
_0-0_0
  6
CONTINUOUS
 62
    7
 10
1217.5949638601335
 20
1271.956666607221
 11
1217.5930998429592
 21
1271.9696608541108
  0
LINE
  8
_0-0_0
  6
CONTINUOUS
 62
    7
 10
1217.5930998429592
 20
1271.663423304278
 11
1217.5930998429592
 21
1271.6652765467861
  0
LINE
  8
_0-0_0
  6
CONTINUOUS
 62
    7
 10
1217.5930998429592
 20
1271.6652765467861
 11
1217.5930998429592
 21
1271.6671297892947
  0
LINE
  8
_0-0_0
  6
CONTINUOUS
 62
    7
 10
1217.0548729649495
 20
1267.8753525186253
 11
1217.0158902242804
 21
1267.8753525186253
  0
LINE
  8
_0-0_0
  6
CONTINUOUS
 62
    7
 10
1217.0158902242804
 20
1267.8753525186253
 11
1216.9787715007853
 21
1267.8753525186253
  0
LINE
  8
_0-0_0
  6
CONTINUOUS
 62
    7
 10
1216.9787715007853
 20
1267.8753525186253
 11
1216.9416527772905
 21
1267.8753525186253
  0
LINE
  8
_0-0_0
  6
CONTINUOUS
 62
    7
 10
1216.9416527772905
 20
1267.8753525186253
 11
1216.9026808112872
 21
1267.8753525186253
  0
LINE
  8
_0-0_0
  6
CONTINUOUS
 62
    7
 10
1217.5930998429592
 20
1270.6389142118196
 11
1217.5726926260363
 21
1270.6389142118196
  0
LINE
  8
_0-0_0
  6
CONTINUOUS
 62
    7
 10
1217.5726926260363
 20
1270.6389142118196
 11
1217.5504213919394
 21
1270.6389142118196
  0
LINE
  8
_0-0_0
  6
CONTINUOUS
 62
    7
 10
1217.5504213919394
 20
1270.6389142118196
 11
1217.5281501578424
 21
1270.6389142118196
  0
LINE
  8
_0-0_0
  6
CONTINUOUS
 62
    7
 10
1217.5281501578424
 20
1270.6389142118196
 11
1217.5077321662538
 21
1270.6389142118196
  0
LINE
  8
_0-0_0
  6
CONTINUOUS
 62
    7
 10
1217.5095854087622
 20
1271.663423304278
 11
1217.5300034003508
 21
1271.663423304278
  0
LINE
  8
_0-0_0
  6
CONTINUOUS
 62
    7
 10
1217.5300034003508
 20
1271.663423304278
 11
1217.5504213919394
 21
1271.663423304278
  0
LINE
  8
_0-0_0
  6
CONTINUOUS
 62
    7
 10
1217.5504213919394
 20
1271.663423304278
 11
1217.5726926260363
 21
1271.663423304278
  0
LINE
  8
_0-0_0
  6
CONTINUOUS
 62
    7
 10
1217.5726926260363
 20
1271.663423304278
 11
1217.5930998429592
 21
1271.663423304278
  0
LINE
  8
_0-0_0
  6
CONTINUOUS
 62
    7
 10
1217.0548729649495
 20
1274.4269849974721
 11
1217.0158902242804
 21
1274.4269849974721
  0
LINE
  8
_0-0_0
  6
CONTINUOUS
 62
    7
 10
1217.0158902242804
 20
1274.4269849974721
 11
1216.9787715007853
 21
1274.4269849974721
  0
LINE
  8
_0-0_0
  6
CONTINUOUS
 62
    7
 10
1216.9787715007853
 20
1274.4269849974721
 11
1216.9416527772905
 21
1274.4269849974721
  0
LINE
  8
_0-0_0
  6
CONTINUOUS
 62
    7
 10
1216.9416527772905
 20
1274.4269849974721
 11
1216.9026808112872
 21
1274.4269849974721
  0
LINE
  8
_0-0_0
  6
CONTINUOUS
 62
    7
 10
1217.517009153461
 20
1273.0442721422883
 11
1217.4780371874579
 21
1273.3263852155155
  0
LINE
  8
_0-0_0
  6
CONTINUOUS
 62
    7
 10
1217.4780371874579
 20
1273.3263852155155
 11
1217.4390544467888
 21
1273.608498288743
  0
LINE
  8
_0-0_0
  6
CONTINUOUS
 62
    7
 10
1217.4390544467888
 20
1273.608498288743
 11
1217.3982292382771
 21
1273.8906005873048
  0
LINE
  8
_0-0_0
  6
CONTINUOUS
 62
    7
 10
1217.3982292382771
 20
1273.8906005873048
 11
1217.3592464976082
 21
1274.1708604180242
  0
LINE
  8
_0-0_0
  6
CONTINUOUS
 62
    7
 10
1217.517009153461
 20
1269.2580653738094
 11
1217.5151559109529
 21
1269.2580653738094
  0
LINE
  8
_0-0_0
  6
CONTINUOUS
 62
    7
 10
1217.5151559109529
 20
1269.2580653738094
 11
1217.5132918937786
 21
1269.2599186163175
  0
LINE
  8
_0-0_0
  6
CONTINUOUS
 62
    7
 10
1217.5132918937786
 20
1269.2599186163175
 11
1217.5114386512705
 21
1269.261771858826
  0
LINE
  8
_0-0_0
  6
CONTINUOUS
 62
    7
 10
1217.5114386512705
 20
1269.261771858826
 11
1217.5095854087622
 21
1269.261771858826
  0
LINE
  8
_0-0_0
  6
CONTINUOUS
 62
    7
 10
1217.5930998429592
 20
1271.9696608541108
 11
1217.5782523535613
 21
1272.2387796804487
  0
LINE
  8
_0-0_0
  6
CONTINUOUS
 62
    7
 10
1217.5782523535613
 20
1272.2387796804487
 11
1217.5596983791468
 21
1272.5060344896124
  0
LINE
  8
_0-0_0
  6
CONTINUOUS
 62
    7
 10
1217.5596983791468
 20
1272.5060344896124
 11
1217.5355739025415
 21
1272.773300073442
  0
LINE
  8
_0-0_0
  6
CONTINUOUS
 62
    7
 10
1217.5355739025415
 20
1272.773300073442
 11
1217.5077321662538
 21
1273.0405656572714
  0
LINE
  8
_0-0_0
  6
CONTINUOUS
 62
    7
 10
1217.5095854087622
 20
1269.261771858826
 11
1217.5355739025415
 21
1269.5290374426556
  0
LINE
  8
_0-0_0
  6
CONTINUOUS
 62
    7
 10
1217.5355739025415
 20
1269.5290374426556
 11
1217.5596983791468
 21
1269.7962922518195
  0
LINE
  8
_0-0_0
  6
CONTINUOUS
 62
    7
 10
1217.5596983791468
 20
1269.7962922518195
 11
1217.5782523535613
 21
1270.0635578356489
  0
LINE
  8
_0-0_0
  6
CONTINUOUS
 62
    7
 10
1217.5782523535613
 20
1270.0635578356489
 11
1217.5930998429592
 21
1270.3308234194783
  0
LINE
  8
_0-0_0
  6
CONTINUOUS
 62
    7
 10
1217.0548729649495
 20
1267.8753525186253
 11
1217.162511875752
 21
1267.8957705102141
  0
LINE
  8
_0-0_0
  6
CONTINUOUS
 62
    7
 10
1217.162511875752
 20
1267.8957705102141
 11
1217.253460829314
 21
1267.9477367231068
  0
LINE
  8
_0-0_0
  6
CONTINUOUS
 62
    7
 10
1217.253460829314
 20
1267.9477367231068
 11
1217.3221277741131
 21
1268.0293979147957
  0
LINE
  8
_0-0_0
  6
CONTINUOUS
 62
    7
 10
1217.3221277741131
 20
1268.0293979147957
 11
1217.3592464976082
 21
1268.1314770980734
  0
LINE
  8
_0-0_0
  6
CONTINUOUS
 62
    7
 10
1217.3592464976082
 20
1274.1727136605325
 11
1217.3221277741131
 21
1274.2729396013015
  0
LINE
  8
_0-0_0
  6
CONTINUOUS
 62
    7
 10
1217.3221277741131
 20
1274.2729396013015
 11
1217.253460829314
 21
1274.3546007929908
  0
LINE
  8
_0-0_0
  6
CONTINUOUS
 62
    7
 10
1217.253460829314
 20
1274.3546007929908
 11
1217.1606586332437
 21
1274.4065670058835
  0
LINE
  8
_0-0_0
  6
CONTINUOUS
 62
    7
 10
1217.1606586332437
 20
1274.4065670058835
 11
1217.0530089477754
 21
1274.4269849974721
  0
LINE
  8
_0-0_0
  6
CONTINUOUS
 62
    7
 10
1216.8006016280096
 20
1267.8939064930398
 11
1216.8265793471232
 21
1267.8883359908491
  0
LINE
  8
_0-0_0
  6
CONTINUOUS
 62
    7
 10
1216.8265793471232
 20
1267.8883359908491
 11
1216.8525678409023
 21
1267.8846295058327
  0
LINE
  8
_0-0_0
  6
CONTINUOUS
 62
    7
 10
1216.8525678409023
 20
1267.8846295058327
 11
1216.8785455600162
 21
1267.8809122461503
  0
LINE
  8
_0-0_0
  6
CONTINUOUS
 62
    7
 10
1216.8785455600162
 20
1267.8809122461503
 11
1216.9026808112872
 21
1267.8753525186253
  0
LINE
  8
_0-0_0
  6
CONTINUOUS
 62
    7
 10
1216.9026808112872
 20
1274.4269849974721
 11
1216.8785455600162
 21
1274.4214144952816
  0
LINE
  8
_0-0_0
  6
CONTINUOUS
 62
    7
 10
1216.8785455600162
 20
1274.4214144952816
 11
1216.8525678409023
 21
1274.417708010265
  0
LINE
  8
_0-0_0
  6
CONTINUOUS
 62
    7
 10
1216.8525678409023
 20
1274.417708010265
 11
1216.8265793471232
 21
1274.4139907505826
  0
LINE
  8
_0-0_0
  6
CONTINUOUS
 62
    7
 10
1216.8265793471232
 20
1274.4139907505826
 11
1216.8006016280096
 21
1274.4084310230576
  0
LINE
  8
_0-0_0
  6
CONTINUOUS
 62
    7
 10
1244.9707820516089
 20
1340.8731957638197
 11
1244.9707820516089
 21
1343.9838309900238
  0
LINE
  8
_0-0_0
  6
CONTINUOUS
 62
    7
 10
1244.9707820516089
 20
1343.9838309900238
 11
1244.9707820516089
 21
1347.09261297372
  0
LINE
  8
_0-0_0
  6
CONTINUOUS
 62
    7
 10
1244.9707820516089
 20
1347.09261297372
 11
1244.9707820516089
 21
1350.2013949574161
  0
LINE
  8
_0-0_0
  6
CONTINUOUS
 62
    7
 10
1244.9707820516089
 20
1350.2013949574161
 11
1244.9707820516089
 21
1353.3120301836207
  0
LINE
  8
_0-0_0
  6
CONTINUOUS
 62
    7
 10
1247.2313715731141
 20
1353.3120301836207
 11
1247.2313715731141
 21
1350.2032481999245
  0
LINE
  8
_0-0_0
  6
CONTINUOUS
 62
    7
 10
1247.2313715731141
 20
1350.2032481999245
 11
1247.2313715731141
 21
1347.0944662162283
  0
LINE
  8
_0-0_0
  6
CONTINUOUS
 62
    7
 10
1247.2313715731141
 20
1347.0944662162283
 11
1247.2313715731141
 21
1343.9838309900238
  0
LINE
  8
_0-0_0
  6
CONTINUOUS
 62
    7
 10
1247.2313715731141
 20
1343.9838309900238
 11
1247.2313715731141
 21
1340.8750490063278
  0
LINE
  8
_0-0_0
  6
CONTINUOUS
 62
    7
 10
1246.1010768123615
 20
1354.4423249443732
 11
1245.661201083281
 21
1354.3532400079853
  0
LINE
  8
_0-0_0
  6
CONTINUOUS
 62
    7
 10
1245.661201083281
 20
1354.3532400079853
 11
1245.3011440780469
 21
1354.1100989007612
  0
LINE
  8
_0-0_0
  6
CONTINUOUS
 62
    7
 10
1245.3011440780469
 20
1354.1100989007612
 11
1245.0598669879967
 21
1353.7518951380355
  0
LINE
  8
_0-0_0
  6
CONTINUOUS
 62
    7
 10
1245.0598669879967
 20
1353.7518951380355
 11
1244.9707820516089
 21
1353.3120301836207
  0
LINE
  8
_0-0_0
  6
CONTINUOUS
 62
    7
 10
1247.2313715731141
 20
1353.3120301836207
 11
1247.1422866367261
 21
1353.7518951380355
  0
LINE
  8
_0-0_0
  6
CONTINUOUS
 62
    7
 10
1247.1422866367261
 20
1353.7518951380355
 11
1246.9010095466761
 21
1354.1100989007612
  0
LINE
  8
_0-0_0
  6
CONTINUOUS
 62
    7
 10
1246.9010095466761
 20
1354.1100989007612
 11
1246.5427950092844
 21
1354.3532400079853
  0
LINE
  8
_0-0_0
  6
CONTINUOUS
 62
    7
 10
1246.5427950092844
 20
1354.3532400079853
 11
1246.1010768123615
 21
1354.4423249443732
  0
LINE
  8
_0-0_0
  6
CONTINUOUS
 62
    7
 10
1246.1029300548698
 20
1339.7429010030667
 11
1246.5427950092844
 21
1339.8319859394546
  0
LINE
  8
_0-0_0
  6
CONTINUOUS
 62
    7
 10
1246.5427950092844
 20
1339.8319859394546
 11
1246.9010095466761
 21
1340.075127046679
  0
LINE
  8
_0-0_0
  6
CONTINUOUS
 62
    7
 10
1246.9010095466761
 20
1340.075127046679
 11
1247.1422866367261
 21
1340.4333308094044
  0
LINE
  8
_0-0_0
  6
CONTINUOUS
 62
    7
 10
1247.1422866367261
 20
1340.4333308094044
 11
1247.2313715731141
 21
1340.8731957638197
  0
LINE
  8
_0-0_0
  6
CONTINUOUS
 62
    7
 10
1244.9707820516089
 20
1340.8731957638197
 11
1245.0598669879967
 21
1340.4333308094044
  0
LINE
  8
_0-0_0
  6
CONTINUOUS
 62
    7
 10
1245.0598669879967
 20
1340.4333308094044
 11
1245.3029973205553
 21
1340.075127046679
  0
LINE
  8
_0-0_0
  6
CONTINUOUS
 62
    7
 10
1245.3029973205553
 20
1340.075127046679
 11
1245.663065100455
 21
1339.8319859394546
  0
LINE
  8
_0-0_0
  6
CONTINUOUS
 62
    7
 10
1245.663065100455
 20
1339.8319859394546
 11
1246.1029300548698
 21
1339.7429010030667
  0
LINE
  8
_0-0_0
  6
CONTINUOUS
 62
    7
 10
1244.9707820516089
 20
1314.8633896956217
 11
1244.9707820516089
 21
1317.9740249218264
  0
LINE
  8
_0-0_0
  6
CONTINUOUS
 62
    7
 10
1244.9707820516089
 20
1317.9740249218264
 11
1244.9707820516089
 21
1321.0828069055221
  0
LINE
  8
_0-0_0
  6
CONTINUOUS
 62
    7
 10
1244.9707820516089
 20
1321.0828069055221
 11
1244.9707820516089
 21
1324.1915781145528
  0
LINE
  8
_0-0_0
  6
CONTINUOUS
 62
    7
 10
1244.9707820516089
 20
1324.1915781145528
 11
1244.9707820516089
 21
1327.3022133407574
  0
LINE
  8
_0-0_0
  6
CONTINUOUS
 62
    7
 10
1247.2313715731141
 20
1327.3022133407574
 11
1247.2313715731141
 21
1324.1934421317269
  0
LINE
  8
_0-0_0
  6
CONTINUOUS
 62
    7
 10
1247.2313715731141
 20
1324.1934421317269
 11
1247.2313715731141
 21
1321.0846601480307
  0
LINE
  8
_0-0_0
  6
CONTINUOUS
 62
    7
 10
1247.2313715731141
 20
1321.0846601480307
 11
1247.2313715731141
 21
1317.9740249218264
  0
LINE
  8
_0-0_0
  6
CONTINUOUS
 62
    7
 10
1247.2313715731141
 20
1317.9740249218264
 11
1247.2313715731141
 21
1314.8652429381305
  0
LINE
  8
_0-0_0
  6
CONTINUOUS
 62
    7
 10
1246.1010768123615
 20
1328.434372118684
 11
1245.661201083281
 21
1328.345287182296
  0
LINE
  8
_0-0_0
  6
CONTINUOUS
 62
    7
 10
1245.661201083281
 20
1328.345287182296
 11
1245.3011440780469
 21
1328.1021460750719
  0
LINE
  8
_0-0_0
  6
CONTINUOUS
 62
    7
 10
1245.3011440780469
 20
1328.1021460750719
 11
1245.0598669879967
 21
1327.7420890698377
  0
LINE
  8
_0-0_0
  6
CONTINUOUS
 62
    7
 10
1245.0598669879967
 20
1327.7420890698377
 11
1244.9707820516089
 21
1327.3022133407574
  0
LINE
  8
_0-0_0
  6
CONTINUOUS
 62
    7
 10
1247.2313715731141
 20
1327.3022133407574
 11
1247.1422866367261
 21
1327.7420890698377
  0
LINE
  8
_0-0_0
  6
CONTINUOUS
 62
    7
 10
1247.1422866367261
 20
1327.7420890698377
 11
1246.9010095466761
 21
1328.1021460750719
  0
LINE
  8
_0-0_0
  6
CONTINUOUS
 62
    7
 10
1246.9010095466761
 20
1328.1021460750719
 11
1246.5427950092844
 21
1328.345287182296
  0
LINE
  8
_0-0_0
  6
CONTINUOUS
 62
    7
 10
1246.5427950092844
 20
1328.345287182296
 11
1246.1010768123615
 21
1328.434372118684
  0
LINE
  8
_0-0_0
  6
CONTINUOUS
 62
    7
 10
1246.1029300548698
 20
1313.7330949348693
 11
1246.5427950092844
 21
1313.822179871257
  0
LINE
  8
_0-0_0
  6
CONTINUOUS
 62
    7
 10
1246.5427950092844
 20
1313.822179871257
 11
1246.9010095466761
 21
1314.0653102038159
  0
LINE
  8
_0-0_0
  6
CONTINUOUS
 62
    7
 10
1246.9010095466761
 20
1314.0653102038159
 11
1247.1422866367261
 21
1314.4235139665416
  0
LINE
  8
_0-0_0
  6
CONTINUOUS
 62
    7
 10
1247.1422866367261
 20
1314.4235139665416
 11
1247.2313715731141
 21
1314.8633896956217
  0
LINE
  8
_0-0_0
  6
CONTINUOUS
 62
    7
 10
1244.9707820516089
 20
1314.8633896956217
 11
1245.0598669879967
 21
1314.4235139665416
  0
LINE
  8
_0-0_0
  6
CONTINUOUS
 62
    7
 10
1245.0598669879967
 20
1314.4235139665416
 11
1245.3029973205553
 21
1314.0653102038159
  0
LINE
  8
_0-0_0
  6
CONTINUOUS
 62
    7
 10
1245.3029973205553
 20
1314.0653102038159
 11
1245.663065100455
 21
1313.822179871257
  0
LINE
  8
_0-0_0
  6
CONTINUOUS
 62
    7
 10
1245.663065100455
 20
1313.822179871257
 11
1246.1029300548698
 21
1313.7330949348693
  0
LINE
  8
_0-0_0
  6
CONTINUOUS
 62
    7
 10
1238.6938281266246
 20
1369.0322459577033
 11
1238.5379294879456
 21
1369.8080434407466
  0
LINE
  8
_0-0_0
  6
CONTINUOUS
 62
    7
 10
1238.5379294879456
 20
1369.8080434407466
 11
1238.1091947632467
 21
1370.4409365320009
  0
LINE
  8
_0-0_0
  6
CONTINUOUS
 62
    7
 10
1238.1091947632467
 20
1370.4409365320009
 11
1237.4763016719924
 21
1370.8696712567003
  0
LINE
  8
_0-0_0
  6
CONTINUOUS
 62
    7
 10
1237.4763016719924
 20
1370.8696712567003
 11
1236.7004934142831
 21
1371.025569895379
  0
LINE
  8
_0-0_0
  6
CONTINUOUS
 62
    7
 10
1236.7004934142831
 20
1371.025569895379
 11
1235.9246959312397
 21
1370.8696712567003
  0
LINE
  8
_0-0_0
  6
CONTINUOUS
 62
    7
 10
1235.9246959312397
 20
1370.8696712567003
 11
1235.2918028399854
 21
1370.4409365320009
  0
LINE
  8
_0-0_0
  6
CONTINUOUS
 62
    7
 10
1235.2918028399854
 20
1370.4409365320009
 11
1234.8630681152863
 21
1369.8080434407466
  0
LINE
  8
_0-0_0
  6
CONTINUOUS
 62
    7
 10
1234.8630681152863
 20
1369.8080434407466
 11
1234.7071694766075
 21
1369.0322459577033
  0
LINE
  8
_0-0_0
  6
CONTINUOUS
 62
    7
 10
1234.7071694766075
 20
1369.0322459577033
 11
1234.8630681152863
 21
1368.2545844574856
  0
LINE
  8
_0-0_0
  6
CONTINUOUS
 62
    7
 10
1234.8630681152863
 20
1368.2545844574856
 11
1235.2918028399854
 21
1367.6216913662311
  0
LINE
  8
_0-0_0
  6
CONTINUOUS
 62
    7
 10
1235.2918028399854
 20
1367.6216913662311
 11
1235.9246959312397
 21
1367.1948098840405
  0
LINE
  8
_0-0_0
  6
CONTINUOUS
 62
    7
 10
1235.9246959312397
 20
1367.1948098840405
 11
1236.7004934142831
 21
1367.0389112453618
  0
LINE
  8
_0-0_0
  6
CONTINUOUS
 62
    7
 10
1236.7004934142831
 20
1367.0389112453618
 11
1237.4763016719924
 21
1367.1948098840405
  0
LINE
  8
_0-0_0
  6
CONTINUOUS
 62
    7
 10
1237.4763016719924
 20
1367.1948098840405
 11
1238.1091947632467
 21
1367.6216913662311
  0
LINE
  8
_0-0_0
  6
CONTINUOUS
 62
    7
 10
1238.1091947632467
 20
1367.6216913662311
 11
1238.5379294879456
 21
1368.2545844574856
  0
LINE
  8
_0-0_0
  6
CONTINUOUS
 62
    7
 10
1238.5379294879456
 20
1368.2545844574856
 11
1238.6938281266246
 21
1369.0322459577033
  0
LINE
  8
_0-0_0
  6
CONTINUOUS
 62
    7
 10
1276.2441739567137
 20
1345.8398210381008
 11
1276.0251681007603
 21
1346.9218668456433
  0
LINE
  8
_0-0_0
  6
CONTINUOUS
 62
    7
 10
1276.0251681007603
 20
1346.9218668456433
 11
1275.4312469755093
 21
1347.8053140141549
  0
LINE
  8
_0-0_0
  6
CONTINUOUS
 62
    7
 10
1275.4312469755093
 20
1347.8053140141549
 11
1274.5477998069978
 21
1348.4010883819144
  0
LINE
  8
_0-0_0
  6
CONTINUOUS
 62
    7
 10
1274.5477998069978
 20
1348.4010883819144
 11
1273.4657539994555
 21
1348.6182302206935
  0
LINE
  8
_0-0_0
  6
CONTINUOUS
 62
    7
 10
1273.4657539994555
 20
1348.6182302206935
 11
1272.3855722090875
 21
1348.4010883819144
  0
LINE
  8
_0-0_0
  6
CONTINUOUS
 62
    7
 10
1272.3855722090875
 20
1348.4010883819144
 11
1271.5021250405759
 21
1347.8053140141549
  0
LINE
  8
_0-0_0
  6
CONTINUOUS
 62
    7
 10
1271.5021250405759
 20
1347.8053140141549
 11
1270.9063506728166
 21
1346.9218668456433
  0
LINE
  8
_0-0_0
  6
CONTINUOUS
 62
    7
 10
1270.9063506728166
 20
1346.9218668456433
 11
1270.6873448168633
 21
1345.8398210381008
  0
LINE
  8
_0-0_0
  6
CONTINUOUS
 62
    7
 10
1270.6873448168633
 20
1345.8398210381008
 11
1270.9063506728166
 21
1344.759639247733
  0
LINE
  8
_0-0_0
  6
CONTINUOUS
 62
    7
 10
1270.9063506728166
 20
1344.759639247733
 11
1271.5021250405759
 21
1343.8761813045558
  0
LINE
  8
_0-0_0
  6
CONTINUOUS
 62
    7
 10
1271.5021250405759
 20
1343.8761813045558
 11
1272.3855722090875
 21
1343.2822709539705
  0
LINE
  8
_0-0_0
  6
CONTINUOUS
 62
    7
 10
1272.3855722090875
 20
1343.2822709539705
 11
1273.4657539994555
 21
1343.0632650980172
  0
LINE
  8
_0-0_0
  6
CONTINUOUS
 62
    7
 10
1273.4657539994555
 20
1343.0632650980172
 11
1274.5477998069978
 21
1343.2822709539705
  0
LINE
  8
_0-0_0
  6
CONTINUOUS
 62
    7
 10
1274.5477998069978
 20
1343.2822709539705
 11
1275.4312469755093
 21
1343.8761813045558
  0
LINE
  8
_0-0_0
  6
CONTINUOUS
 62
    7
 10
1275.4312469755093
 20
1343.8761813045558
 11
1276.0251681007603
 21
1344.759639247733
  0
LINE
  8
_0-0_0
  6
CONTINUOUS
 62
    7
 10
1276.0251681007603
 20
1344.759639247733
 11
1276.2441739567137
 21
1345.8398210381008
  0
LINE
  8
_0-0_0
  6
CONTINUOUS
 62
    7
 10
1236.9417705043334
 20
1334.0877099396212
 11
1236.7023574314571
 21
1335.2755414154576
  0
LINE
  8
_0-0_0
  6
CONTINUOUS
 62
    7
 10
1236.7023574314571
 20
1335.2755414154576
 11
1236.0471931061059
 21
1336.246220277849
  0
LINE
  8
_0-0_0
  6
CONTINUOUS
 62
    7
 10
1236.0471931061059
 20
1336.246220277849
 11
1235.0765034690489
 21
1336.9013846032001
  0
LINE
  8
_0-0_0
  6
CONTINUOUS
 62
    7
 10
1235.0765034690489
 20
1336.9013846032001
 11
1233.8886719932125
 21
1337.140808450742
  0
LINE
  8
_0-0_0
  6
CONTINUOUS
 62
    7
 10
1233.8886719932125
 20
1337.140808450742
 11
1232.700840517376
 21
1336.9013846032001
  0
LINE
  8
_0-0_0
  6
CONTINUOUS
 62
    7
 10
1232.700840517376
 20
1336.9013846032001
 11
1231.7301616549848
 21
1336.246220277849
  0
LINE
  8
_0-0_0
  6
CONTINUOUS
 62
    7
 10
1231.7301616549848
 20
1336.246220277849
 11
1231.0768505721419
 21
1335.2755414154576
  0
LINE
  8
_0-0_0
  6
CONTINUOUS
 62
    7
 10
1231.0768505721419
 20
1335.2755414154576
 11
1230.8374374992659
 21
1334.0877099396212
  0
LINE
  8
_0-0_0
  6
CONTINUOUS
 62
    7
 10
1230.8374374992659
 20
1334.0877099396212
 11
1231.0768505721419
 21
1332.8998784637849
  0
LINE
  8
_0-0_0
  6
CONTINUOUS
 62
    7
 10
1231.0768505721419
 20
1332.8998784637849
 11
1231.7301616549848
 21
1331.9310528439019
  0
LINE
  8
_0-0_0
  6
CONTINUOUS
 62
    7
 10
1231.7301616549848
 20
1331.9310528439019
 11
1232.700840517376
 21
1331.2758885185508
  0
LINE
  8
_0-0_0
  6
CONTINUOUS
 62
    7
 10
1232.700840517376
 20
1331.2758885185508
 11
1233.8886719932125
 21
1331.0364646710086
  0
LINE
  8
_0-0_0
  6
CONTINUOUS
 62
    7
 10
1233.8886719932125
 20
1331.0364646710086
 11
1235.0765034690489
 21
1331.2758885185508
  0
LINE
  8
_0-0_0
  6
CONTINUOUS
 62
    7
 10
1235.0765034690489
 20
1331.2758885185508
 11
1236.0471931061059
 21
1331.9310528439019
  0
LINE
  8
_0-0_0
  6
CONTINUOUS
 62
    7
 10
1236.0471931061059
 20
1331.9310528439019
 11
1236.7023574314571
 21
1332.8998784637849
  0
LINE
  8
_0-0_0
  6
CONTINUOUS
 62
    7
 10
1236.7023574314571
 20
1332.8998784637849
 11
1236.9417705043334
 21
1334.0877099396212
  0
LINE
  8
_0-0_0
  6
CONTINUOUS
 62
    7
 10
1313.5272434283072
 20
1369.0322459577033
 11
1313.3713447896284
 21
1369.8080434407466
  0
LINE
  8
_0-0_0
  6
CONTINUOUS
 62
    7
 10
1313.3713447896284
 20
1369.8080434407466
 11
1312.9426100649293
 21
1370.4409365320009
  0
LINE
  8
_0-0_0
  6
CONTINUOUS
 62
    7
 10
1312.9426100649293
 20
1370.4409365320009
 11
1312.3097169736752
 21
1370.8696712567003
  0
LINE
  8
_0-0_0
  6
CONTINUOUS
 62
    7
 10
1312.3097169736752
 20
1370.8696712567003
 11
1311.5339194906319
 21
1371.025569895379
  0
LINE
  8
_0-0_0
  6
CONTINUOUS
 62
    7
 10
1311.5339194906319
 20
1371.025569895379
 11
1310.7581112329226
 21
1370.8696712567003
  0
LINE
  8
_0-0_0
  6
CONTINUOUS
 62
    7
 10
1310.7581112329226
 20
1370.8696712567003
 11
1310.125218141668
 21
1370.4409365320009
  0
LINE
  8
_0-0_0
  6
CONTINUOUS
 62
    7
 10
1310.125218141668
 20
1370.4409365320009
 11
1309.6964941916349
 21
1369.8080434407466
  0
LINE
  8
_0-0_0
  6
CONTINUOUS
 62
    7
 10
1309.6964941916349
 20
1369.8080434407466
 11
1309.5405847782902
 21
1369.0322459577033
  0
LINE
  8
_0-0_0
  6
CONTINUOUS
 62
    7
 10
1309.5405847782902
 20
1369.0322459577033
 11
1309.6964941916349
 21
1368.2545844574856
  0
LINE
  8
_0-0_0
  6
CONTINUOUS
 62
    7
 10
1309.6964941916349
 20
1368.2545844574856
 11
1310.125218141668
 21
1367.6216913662311
  0
LINE
  8
_0-0_0
  6
CONTINUOUS
 62
    7
 10
1310.125218141668
 20
1367.6216913662311
 11
1310.7581112329226
 21
1367.1948098840405
  0
LINE
  8
_0-0_0
  6
CONTINUOUS
 62
    7
 10
1310.7581112329226
 20
1367.1948098840405
 11
1311.5339194906319
 21
1367.0389112453618
  0
LINE
  8
_0-0_0
  6
CONTINUOUS
 62
    7
 10
1311.5339194906319
 20
1367.0389112453618
 11
1312.3097169736752
 21
1367.1948098840405
  0
LINE
  8
_0-0_0
  6
CONTINUOUS
 62
    7
 10
1312.3097169736752
 20
1367.1948098840405
 11
1312.9426100649293
 21
1367.6216913662311
  0
LINE
  8
_0-0_0
  6
CONTINUOUS
 62
    7
 10
1312.9426100649293
 20
1367.6216913662311
 11
1313.3713447896284
 21
1368.2545844574856
  0
LINE
  8
_0-0_0
  6
CONTINUOUS
 62
    7
 10
1313.3713447896284
 20
1368.2545844574856
 11
1313.5272434283072
 21
1369.0322459577033
  0
LINE
  8
_0-0_0
  6
CONTINUOUS
 62
    7
 10
1244.9707820516089
 20
724.0579853130464
 11
1244.9707820516089
 21
727.16862053925081
  0
LINE
  8
_0-0_0
  6
CONTINUOUS
 62
    7
 10
1244.9707820516089
 20
727.16862053925081
 11
1244.9707820516089
 21
730.27925576545545
  0
LINE
  8
_0-0_0
  6
CONTINUOUS
 62
    7
 10
1244.9707820516089
 20
730.27925576545545
 11
1244.9707820516089
 21
733.38989099165985
  0
LINE
  8
_0-0_0
  6
CONTINUOUS
 62
    7
 10
1244.9707820516089
 20
733.38989099165985
 11
1244.9707820516089
 21
736.49681973284771
  0
LINE
  8
_0-0_0
  6
CONTINUOUS
 62
    7
 10
1247.2313715731141
 20
736.49681973284771
 11
1247.2313715731141
 21
733.38989099165985
  0
LINE
  8
_0-0_0
  6
CONTINUOUS
 62
    7
 10
1247.2313715731141
 20
733.38989099165985
 11
1247.2313715731141
 21
730.27925576545545
  0
LINE
  8
_0-0_0
  6
CONTINUOUS
 62
    7
 10
1247.2313715731141
 20
730.27925576545545
 11
1247.2313715731141
 21
727.16862053925081
  0
LINE
  8
_0-0_0
  6
CONTINUOUS
 62
    7
 10
1247.2313715731141
 20
727.16862053925081
 11
1247.2313715731141
 21
724.0579853130464
  0
LINE
  8
_0-0_0
  6
CONTINUOUS
 62
    7
 10
1246.1010768123615
 20
737.62896773610862
 11
1245.661201083281
 21
737.53988279972077
  0
LINE
  8
_0-0_0
  6
CONTINUOUS
 62
    7
 10
1245.661201083281
 20
737.53988279972077
 11
1245.3011440780469
 21
737.29860570967048
  0
LINE
  8
_0-0_0
  6
CONTINUOUS
 62
    7
 10
1245.3011440780469
 20
737.29860570967048
 11
1245.0598669879967
 21
736.93853792977063
  0
LINE
  8
_0-0_0
  6
CONTINUOUS
 62
    7
 10
1245.0598669879967
 20
736.93853792977063
 11
1244.9707820516089
 21
736.49681973284771
  0
LINE
  8
_0-0_0
  6
CONTINUOUS
 62
    7
 10
1247.2313715731141
 20
736.49681973284771
 11
1247.1422866367261
 21
736.93853792977063
  0
LINE
  8
_0-0_0
  6
CONTINUOUS
 62
    7
 10
1247.1422866367261
 20
736.93853792977063
 11
1246.9010095466761
 21
737.29860570967048
  0
LINE
  8
_0-0_0
  6
CONTINUOUS
 62
    7
 10
1246.9010095466761
 20
737.29860570967048
 11
1246.5427950092844
 21
737.53988279972077
  0
LINE
  8
_0-0_0
  6
CONTINUOUS
 62
    7
 10
1246.5427950092844
 20
737.53988279972077
 11
1246.1010768123615
 21
737.62896773610862
  0
LINE
  8
_0-0_0
  6
CONTINUOUS
 62
    7
 10
1246.1029300548698
 20
722.92954379480204
 11
1246.5427950092844
 21
723.01862873119012
  0
LINE
  8
_0-0_0
  6
CONTINUOUS
 62
    7
 10
1246.5427950092844
 20
723.01862873119012
 11
1246.9010095466761
 21
723.25991659590613
  0
LINE
  8
_0-0_0
  6
CONTINUOUS
 62
    7
 10
1246.9010095466761
 20
723.25991659590613
 11
1247.1422866367261
 21
723.61997360114015
  0
LINE
  8
_0-0_0
  6
CONTINUOUS
 62
    7
 10
1247.1422866367261
 20
723.61997360114015
 11
1247.2313715731141
 21
724.0579853130464
  0
LINE
  8
_0-0_0
  6
CONTINUOUS
 62
    7
 10
1244.9707820516089
 20
724.0579853130464
 11
1245.0598669879967
 21
723.61997360114015
  0
LINE
  8
_0-0_0
  6
CONTINUOUS
 62
    7
 10
1245.0598669879967
 20
723.61997360114015
 11
1245.3029973205553
 21
723.25991659590613
  0
LINE
  8
_0-0_0
  6
CONTINUOUS
 62
    7
 10
1245.3029973205553
 20
723.25991659590613
 11
1245.663065100455
 21
723.01862873119012
  0
LINE
  8
_0-0_0
  6
CONTINUOUS
 62
    7
 10
1245.663065100455
 20
723.01862873119012
 11
1246.1029300548698
 21
722.92954379480204
  0
LINE
  8
_0-0_0
  6
CONTINUOUS
 62
    7
 10
1244.9707820516089
 20
751.19995015917084
 11
1244.9707820516089
 21
754.31058538537513
  0
LINE
  8
_0-0_0
  6
CONTINUOUS
 62
    7
 10
1244.9707820516089
 20
754.31058538537513
 11
1244.9707820516089
 21
757.41750335189738
  0
LINE
  8
_0-0_0
  6
CONTINUOUS
 62
    7
 10
1244.9707820516089
 20
757.41750335189738
 11
1244.9707820516089
 21
760.52443209308512
  0
LINE
  8
_0-0_0
  6
CONTINUOUS
 62
    7
 10
1244.9707820516089
 20
760.52443209308512
 11
1244.9707820516089
 21
763.63506731928953
  0
LINE
  8
_0-0_0
  6
CONTINUOUS
 62
    7
 10
1247.2313715731141
 20
763.63506731928953
 11
1247.2313715731141
 21
760.52443209308512
  0
LINE
  8
_0-0_0
  6
CONTINUOUS
 62
    7
 10
1247.2313715731141
 20
760.52443209308512
 11
1247.2313715731141
 21
757.41750335189738
  0
LINE
  8
_0-0_0
  6
CONTINUOUS
 62
    7
 10
1247.2313715731141
 20
757.41750335189738
 11
1247.2313715731141
 21
754.31058538537513
  0
LINE
  8
_0-0_0
  6
CONTINUOUS
 62
    7
 10
1247.2313715731141
 20
754.31058538537513
 11
1247.2313715731141
 21
751.19995015917084
  0
LINE
  8
_0-0_0
  6
CONTINUOUS
 62
    7
 10
1246.1010768123615
 20
764.76721532255044
 11
1245.661201083281
 21
764.67813038616271
  0
LINE
  8
_0-0_0
  6
CONTINUOUS
 62
    7
 10
1245.661201083281
 20
764.67813038616271
 11
1245.3011440780469
 21
764.43685329611242
  0
LINE
  8
_0-0_0
  6
CONTINUOUS
 62
    7
 10
1245.3011440780469
 20
764.43685329611242
 11
1245.0598669879967
 21
764.07307903119602
  0
LINE
  8
_0-0_0
  6
CONTINUOUS
 62
    7
 10
1245.0598669879967
 20
764.07307903119602
 11
1244.9707820516089
 21
763.63506731928953
  0
LINE
  8
_0-0_0
  6
CONTINUOUS
 62
    7
 10
1247.2313715731141
 20
763.63506731928953
 11
1247.1422866367261
 21
764.07307903119602
  0
LINE
  8
_0-0_0
  6
CONTINUOUS
 62
    7
 10
1247.1422866367261
 20
764.07307903119602
 11
1246.9010095466761
 21
764.43685329611242
  0
LINE
  8
_0-0_0
  6
CONTINUOUS
 62
    7
 10
1246.9010095466761
 20
764.43685329611242
 11
1246.5427950092844
 21
764.67813038616271
  0
LINE
  8
_0-0_0
  6
CONTINUOUS
 62
    7
 10
1246.5427950092844
 20
764.67813038616271
 11
1246.1010768123615
 21
764.76721532255044
  0
LINE
  8
_0-0_0
  6
CONTINUOUS
 62
    7
 10
1246.1029300548698
 20
750.06408489622743
 11
1246.5427950092844
 21
750.15316983261539
  0
LINE
  8
_0-0_0
  6
CONTINUOUS
 62
    7
 10
1246.5427950092844
 20
750.15316983261539
 11
1246.9010095466761
 21
750.39816418234773
  0
LINE
  8
_0-0_0
  6
CONTINUOUS
 62
    7
 10
1246.9010095466761
 20
750.39816418234773
 11
1247.1422866367261
 21
750.75822118758197
  0
LINE
  8
_0-0_0
  6
CONTINUOUS
 62
    7
 10
1247.1422866367261
 20
750.75822118758197
 11
1247.2313715731141
 21
751.19995015917084
  0
LINE
  8
_0-0_0
  6
CONTINUOUS
 62
    7
 10
1244.9707820516089
 20
751.19995015917084
 11
1245.0598669879967
 21
750.75822118758197
  0
LINE
  8
_0-0_0
  6
CONTINUOUS
 62
    7
 10
1245.0598669879967
 20
750.75822118758197
 11
1245.3029973205553
 21
750.39816418234773
  0
LINE
  8
_0-0_0
  6
CONTINUOUS
 62
    7
 10
1245.3029973205553
 20
750.39816418234773
 11
1245.663065100455
 21
750.15316983261539
  0
LINE
  8
_0-0_0
  6
CONTINUOUS
 62
    7
 10
1245.663065100455
 20
750.15316983261539
 11
1246.1029300548698
 21
750.06408489622743
  0
LINE
  8
_0-0_0
  6
CONTINUOUS
 62
    7
 10
1236.9417705043334
 20
743.84652092883493
 11
1236.7023574314571
 21
745.03436317933711
  0
LINE
  8
_0-0_0
  6
CONTINUOUS
 62
    7
 10
1236.7023574314571
 20
745.03436317933711
 11
1236.0471931061059
 21
746.00689528423686
  0
LINE
  8
_0-0_0
  6
CONTINUOUS
 62
    7
 10
1236.0471931061059
 20
746.00689528423686
 11
1235.0765034690489
 21
746.66020636707981
  0
LINE
  8
_0-0_0
  6
CONTINUOUS
 62
    7
 10
1235.0765034690489
 20
746.66020636707981
 11
1233.8886719932125
 21
746.9014834571301
  0
LINE
  8
_0-0_0
  6
CONTINUOUS
 62
    7
 10
1233.8886719932125
 20
746.9014834571301
 11
1232.700840517376
 21
746.66020636707981
  0
LINE
  8
_0-0_0
  6
CONTINUOUS
 62
    7
 10
1232.700840517376
 20
746.66020636707981
 11
1231.7301616549848
 21
746.00689528423686
  0
LINE
  8
_0-0_0
  6
CONTINUOUS
 62
    7
 10
1231.7301616549848
 20
746.00689528423686
 11
1231.0768505721419
 21
745.03436317933711
  0
LINE
  8
_0-0_0
  6
CONTINUOUS
 62
    7
 10
1231.0768505721419
 20
745.03436317933711
 11
1230.8374374992659
 21
743.84652092883493
  0
LINE
  8
_0-0_0
  6
CONTINUOUS
 62
    7
 10
1230.8374374992659
 20
743.84652092883493
 11
1231.0768505721419
 21
742.65868945299894
  0
LINE
  8
_0-0_0
  6
CONTINUOUS
 62
    7
 10
1231.0768505721419
 20
742.65868945299894
 11
1231.7301616549848
 21
741.68986383311585
  0
LINE
  8
_0-0_0
  6
CONTINUOUS
 62
    7
 10
1231.7301616549848
 20
741.68986383311585
 11
1232.700840517376
 21
741.03656352493863
  0
LINE
  8
_0-0_0
  6
CONTINUOUS
 62
    7
 10
1232.700840517376
 20
741.03656352493863
 11
1233.8886719932125
 21
740.79528643488834
  0
LINE
  8
_0-0_0
  6
CONTINUOUS
 62
    7
 10
1233.8886719932125
 20
740.79528643488834
 11
1235.0765034690489
 21
741.03656352493863
  0
LINE
  8
_0-0_0
  6
CONTINUOUS
 62
    7
 10
1235.0765034690489
 20
741.03656352493863
 11
1236.0471931061059
 21
741.68986383311585
  0
LINE
  8
_0-0_0
  6
CONTINUOUS
 62
    7
 10
1236.0471931061059
 20
741.68986383311585
 11
1236.7023574314571
 21
742.65868945299894
  0
LINE
  8
_0-0_0
  6
CONTINUOUS
 62
    7
 10
1236.7023574314571
 20
742.65868945299894
 11
1236.9417705043334
 21
743.84652092883493
  0
LINE
  8
_0-0_0
  6
CONTINUOUS
 62
    7
 10
1276.2386034545229
 20
732.08698608565646
 11
1276.0214508410781
 21
733.16716787602434
  0
LINE
  8
_0-0_0
  6
CONTINUOUS
 62
    7
 10
1276.0214508410781
 20
733.16716787602434
 11
1275.4275297158269
 21
734.04690855951935
  0
LINE
  8
_0-0_0
  6
CONTINUOUS
 62
    7
 10
1275.4275297158269
 20
734.04690855951935
 11
1274.5459357898235
 21
734.64082968477044
  0
LINE
  8
_0-0_0
  6
CONTINUOUS
 62
    7
 10
1274.5459357898235
 20
734.64082968477044
 11
1273.4676072419641
 21
734.85983554072368
  0
LINE
  8
_0-0_0
  6
CONTINUOUS
 62
    7
 10
1273.4676072419641
 20
734.85983554072368
 11
1272.3892786941042
 21
734.64082968477044
  0
LINE
  8
_0-0_0
  6
CONTINUOUS
 62
    7
 10
1272.3892786941042
 20
734.64082968477044
 11
1271.5076847681007
 21
734.04690855951935
  0
LINE
  8
_0-0_0
  6
CONTINUOUS
 62
    7
 10
1271.5076847681007
 20
734.04690855951935
 11
1270.9137744175155
 21
733.16716787602434
  0
LINE
  8
_0-0_0
  6
CONTINUOUS
 62
    7
 10
1270.9137744175155
 20
733.16716787602434
 11
1270.6966218040707
 21
732.08698608565646
  0
LINE
  8
_0-0_0
  6
CONTINUOUS
 62
    7
 10
1270.6966218040707
 20
732.08698608565646
 11
1270.9137744175155
 21
731.00680429528825
  0
LINE
  8
_0-0_0
  6
CONTINUOUS
 62
    7
 10
1270.9137744175155
 20
731.00680429528825
 11
1271.5076847681007
 21
730.12706361179312
  0
LINE
  8
_0-0_0
  6
CONTINUOUS
 62
    7
 10
1271.5076847681007
 20
730.12706361179312
 11
1272.3892786941042
 21
729.53315326120787
  0
LINE
  8
_0-0_0
  6
CONTINUOUS
 62
    7
 10
1272.3892786941042
 20
729.53315326120787
 11
1273.4676072419641
 21
729.31414740525474
  0
LINE
  8
_0-0_0
  6
CONTINUOUS
 62
    7
 10
1273.4676072419641
 20
729.31414740525474
 11
1274.5459357898235
 21
729.53315326120787
  0
LINE
  8
_0-0_0
  6
CONTINUOUS
 62
    7
 10
1274.5459357898235
 20
729.53315326120787
 11
1275.4275297158269
 21
730.12706361179312
  0
LINE
  8
_0-0_0
  6
CONTINUOUS
 62
    7
 10
1275.4275297158269
 20
730.12706361179312
 11
1276.0214508410781
 21
731.00680429528825
  0
LINE
  8
_0-0_0
  6
CONTINUOUS
 62
    7
 10
1276.0214508410781
 20
731.00680429528825
 11
1276.2386034545229
 21
732.08698608565646
  0
LINE
  8
_0-0_0
  6
CONTINUOUS
 62
    7
 10
1238.6938281266246
 20
708.90570217043546
 11
1238.5379294879456
 21
709.68151042814497
  0
LINE
  8
_0-0_0
  6
CONTINUOUS
 62
    7
 10
1238.5379294879456
 20
709.68151042814497
 11
1238.1091947632467
 21
710.31253950222526
  0
LINE
  8
_0-0_0
  6
CONTINUOUS
 62
    7
 10
1238.1091947632467
 20
710.31253950222526
 11
1237.4763016719924
 21
710.7394209844158
  0
LINE
  8
_0-0_0
  6
CONTINUOUS
 62
    7
 10
1237.4763016719924
 20
710.7394209844158
 11
1236.7004934142831
 21
710.89531962309468
  0
LINE
  8
_0-0_0
  6
CONTINUOUS
 62
    7
 10
1236.7004934142831
 20
710.89531962309468
 11
1235.9246959312397
 21
710.7394209844158
  0
LINE
  8
_0-0_0
  6
CONTINUOUS
 62
    7
 10
1235.9246959312397
 20
710.7394209844158
 11
1235.2918028399854
 21
710.31253950222526
  0
LINE
  8
_0-0_0
  6
CONTINUOUS
 62
    7
 10
1235.2918028399854
 20
710.31253950222526
 11
1234.8630681152863
 21
709.68151042814497
  0
LINE
  8
_0-0_0
  6
CONTINUOUS
 62
    7
 10
1234.8630681152863
 20
709.68151042814497
 11
1234.7071694766075
 21
708.90570217043546
  0
LINE
  8
_0-0_0
  6
CONTINUOUS
 62
    7
 10
1234.7071694766075
 20
708.90570217043546
 11
1234.8630681152863
 21
708.12990468739201
  0
LINE
  8
_0-0_0
  6
CONTINUOUS
 62
    7
 10
1234.8630681152863
 20
708.12990468739201
 11
1235.2918028399854
 21
707.49514757896361
  0
LINE
  8
_0-0_0
  6
CONTINUOUS
 62
    7
 10
1235.2918028399854
 20
707.49514757896361
 11
1235.9246959312397
 21
707.06455961175629
  0
LINE
  8
_0-0_0
  6
CONTINUOUS
 62
    7
 10
1235.9246959312397
 20
707.06455961175629
 11
1236.7004934142831
 21
706.90866097307753
  0
LINE
  8
_0-0_0
  6
CONTINUOUS
 62
    7
 10
1236.7004934142831
 20
706.90866097307753
 11
1237.4763016719924
 21
707.06455961175629
  0
LINE
  8
_0-0_0
  6
CONTINUOUS
 62
    7
 10
1237.4763016719924
 20
707.06455961175629
 11
1238.1091947632467
 21
707.49514757896361
  0
LINE
  8
_0-0_0
  6
CONTINUOUS
 62
    7
 10
1238.1091947632467
 20
707.49514757896361
 11
1238.5379294879456
 21
708.12990468739201
  0
LINE
  8
_0-0_0
  6
CONTINUOUS
 62
    7
 10
1238.5379294879456
 20
708.12990468739201
 11
1238.6938281266246
 21
708.90570217043546
  0
LINE
  8
_0-0_0
  6
CONTINUOUS
 62
    7
 10
1313.5272434283072
 20
708.90570217043546
 11
1313.3713447896284
 21
709.68151042814497
  0
LINE
  8
_0-0_0
  6
CONTINUOUS
 62
    7
 10
1313.3713447896284
 20
709.68151042814497
 11
1312.9426100649293
 21
710.31253950222526
  0
LINE
  8
_0-0_0
  6
CONTINUOUS
 62
    7
 10
1312.9426100649293
 20
710.31253950222526
 11
1312.3097169736752
 21
710.7394209844158
  0
LINE
  8
_0-0_0
  6
CONTINUOUS
 62
    7
 10
1312.3097169736752
 20
710.7394209844158
 11
1311.5339194906319
 21
710.89531962309468
  0
LINE
  8
_0-0_0
  6
CONTINUOUS
 62
    7
 10
1311.5339194906319
 20
710.89531962309468
 11
1310.7581112329226
 21
710.7394209844158
  0
LINE
  8
_0-0_0
  6
CONTINUOUS
 62
    7
 10
1310.7581112329226
 20
710.7394209844158
 11
1310.125218141668
 21
710.31253950222526
  0
LINE
  8
_0-0_0
  6
CONTINUOUS
 62
    7
 10
1310.125218141668
 20
710.31253950222526
 11
1309.6964941916349
 21
709.68151042814497
  0
LINE
  8
_0-0_0
  6
CONTINUOUS
 62
    7
 10
1309.6964941916349
 20
709.68151042814497
 11
1309.5405847782902
 21
708.90570217043546
  0
LINE
  8
_0-0_0
  6
CONTINUOUS
 62
    7
 10
1309.5405847782902
 20
708.90570217043546
 11
1309.6964941916349
 21
708.12990468739201
  0
LINE
  8
_0-0_0
  6
CONTINUOUS
 62
    7
 10
1309.6964941916349
 20
708.12990468739201
 11
1310.125218141668
 21
707.49514757896361
  0
LINE
  8
_0-0_0
  6
CONTINUOUS
 62
    7
 10
1310.125218141668
 20
707.49514757896361
 11
1310.7581112329226
 21
707.06455961175629
  0
LINE
  8
_0-0_0
  6
CONTINUOUS
 62
    7
 10
1310.7581112329226
 20
707.06455961175629
 11
1311.5339194906319
 21
706.90866097307753
  0
LINE
  8
_0-0_0
  6
CONTINUOUS
 62
    7
 10
1311.5339194906319
 20
706.90866097307753
 11
1312.3097169736752
 21
707.06455961175629
  0
LINE
  8
_0-0_0
  6
CONTINUOUS
 62
    7
 10
1312.3097169736752
 20
707.06455961175629
 11
1312.9426100649293
 21
707.49514757896361
  0
LINE
  8
_0-0_0
  6
CONTINUOUS
 62
    7
 10
1312.9426100649293
 20
707.49514757896361
 11
1313.3713447896284
 21
708.12990468739201
  0
LINE
  8
_0-0_0
  6
CONTINUOUS
 62
    7
 10
1313.3713447896284
 20
708.12990468739201
 11
1313.5272434283072
 21
708.90570217043546
  0
LINE
  8
_0-0_0
  6
CONTINUOUS
 62
    7
 10
1248.5324232366092
 20
1137.25650397966
 11
1248.3152706231645
 21
1138.336696544694
  0
LINE
  8
_0-0_0
  6
CONTINUOUS
 62
    7
 10
1248.3152706231645
 20
1138.336696544694
 11
1247.7213494979133
 21
1139.2164372281891
  0
LINE
  8
_0-0_0
  6
CONTINUOUS
 62
    7
 10
1247.7213494979133
 20
1139.2164372281891
 11
1246.83975557191
 21
1139.8103475787743
  0
LINE
  8
_0-0_0
  6
CONTINUOUS
 62
    7
 10
1246.83975557191
 20
1139.8103475787743
 11
1245.7614270240504
 21
1140.0293534347275
  0
LINE
  8
_0-0_0
  6
CONTINUOUS
 62
    7
 10
1245.7614270240504
 20
1140.0293534347275
 11
1244.6830984761905
 21
1139.8103475787743
  0
LINE
  8
_0-0_0
  6
CONTINUOUS
 62
    7
 10
1244.6830984761905
 20
1139.8103475787743
 11
1243.8033577926954
 21
1139.2164372281891
  0
LINE
  8
_0-0_0
  6
CONTINUOUS
 62
    7
 10
1243.8033577926954
 20
1139.2164372281891
 11
1243.2094474421101
 21
1138.336696544694
  0
LINE
  8
_0-0_0
  6
CONTINUOUS
 62
    7
 10
1243.2094474421101
 20
1138.336696544694
 11
1242.9922948286653
 21
1137.25650397966
  0
LINE
  8
_0-0_0
  6
CONTINUOUS
 62
    7
 10
1242.9922948286653
 20
1137.25650397966
 11
1243.2094474421101
 21
1136.176322189292
  0
LINE
  8
_0-0_0
  6
CONTINUOUS
 62
    7
 10
1243.2094474421101
 20
1136.176322189292
 11
1243.8033577926954
 21
1135.2965815057969
  0
LINE
  8
_0-0_0
  6
CONTINUOUS
 62
    7
 10
1243.8033577926954
 20
1135.2965815057969
 11
1244.6830984761905
 21
1134.7026711552119
  0
LINE
  8
_0-0_0
  6
CONTINUOUS
 62
    7
 10
1244.6830984761905
 20
1134.7026711552119
 11
1245.7614270240504
 21
1134.4836652992585
  0
LINE
  8
_0-0_0
  6
CONTINUOUS
 62
    7
 10
1245.7614270240504
 20
1134.4836652992585
 11
1246.83975557191
 21
1134.7026711552119
  0
LINE
  8
_0-0_0
  6
CONTINUOUS
 62
    7
 10
1246.83975557191
 20
1134.7026711552119
 11
1247.7213494979133
 21
1135.2965815057969
  0
LINE
  8
_0-0_0
  6
CONTINUOUS
 62
    7
 10
1247.7213494979133
 20
1135.2965815057969
 11
1248.3152706231645
 21
1136.176322189292
  0
LINE
  8
_0-0_0
  6
CONTINUOUS
 62
    7
 10
1248.3152706231645
 20
1136.176322189292
 11
1248.5324232366092
 21
1137.25650397966
  0
LINE
  8
_0-0_0
  6
CONTINUOUS
 62
    7
 10
1308.1003459826884
 20
1137.25650397966
 11
1307.8831933692431
 21
1138.336696544694
  0
LINE
  8
_0-0_0
  6
CONTINUOUS
 62
    7
 10
1307.8831933692431
 20
1138.336696544694
 11
1307.2892722439924
 21
1139.2164372281891
  0
LINE
  8
_0-0_0
  6
CONTINUOUS
 62
    7
 10
1307.2892722439924
 20
1139.2164372281891
 11
1306.409531560497
 21
1139.8103475787743
  0
LINE
  8
_0-0_0
  6
CONTINUOUS
 62
    7
 10
1306.409531560497
 20
1139.8103475787743
 11
1305.3293497701291
 21
1140.0293534347275
  0
LINE
  8
_0-0_0
  6
CONTINUOUS
 62
    7
 10
1305.3293497701291
 20
1140.0293534347275
 11
1304.2510212222694
 21
1139.8103475787743
  0
LINE
  8
_0-0_0
  6
CONTINUOUS
 62
    7
 10
1304.2510212222694
 20
1139.8103475787743
 11
1303.3712805387743
 21
1139.2164372281891
  0
LINE
  8
_0-0_0
  6
CONTINUOUS
 62
    7
 10
1303.3712805387743
 20
1139.2164372281891
 11
1302.7755169456805
 21
1138.336696544694
  0
LINE
  8
_0-0_0
  6
CONTINUOUS
 62
    7
 10
1302.7755169456805
 20
1138.336696544694
 11
1302.5583643322357
 21
1137.25650397966
  0
LINE
  8
_0-0_0
  6
CONTINUOUS
 62
    7
 10
1302.5583643322357
 20
1137.25650397966
 11
1302.7755169456805
 21
1136.176322189292
  0
LINE
  8
_0-0_0
  6
CONTINUOUS
 62
    7
 10
1302.7755169456805
 20
1136.176322189292
 11
1303.3712805387743
 21
1135.2965815057969
  0
LINE
  8
_0-0_0
  6
CONTINUOUS
 62
    7
 10
1303.3712805387743
 20
1135.2965815057969
 11
1304.2510212222694
 21
1134.7026711552119
  0
LINE
  8
_0-0_0
  6
CONTINUOUS
 62
    7
 10
1304.2510212222694
 20
1134.7026711552119
 11
1305.3293497701291
 21
1134.4836652992585
  0
LINE
  8
_0-0_0
  6
CONTINUOUS
 62
    7
 10
1305.3293497701291
 20
1134.4836652992585
 11
1306.409531560497
 21
1134.7026711552119
  0
LINE
  8
_0-0_0
  6
CONTINUOUS
 62
    7
 10
1306.409531560497
 20
1134.7026711552119
 11
1307.2892722439924
 21
1135.2965815057969
  0
LINE
  8
_0-0_0
  6
CONTINUOUS
 62
    7
 10
1307.2892722439924
 20
1135.2965815057969
 11
1307.8831933692431
 21
1136.176322189292
  0
LINE
  8
_0-0_0
  6
CONTINUOUS
 62
    7
 10
1307.8831933692431
 20
1136.176322189292
 11
1308.1003459826884
 21
1137.25650397966
  0
LINE
  8
_0-0_0
  6
CONTINUOUS
 62
    7
 10
1248.5324232366092
 20
1079.8099836229799
 11
1248.3152706231645
 21
1080.8901654133479
  0
LINE
  8
_0-0_0
  6
CONTINUOUS
 62
    7
 10
1248.3152706231645
 20
1080.8901654133479
 11
1247.7213494979133
 21
1081.769906096843
  0
LINE
  8
_0-0_0
  6
CONTINUOUS
 62
    7
 10
1247.7213494979133
 20
1081.769906096843
 11
1246.83975557191
 21
1082.3638164474282
  0
LINE
  8
_0-0_0
  6
CONTINUOUS
 62
    7
 10
1246.83975557191
 20
1082.3638164474282
 11
1245.7614270240504
 21
1082.5828223033814
  0
LINE
  8
_0-0_0
  6
CONTINUOUS
 62
    7
 10
1245.7614270240504
 20
1082.5828223033814
 11
1244.6830984761905
 21
1082.3638164474282
  0
LINE
  8
_0-0_0
  6
CONTINUOUS
 62
    7
 10
1244.6830984761905
 20
1082.3638164474282
 11
1243.8033577926954
 21
1081.769906096843
  0
LINE
  8
_0-0_0
  6
CONTINUOUS
 62
    7
 10
1243.8033577926954
 20
1081.769906096843
 11
1243.2094474421101
 21
1080.8901654133479
  0
LINE
  8
_0-0_0
  6
CONTINUOUS
 62
    7
 10
1243.2094474421101
 20
1080.8901654133479
 11
1242.9922948286653
 21
1079.8099836229799
  0
LINE
  8
_0-0_0
  6
CONTINUOUS
 62
    7
 10
1242.9922948286653
 20
1079.8099836229799
 11
1243.2094474421101
 21
1078.7297910579462
  0
LINE
  8
_0-0_0
  6
CONTINUOUS
 62
    7
 10
1243.2094474421101
 20
1078.7297910579462
 11
1243.8033577926954
 21
1077.8500611491168
  0
LINE
  8
_0-0_0
  6
CONTINUOUS
 62
    7
 10
1243.8033577926954
 20
1077.8500611491168
 11
1244.6830984761905
 21
1077.2561400238656
  0
LINE
  8
_0-0_0
  6
CONTINUOUS
 62
    7
 10
1244.6830984761905
 20
1077.2561400238656
 11
1245.7614270240504
 21
1077.0371341679127
  0
LINE
  8
_0-0_0
  6
CONTINUOUS
 62
    7
 10
1245.7614270240504
 20
1077.0371341679127
 11
1246.83975557191
 21
1077.2561400238656
  0
LINE
  8
_0-0_0
  6
CONTINUOUS
 62
    7
 10
1246.83975557191
 20
1077.2561400238656
 11
1247.7213494979133
 21
1077.8500611491168
  0
LINE
  8
_0-0_0
  6
CONTINUOUS
 62
    7
 10
1247.7213494979133
 20
1077.8500611491168
 11
1248.3152706231645
 21
1078.7297910579462
  0
LINE
  8
_0-0_0
  6
CONTINUOUS
 62
    7
 10
1248.3152706231645
 20
1078.7297910579462
 11
1248.5324232366092
 21
1079.8099836229799
  0
LINE
  8
_0-0_0
  6
CONTINUOUS
 62
    7
 10
1308.1003459826884
 20
1079.8099836229799
 11
1307.8831933692431
 21
1080.8901654133479
  0
LINE
  8
_0-0_0
  6
CONTINUOUS
 62
    7
 10
1307.8831933692431
 20
1080.8901654133479
 11
1307.2892722439924
 21
1081.769906096843
  0
LINE
  8
_0-0_0
  6
CONTINUOUS
 62
    7
 10
1307.2892722439924
 20
1081.769906096843
 11
1306.409531560497
 21
1082.3638164474282
  0
LINE
  8
_0-0_0
  6
CONTINUOUS
 62
    7
 10
1306.409531560497
 20
1082.3638164474282
 11
1305.3293497701291
 21
1082.5828223033814
  0
LINE
  8
_0-0_0
  6
CONTINUOUS
 62
    7
 10
1305.3293497701291
 20
1082.5828223033814
 11
1304.2510212222694
 21
1082.3638164474282
  0
LINE
  8
_0-0_0
  6
CONTINUOUS
 62
    7
 10
1304.2510212222694
 20
1082.3638164474282
 11
1303.3712805387743
 21
1081.769906096843
  0
LINE
  8
_0-0_0
  6
CONTINUOUS
 62
    7
 10
1303.3712805387743
 20
1081.769906096843
 11
1302.7755169456805
 21
1080.8901654133479
  0
LINE
  8
_0-0_0
  6
CONTINUOUS
 62
    7
 10
1302.7755169456805
 20
1080.8901654133479
 11
1302.5583643322357
 21
1079.8099836229799
  0
LINE
  8
_0-0_0
  6
CONTINUOUS
 62
    7
 10
1302.5583643322357
 20
1079.8099836229799
 11
1302.7755169456805
 21
1078.7297910579462
  0
LINE
  8
_0-0_0
  6
CONTINUOUS
 62
    7
 10
1302.7755169456805
 20
1078.7297910579462
 11
1303.3712805387743
 21
1077.8500611491168
  0
LINE
  8
_0-0_0
  6
CONTINUOUS
 62
    7
 10
1303.3712805387743
 20
1077.8500611491168
 11
1304.2510212222694
 21
1077.2561400238656
  0
LINE
  8
_0-0_0
  6
CONTINUOUS
 62
    7
 10
1304.2510212222694
 20
1077.2561400238656
 11
1305.3293497701291
 21
1077.0371341679127
  0
LINE
  8
_0-0_0
  6
CONTINUOUS
 62
    7
 10
1305.3293497701291
 20
1077.0371341679127
 11
1306.409531560497
 21
1077.2561400238656
  0
LINE
  8
_0-0_0
  6
CONTINUOUS
 62
    7
 10
1306.409531560497
 20
1077.2561400238656
 11
1307.2892722439924
 21
1077.8500611491168
  0
LINE
  8
_0-0_0
  6
CONTINUOUS
 62
    7
 10
1307.2892722439924
 20
1077.8500611491168
 11
1307.8831933692431
 21
1078.7297910579462
  0
LINE
  8
_0-0_0
  6
CONTINUOUS
 62
    7
 10
1307.8831933692431
 20
1078.7297910579462
 11
1308.1003459826884
 21
1079.8099836229799
  0
LINE
  8
_0-0_0
  6
CONTINUOUS
 62
    7
 10
1248.5324232366092
 20
1022.3634524916338
 11
1248.3152706231645
 21
1023.443634282002
  0
LINE
  8
_0-0_0
  6
CONTINUOUS
 62
    7
 10
1248.3152706231645
 20
1023.443634282002
 11
1247.7213494979133
 21
1024.3233749654971
  0
LINE
  8
_0-0_0
  6
CONTINUOUS
 62
    7
 10
1247.7213494979133
 20
1024.3233749654971
 11
1246.83975557191
 21
1024.9172853160821
  0
LINE
  8
_0-0_0
  6
CONTINUOUS
 62
    7
 10
1246.83975557191
 20
1024.9172853160821
 11
1245.7614270240504
 21
1025.1363019467012
  0
LINE
  8
_0-0_0
  6
CONTINUOUS
 62
    7
 10
1245.7614270240504
 20
1025.1363019467012
 11
1244.6830984761905
 21
1024.9172853160821
  0
LINE
  8
_0-0_0
  6
CONTINUOUS
 62
    7
 10
1244.6830984761905
 20
1024.9172853160821
 11
1243.8033577926954
 21
1024.3233749654971
  0
LINE
  8
_0-0_0
  6
CONTINUOUS
 62
    7
 10
1243.8033577926954
 20
1024.3233749654971
 11
1243.2094474421101
 21
1023.443634282002
  0
LINE
  8
_0-0_0
  6
CONTINUOUS
 62
    7
 10
1243.2094474421101
 20
1023.443634282002
 11
1242.9922948286653
 21
1022.3634524916338
  0
LINE
  8
_0-0_0
  6
CONTINUOUS
 62
    7
 10
1242.9922948286653
 20
1022.3634524916338
 11
1243.2094474421101
 21
1021.283270701266
  0
LINE
  8
_0-0_0
  6
CONTINUOUS
 62
    7
 10
1243.2094474421101
 20
1021.283270701266
 11
1243.8033577926954
 21
1020.4035300177708
  0
LINE
  8
_0-0_0
  6
CONTINUOUS
 62
    7
 10
1243.8033577926954
 20
1020.4035300177708
 11
1244.6830984761905
 21
1019.8096088925197
  0
LINE
  8
_0-0_0
  6
CONTINUOUS
 62
    7
 10
1244.6830984761905
 20
1019.8096088925197
 11
1245.7614270240504
 21
1019.5906030365664
  0
LINE
  8
_0-0_0
  6
CONTINUOUS
 62
    7
 10
1245.7614270240504
 20
1019.5906030365664
 11
1246.83975557191
 21
1019.8096088925197
  0
LINE
  8
_0-0_0
  6
CONTINUOUS
 62
    7
 10
1246.83975557191
 20
1019.8096088925197
 11
1247.7213494979133
 21
1020.4035300177708
  0
LINE
  8
_0-0_0
  6
CONTINUOUS
 62
    7
 10
1247.7213494979133
 20
1020.4035300177708
 11
1248.3152706231645
 21
1021.283270701266
  0
LINE
  8
_0-0_0
  6
CONTINUOUS
 62
    7
 10
1248.3152706231645
 20
1021.283270701266
 11
1248.5324232366092
 21
1022.3634524916338
  0
LINE
  8
_0-0_0
  6
CONTINUOUS
 62
    7
 10
1308.1003459826884
 20
1022.3634524916338
 11
1307.8831933692431
 21
1023.443634282002
  0
LINE
  8
_0-0_0
  6
CONTINUOUS
 62
    7
 10
1307.8831933692431
 20
1023.443634282002
 11
1307.2892722439924
 21
1024.3233749654971
  0
LINE
  8
_0-0_0
  6
CONTINUOUS
 62
    7
 10
1307.2892722439924
 20
1024.3233749654971
 11
1306.409531560497
 21
1024.9172853160821
  0
LINE
  8
_0-0_0
  6
CONTINUOUS
 62
    7
 10
1306.409531560497
 20
1024.9172853160821
 11
1305.3293497701291
 21
1025.1363019467012
  0
LINE
  8
_0-0_0
  6
CONTINUOUS
 62
    7
 10
1305.3293497701291
 20
1025.1363019467012
 11
1304.2510212222694
 21
1024.9172853160821
  0
LINE
  8
_0-0_0
  6
CONTINUOUS
 62
    7
 10
1304.2510212222694
 20
1024.9172853160821
 11
1303.3712805387743
 21
1024.3233749654971
  0
LINE
  8
_0-0_0
  6
CONTINUOUS
 62
    7
 10
1303.3712805387743
 20
1024.3233749654971
 11
1302.7755169456805
 21
1023.443634282002
  0
LINE
  8
_0-0_0
  6
CONTINUOUS
 62
    7
 10
1302.7755169456805
 20
1023.443634282002
 11
1302.5583643322357
 21
1022.3634524916338
  0
LINE
  8
_0-0_0
  6
CONTINUOUS
 62
    7
 10
1302.5583643322357
 20
1022.3634524916338
 11
1302.7755169456805
 21
1021.283270701266
  0
LINE
  8
_0-0_0
  6
CONTINUOUS
 62
    7
 10
1302.7755169456805
 20
1021.283270701266
 11
1303.3712805387743
 21
1020.4035300177708
  0
LINE
  8
_0-0_0
  6
CONTINUOUS
 62
    7
 10
1303.3712805387743
 20
1020.4035300177708
 11
1304.2510212222694
 21
1019.8096088925197
  0
LINE
  8
_0-0_0
  6
CONTINUOUS
 62
    7
 10
1304.2510212222694
 20
1019.8096088925197
 11
1305.3293497701291
 21
1019.5906030365664
  0
LINE
  8
_0-0_0
  6
CONTINUOUS
 62
    7
 10
1305.3293497701291
 20
1019.5906030365664
 11
1306.409531560497
 21
1019.8096088925197
  0
LINE
  8
_0-0_0
  6
CONTINUOUS
 62
    7
 10
1306.409531560497
 20
1019.8096088925197
 11
1307.2892722439924
 21
1020.4035300177708
  0
LINE
  8
_0-0_0
  6
CONTINUOUS
 62
    7
 10
1307.2892722439924
 20
1020.4035300177708
 11
1307.8831933692431
 21
1021.283270701266
  0
LINE
  8
_0-0_0
  6
CONTINUOUS
 62
    7
 10
1307.8831933692431
 20
1021.283270701266
 11
1308.1003459826884
 21
1022.3634524916338
  0
LINE
  8
_0-0_0
  6
CONTINUOUS
 62
    7
 10
1248.5324232366092
 20
964.92063861997042
 11
1248.3152706231645
 21
965.99710315065613
  0
LINE
  8
_0-0_0
  6
CONTINUOUS
 62
    7
 10
1248.3152706231645
 20
965.99710315065613
 11
1247.7213494979133
 21
966.88056109383342
  0
LINE
  8
_0-0_0
  6
CONTINUOUS
 62
    7
 10
1247.7213494979133
 20
966.88056109383342
 11
1246.83975557191
 21
967.470764959402
  0
LINE
  8
_0-0_0
  6
CONTINUOUS
 62
    7
 10
1246.83975557191
 20
967.470764959402
 11
1245.7614270240504
 21
967.68977081535536
  0
LINE
  8
_0-0_0
  6
CONTINUOUS
 62
    7
 10
1245.7614270240504
 20
967.68977081535536
 11
1244.6830984761905
 21
967.470764959402
  0
LINE
  8
_0-0_0
  6
CONTINUOUS
 62
    7
 10
1244.6830984761905
 20
967.470764959402
 11
1243.8033577926954
 21
966.88056109383342
  0
LINE
  8
_0-0_0
  6
CONTINUOUS
 62
    7
 10
1243.8033577926954
 20
966.88056109383342
 11
1243.2094474421101
 21
965.99710315065613
  0
LINE
  8
_0-0_0
  6
CONTINUOUS
 62
    7
 10
1243.2094474421101
 20
965.99710315065613
 11
1242.9922948286653
 21
964.92063861997042
  0
LINE
  8
_0-0_0
  6
CONTINUOUS
 62
    7
 10
1242.9922948286653
 20
964.92063861997042
 11
1243.2094474421101
 21
963.84044605493659
  0
LINE
  8
_0-0_0
  6
CONTINUOUS
 62
    7
 10
1243.2094474421101
 20
963.84044605493659
 11
1243.8033577926954
 21
962.96071614610707
  0
LINE
  8
_0-0_0
  6
CONTINUOUS
 62
    7
 10
1243.8033577926954
 20
962.96071614610707
 11
1244.6830984761905
 21
962.3667950208561
  0
LINE
  8
_0-0_0
  6
CONTINUOUS
 62
    7
 10
1244.6830984761905
 20
962.3667950208561
 11
1245.7614270240504
 21
962.14778916490309
  0
LINE
  8
_0-0_0
  6
CONTINUOUS
 62
    7
 10
1245.7614270240504
 20
962.14778916490309
 11
1246.83975557191
 21
962.3667950208561
  0
LINE
  8
_0-0_0
  6
CONTINUOUS
 62
    7
 10
1246.83975557191
 20
962.3667950208561
 11
1247.7213494979133
 21
962.96071614610707
  0
LINE
  8
_0-0_0
  6
CONTINUOUS
 62
    7
 10
1247.7213494979133
 20
962.96071614610707
 11
1248.3152706231645
 21
963.84044605493659
  0
LINE
  8
_0-0_0
  6
CONTINUOUS
 62
    7
 10
1248.3152706231645
 20
963.84044605493659
 11
1248.5324232366092
 21
964.92063861997042
  0
LINE
  8
_0-0_0
  6
CONTINUOUS
 62
    7
 10
1308.0910582208151
 20
964.75730546192665
 11
1307.87390560737
 21
965.83378076727797
  0
LINE
  8
_0-0_0
  6
CONTINUOUS
 62
    7
 10
1307.87390560737
 20
965.83378076727797
 11
1307.2799952567848
 21
966.71722793578988
  0
LINE
  8
_0-0_0
  6
CONTINUOUS
 62
    7
 10
1307.2799952567848
 20
966.71722793578988
 11
1306.4002545732899
 21
967.30743180135858
  0
LINE
  8
_0-0_0
  6
CONTINUOUS
 62
    7
 10
1306.4002545732899
 20
967.30743180135858
 11
1305.32192602543
 21
967.52643765731159
  0
LINE
  8
_0-0_0
  6
CONTINUOUS
 62
    7
 10
1305.32192602543
 20
967.52643765731159
 11
1304.2454507200787
 21
967.30743180135858
  0
LINE
  8
_0-0_0
  6
CONTINUOUS
 62
    7
 10
1304.2454507200787
 20
967.30743180135858
 11
1303.3657208112493
 21
966.71722793578988
  0
LINE
  8
_0-0_0
  6
CONTINUOUS
 62
    7
 10
1303.3657208112493
 20
966.71722793578988
 11
1302.7717996859983
 21
965.83378076727797
  0
LINE
  8
_0-0_0
  6
CONTINUOUS
 62
    7
 10
1302.7717996859983
 20
965.83378076727797
 11
1302.5546470725533
 21
964.75730546192665
  0
LINE
  8
_0-0_0
  6
CONTINUOUS
 62
    7
 10
1302.5546470725533
 20
964.75730546192665
 11
1302.7717996859983
 21
963.68083015657533
  0
LINE
  8
_0-0_0
  6
CONTINUOUS
 62
    7
 10
1302.7717996859983
 20
963.68083015657533
 11
1303.3657208112493
 21
962.79738298806342
  0
LINE
  8
_0-0_0
  6
CONTINUOUS
 62
    7
 10
1303.3657208112493
 20
962.79738298806342
 11
1304.2454507200787
 21
962.20717912249484
  0
LINE
  8
_0-0_0
  6
CONTINUOUS
 62
    7
 10
1304.2454507200787
 20
962.20717912249484
 11
1305.32192602543
 21
961.98817326654182
  0
LINE
  8
_0-0_0
  6
CONTINUOUS
 62
    7
 10
1305.32192602543
 20
961.98817326654182
 11
1306.4002545732899
 21
962.20717912249484
  0
LINE
  8
_0-0_0
  6
CONTINUOUS
 62
    7
 10
1306.4002545732899
 20
962.20717912249484
 11
1307.2799952567848
 21
962.79738298806342
  0
LINE
  8
_0-0_0
  6
CONTINUOUS
 62
    7
 10
1307.2799952567848
 20
962.79738298806342
 11
1307.87390560737
 21
963.68083015657533
  0
LINE
  8
_0-0_0
  6
CONTINUOUS
 62
    7
 10
1307.87390560737
 20
963.68083015657533
 11
1308.0910582208151
 21
964.75730546192665
  0
LINE
  8
_0-0_0
  6
CONTINUOUS
 62
    7
 10
1248.5324232366092
 20
907.47039022894205
 11
1248.3152706231645
 21
908.55058279397576
  0
LINE
  8
_0-0_0
  6
CONTINUOUS
 62
    7
 10
1248.3152706231645
 20
908.55058279397576
 11
1247.7213494979133
 21
909.43031270280494
  0
LINE
  8
_0-0_0
  6
CONTINUOUS
 62
    7
 10
1247.7213494979133
 20
909.43031270280494
 11
1246.83975557191
 21
910.02423382805614
  0
LINE
  8
_0-0_0
  6
CONTINUOUS
 62
    7
 10
1246.83975557191
 20
910.02423382805614
 11
1245.7614270240504
 21
910.24323968400938
  0
LINE
  8
_0-0_0
  6
CONTINUOUS
 62
    7
 10
1245.7614270240504
 20
910.24323968400938
 11
1244.6830984761905
 21
910.02423382805614
  0
LINE
  8
_0-0_0
  6
CONTINUOUS
 62
    7
 10
1244.6830984761905
 20
910.02423382805614
 11
1243.8033577926954
 21
909.43031270280494
  0
LINE
  8
_0-0_0
  6
CONTINUOUS
 62
    7
 10
1243.8033577926954
 20
909.43031270280494
 11
1243.2094474421101
 21
908.55058279397576
  0
LINE
  8
_0-0_0
  6
CONTINUOUS
 62
    7
 10
1243.2094474421101
 20
908.55058279397576
 11
1242.9922948286653
 21
907.47039022894205
  0
LINE
  8
_0-0_0
  6
CONTINUOUS
 62
    7
 10
1242.9922948286653
 20
907.47039022894205
 11
1243.2094474421101
 21
906.39020843857395
  0
LINE
  8
_0-0_0
  6
CONTINUOUS
 62
    7
 10
1243.2094474421101
 20
906.39020843857395
 11
1243.8033577926954
 21
905.51418501476121
  0
LINE
  8
_0-0_0
  6
CONTINUOUS
 62
    7
 10
1243.8033577926954
 20
905.51418501476121
 11
1244.6830984761905
 21
904.92026388951012
  0
LINE
  8
_0-0_0
  6
CONTINUOUS
 62
    7
 10
1244.6830984761905
 20
904.92026388951012
 11
1245.7614270240504
 21
904.701258033557
  0
LINE
  8
_0-0_0
  6
CONTINUOUS
 62
    7
 10
1245.7614270240504
 20
904.701258033557
 11
1246.83975557191
 21
904.92026388951012
  0
LINE
  8
_0-0_0
  6
CONTINUOUS
 62
    7
 10
1246.83975557191
 20
904.92026388951012
 11
1247.7213494979133
 21
905.51418501476121
  0
LINE
  8
_0-0_0
  6
CONTINUOUS
 62
    7
 10
1247.7213494979133
 20
905.51418501476121
 11
1248.3152706231645
 21
906.39020843857395
  0
LINE
  8
_0-0_0
  6
CONTINUOUS
 62
    7
 10
1248.3152706231645
 20
906.39020843857395
 11
1248.5324232366092
 21
907.47039022894205
  0
LINE
  8
_0-0_0
  6
CONTINUOUS
 62
    7
 10
1308.0947754804974
 20
907.34790382874155
 11
1307.8776228670527
 21
908.42436835942692
  0
LINE
  8
_0-0_0
  6
CONTINUOUS
 62
    7
 10
1307.8776228670527
 20
908.42436835942692
 11
1307.2837017418015
 21
909.30782630260467
  0
LINE
  8
_0-0_0
  6
CONTINUOUS
 62
    7
 10
1307.2837017418015
 20
909.30782630260467
 11
1306.403971832972
 21
909.89803016817314
  0
LINE
  8
_0-0_0
  6
CONTINUOUS
 62
    7
 10
1306.403971832972
 20
909.89803016817314
 11
1305.3256432851122
 21
910.11703602412638
  0
LINE
  8
_0-0_0
  6
CONTINUOUS
 62
    7
 10
1305.3256432851122
 20
910.11703602412638
 11
1304.2473147372527
 21
909.89803016817314
  0
LINE
  8
_0-0_0
  6
CONTINUOUS
 62
    7
 10
1304.2473147372527
 20
909.89803016817314
 11
1303.3675740537574
 21
909.30782630260467
  0
LINE
  8
_0-0_0
  6
CONTINUOUS
 62
    7
 10
1303.3675740537574
 20
909.30782630260467
 11
1302.7736529285066
 21
908.42436835942692
  0
LINE
  8
_0-0_0
  6
CONTINUOUS
 62
    7
 10
1302.7736529285066
 20
908.42436835942692
 11
1302.5565110897276
 21
907.34790382874155
  0
LINE
  8
_0-0_0
  6
CONTINUOUS
 62
    7
 10
1302.5565110897276
 20
907.34790382874155
 11
1302.7736529285066
 21
906.27142852339011
  0
LINE
  8
_0-0_0
  6
CONTINUOUS
 62
    7
 10
1302.7736529285066
 20
906.27142852339011
 11
1303.3675740537574
 21
905.38798135487821
  0
LINE
  8
_0-0_0
  6
CONTINUOUS
 62
    7
 10
1303.3675740537574
 20
905.38798135487821
 11
1304.2473147372527
 21
904.79776671464379
  0
LINE
  8
_0-0_0
  6
CONTINUOUS
 62
    7
 10
1304.2473147372527
 20
904.79776671464379
 11
1305.3256432851122
 21
904.57876085869066
  0
LINE
  8
_0-0_0
  6
CONTINUOUS
 62
    7
 10
1305.3256432851122
 20
904.57876085869066
 11
1306.403971832972
 21
904.79776671464379
  0
LINE
  8
_0-0_0
  6
CONTINUOUS
 62
    7
 10
1306.403971832972
 20
904.79776671464379
 11
1307.2837017418015
 21
905.38798135487821
  0
LINE
  8
_0-0_0
  6
CONTINUOUS
 62
    7
 10
1307.2837017418015
 20
905.38798135487821
 11
1307.8776228670527
 21
906.27142852339011
  0
LINE
  8
_0-0_0
  6
CONTINUOUS
 62
    7
 10
1307.8776228670527
 20
906.27142852339011
 11
1308.0947754804974
 21
907.34790382874155
  0
LINE
  8
_0-0_0
  6
CONTINUOUS
 62
    7
 10
1212.9104516590794
 20
760.75456817875397
 11
1210.145025948711
 21
761.44129150007518
  0
LINE
  8
_0-0_0
  6
CONTINUOUS
 62
    7
 10
1210.145025948711
 20
761.44129150007518
 11
1207.5596341282924
 21
762.66252443972405
  0
LINE
  8
_0-0_0
  6
CONTINUOUS
 62
    7
 10
1207.5596341282924
 20
762.66252443972405
 11
1205.6145591438271
 21
764.46654827490852
  0
LINE
  8
_0-0_0
  6
CONTINUOUS
 62
    7
 10
1205.6145591438271
 20
764.46654827490852
 11
1204.7663774563023
 21
766.90902492887187
  0
LINE
  8
_0-0_0
  6
CONTINUOUS
 62
    7
 10
1204.7700839413187
 20
784.38500481026244
 11
1205.3547173046968
 21
788.1192561405137
  0
LINE
  8
_0-0_0
  6
CONTINUOUS
 62
    7
 10
1205.3547173046968
 20
788.1192561405137
 11
1206.5778142615197
 21
790.85869335710277
  0
LINE
  8
_0-0_0
  6
CONTINUOUS
 62
    7
 10
1206.5778142615197
 20
790.85869335710277
 11
1208.0477588105837
 21
792.64785892822329
  0
LINE
  8
_0-0_0
  6
CONTINUOUS
 62
    7
 10
1208.0477588105837
 20
792.64785892822329
 11
1209.3803586953832
 21
793.53131687140092
  0
LINE
  8
_0-0_0
  6
CONTINUOUS
 62
    7
 10
1209.3803586953832
 20
793.53131687140092
 11
1210.2415346297978
 21
793.83940766374189
  0
LINE
  8
_0-0_0
  6
CONTINUOUS
 62
    7
 10
1210.2415346297978
 20
793.83940766374189
 11
1211.1194220707846
 21
794.09924950287268
  0
LINE
  8
_0-0_0
  6
CONTINUOUS
 62
    7
 10
1211.1194220707846
 20
794.09924950287268
 11
1212.0102929839954
 21
794.31083161412676
  0
LINE
  8
_0-0_0
  6
CONTINUOUS
 62
    7
 10
1212.0102929839954
 20
794.31083161412676
 11
1212.9104516590794
 21
794.47415399750469
  0
LINE
  8
_0-0_0
  6
CONTINUOUS
 62
    7
 10
1214.7515834430928
 20
809.34432406688802
 11
1214.7515834430928
 21
793.47935065850777
  0
LINE
  8
_0-0_0
  6
CONTINUOUS
 62
    7
 10
1214.7515834430928
 20
793.47935065850777
 11
1214.7515834430928
 21
777.61436647546225
  0
LINE
  8
_0-0_0
  6
CONTINUOUS
 62
    7
 10
1214.7515834430928
 20
777.61436647546225
 11
1214.7515834430928
 21
761.74938229241639
  0
LINE
  8
_0-0_0
  6
CONTINUOUS
 62
    7
 10
1214.7515834430928
 20
761.74938229241639
 11
1214.7515834430928
 21
745.88439810937075
  0
LINE
  8
_0-0_0
  6
CONTINUOUS
 62
    7
 10
1216.8006016280096
 20
807.80756581553317
 11
1216.8006016280096
 21
804.73776657250608
  0
LINE
  8
_0-0_0
  6
CONTINUOUS
 62
    7
 10
1216.8006016280096
 20
804.73776657250608
 11
1216.8006016280096
 21
801.66796732947887
  0
LINE
  8
_0-0_0
  6
CONTINUOUS
 62
    7
 10
1216.8006016280096
 20
801.66796732947887
 11
1216.8006016280096
 21
798.59815731178617
  0
LINE
  8
_0-0_0
  6
CONTINUOUS
 62
    7
 10
1216.8006016280096
 20
798.59815731178617
 11
1216.8006016280096
 21
795.52835806875896
  0
LINE
  8
_0-0_0
  6
CONTINUOUS
 62
    7
 10
1214.7515834430928
 20
795.01610890986262
 11
1215.1357756995978
 21
795.01610890986262
  0
LINE
  8
_0-0_0
  6
CONTINUOUS
 62
    7
 10
1215.1357756995978
 20
795.01610890986262
 11
1215.5199679561028
 21
795.01610890986262
  0
LINE
  8
_0-0_0
  6
CONTINUOUS
 62
    7
 10
1215.5199679561028
 20
795.01610890986262
 11
1215.902296195434
 21
795.01610890986262
  0
LINE
  8
_0-0_0
  6
CONTINUOUS
 62
    7
 10
1215.902296195434
 20
795.01610890986262
 11
1216.286488451939
 21
795.01610890986262
  0
LINE
  8
_0-0_0
  6
CONTINUOUS
 62
    7
 10
1214.7515834430928
 20
808.31982574909534
 11
1215.1357756995978
 21
808.31982574909534
  0
LINE
  8
_0-0_0
  6
CONTINUOUS
 62
    7
 10
1215.1357756995978
 20
808.31982574909534
 11
1215.5199679561028
 21
808.31982574909534
  0
LINE
  8
_0-0_0
  6
CONTINUOUS
 62
    7
 10
1215.5199679561028
 20
808.31982574909534
 11
1215.902296195434
 21
808.31982574909534
  0
LINE
  8
_0-0_0
  6
CONTINUOUS
 62
    7
 10
1215.902296195434
 20
808.31982574909534
 11
1216.286488451939
 21
808.31982574909534
  0
LINE
  8
_0-0_0
  6
CONTINUOUS
 62
    7
 10
1212.9104516590794
 20
809.33690032218897
 11
1213.3707346050826
 21
809.33690032218897
  0
LINE
  8
_0-0_0
  6
CONTINUOUS
 62
    7
 10
1213.3707346050826
 20
809.33690032218897
 11
1213.831017551086
 21
809.34061758187136
  0
LINE
  8
_0-0_0
  6
CONTINUOUS
 62
    7
 10
1213.831017551086
 20
809.34061758187136
 11
1214.2913004970894
 21
809.34432406688802
  0
LINE
  8
_0-0_0
  6
CONTINUOUS
 62
    7
 10
1214.2913004970894
 20
809.34432406688802
 11
1214.7515834430928
 21
809.34432406688802
  0
LINE
  8
_0-0_0
  6
CONTINUOUS
 62
    7
 10
1216.8006016280096
 20
807.80756581553317
 11
1216.7597656448322
 21
808.00801769707175
  0
LINE
  8
_0-0_0
  6
CONTINUOUS
 62
    7
 10
1216.7597656448322
 20
808.00801769707175
 11
1216.6502627168557
 21
808.17134008044957
  0
LINE
  8
_0-0_0
  6
CONTINUOUS
 62
    7
 10
1216.6502627168557
 20
808.17134008044957
 11
1216.4869403334778
 21
808.2789897659178
  0
LINE
  8
_0-0_0
  6
CONTINUOUS
 62
    7
 10
1216.4869403334778
 20
808.2789897659178
 11
1216.2883416944474
 21
808.31982574909534
  0
LINE
  8
_0-0_0
  6
CONTINUOUS
 62
    7
 10
1216.2883416944474
 20
795.01610890986262
 11
1216.4887935759859
 21
795.05693411837433
  0
LINE
  8
_0-0_0
  6
CONTINUOUS
 62
    7
 10
1216.4887935759859
 20
795.05693411837433
 11
1216.6502627168557
 21
795.16458380384256
  0
LINE
  8
_0-0_0
  6
CONTINUOUS
 62
    7
 10
1216.6502627168557
 20
795.16458380384256
 11
1216.7597656448322
 21
795.32790618722038
  0
LINE
  8
_0-0_0
  6
CONTINUOUS
 62
    7
 10
1216.7597656448322
 20
795.32790618722038
 11
1216.8006016280096
 21
795.52835806875896
  0
LINE
  8
_0-0_0
  6
CONTINUOUS
 62
    7
 10
1219.8704008710367
 20
786.1704638963663
 11
1218.5897671991299
 21
785.64707373308852
  0
LINE
  8
_0-0_0
  6
CONTINUOUS
 62
    7
 10
1218.5897671991299
 20
785.64707373308852
 11
1217.3109975443977
 21
785.12740082949335
  0
LINE
  8
_0-0_0
  6
CONTINUOUS
 62
    7
 10
1217.3109975443977
 20
785.12740082949335
 11
1216.0322171149994
 21
784.60772792589796
  0
LINE
  8
_0-0_0
  6
CONTINUOUS
 62
    7
 10
1216.0322171149994
 20
784.60772792589796
 11
1214.7515834430928
 21
784.08804424763707
  0
LINE
  8
_0-0_0
  6
CONTINUOUS
 62
    7
 10
1218.3354958621903
 20
793.73547523795605
 11
1218.3354958621903
 21
791.69017431272152
  0
LINE
  8
_0-0_0
  6
CONTINUOUS
 62
    7
 10
1218.3354958621903
 20
791.69017431272152
 11
1218.3354958621903
 21
789.64116690247033
  0
LINE
  8
_0-0_0
  6
CONTINUOUS
 62
    7
 10
1218.3354958621903
 20
789.64116690247033
 11
1218.3354958621903
 21
787.59214871755375
  0
LINE
  8
_0-0_0
  6
CONTINUOUS
 62
    7
 10
1218.3354958621903
 20
787.59214871755375
 11
1218.3354958621903
 21
785.54685856698495
  0
LINE
  8
_0-0_0
  6
CONTINUOUS
 62
    7
 10
1218.3354958621903
 20
793.73547523795605
 11
1218.7196881186956
 21
793.73547523795605
  0
LINE
  8
_0-0_0
  6
CONTINUOUS
 62
    7
 10
1218.7196881186956
 20
793.73547523795605
 11
1219.1020271326922
 21
793.73547523795605
  0
LINE
  8
_0-0_0
  6
CONTINUOUS
 62
    7
 10
1219.1020271326922
 20
793.73547523795605
 11
1219.4843553720234
 21
793.73547523795605
  0
LINE
  8
_0-0_0
  6
CONTINUOUS
 62
    7
 10
1219.4843553720234
 20
793.73547523795605
 11
1219.8685476285282
 21
793.73547523795605
  0
LINE
  8
_0-0_0
  6
CONTINUOUS
 62
    7
 10
1217.5095854087622
 20
804.06960800026525
 11
1217.5114386512705
 21
804.07332525994752
  0
LINE
  8
_0-0_0
  6
CONTINUOUS
 62
    7
 10
1217.5114386512705
 20
804.07332525994752
 11
1217.5132918937786
 21
804.07332525994752
  0
LINE
  8
_0-0_0
  6
CONTINUOUS
 62
    7
 10
1217.5132918937786
 20
804.07332525994752
 11
1217.5151559109529
 21
804.07332525994752
  0
LINE
  8
_0-0_0
  6
CONTINUOUS
 62
    7
 10
1217.5151559109529
 20
804.07332525994752
 11
1217.517009153461
 21
804.07332525994752
  0
LINE
  8
_0-0_0
  6
CONTINUOUS
 62
    7
 10
1217.5949638601335
 20
802.6998893919706
 11
1217.5949638601335
 21
802.71473688136871
  0
LINE
  8
_0-0_0
  6
CONTINUOUS
 62
    7
 10
1217.5949638601335
 20
802.71473688136871
 11
1217.5968171026416
 21
802.72587788574992
  0
LINE
  8
_0-0_0
  6
CONTINUOUS
 62
    7
 10
1217.5968171026416
 20
802.72587788574992
 11
1217.5986703451499
 21
802.73700811546541
  0
LINE
  8
_0-0_0
  6
CONTINUOUS
 62
    7
 10
1217.5986703451499
 20
802.73700811546541
 11
1217.5986703451499
 21
802.75185560486352
  0
LINE
  8
_0-0_0
  6
CONTINUOUS
 62
    7
 10
1217.517009153461
 20
800.28710771680312
 11
1217.4780371874579
 21
800.0049946435754
  0
LINE
  8
_0-0_0
  6
CONTINUOUS
 62
    7
 10
1217.4780371874579
 20
800.0049946435754
 11
1217.4390544467888
 21
799.72289234501375
  0
LINE
  8
_0-0_0
  6
CONTINUOUS
 62
    7
 10
1217.4390544467888
 20
799.72289234501375
 11
1217.3982292382771
 21
799.44077927178637
  0
LINE
  8
_0-0_0
  6
CONTINUOUS
 62
    7
 10
1217.3982292382771
 20
799.44077927178637
 11
1217.3592464976082
 21
799.15866619855876
  0
LINE
  8
_0-0_0
  6
CONTINUOUS
 62
    7
 10
1217.517009153461
 20
802.18021648837521
 11
1217.517009153461
 21
802.30642014825821
  0
LINE
  8
_0-0_0
  6
CONTINUOUS
 62
    7
 10
1217.517009153461
 20
802.30642014825821
 11
1217.5151559109529
 21
802.43634106782349
  0
LINE
  8
_0-0_0
  6
CONTINUOUS
 62
    7
 10
1217.5151559109529
 20
802.43634106782349
 11
1217.5132918937786
 21
802.56626198738877
  0
LINE
  8
_0-0_0
  6
CONTINUOUS
 62
    7
 10
1217.5132918937786
 20
802.56626198738877
 11
1217.5095854087622
 21
802.69246564727166
  0
LINE
  8
_0-0_0
  6
CONTINUOUS
 62
    7
 10
1217.5986703451499
 20
802.75185560486352
 11
1217.5968171026416
 21
802.80011533273989
  0
LINE
  8
_0-0_0
  6
CONTINUOUS
 62
    7
 10
1217.5968171026416
 20
802.80011533273989
 11
1217.5949638601335
 21
802.84837506061626
  0
LINE
  8
_0-0_0
  6
CONTINUOUS
 62
    7
 10
1217.5949638601335
 20
802.84837506061626
 11
1217.5949638601335
 21
802.89662401382679
  0
LINE
  8
_0-0_0
  6
CONTINUOUS
 62
    7
 10
1217.5949638601335
 20
802.89662401382679
 11
1217.5930998429592
 21
802.94488374170317
  0
LINE
  8
_0-0_0
  6
CONTINUOUS
 62
    7
 10
1217.5095854087622
 20
801.66796732947887
 11
1217.5132918937786
 21
801.79417098936187
  0
LINE
  8
_0-0_0
  6
CONTINUOUS
 62
    7
 10
1217.5132918937786
 20
801.79417098936187
 11
1217.5151559109529
 21
801.92409190892704
  0
LINE
  8
_0-0_0
  6
CONTINUOUS
 62
    7
 10
1217.5151559109529
 20
801.92409190892704
 11
1217.517009153461
 21
802.05401282849243
  0
LINE
  8
_0-0_0
  6
CONTINUOUS
 62
    7
 10
1217.517009153461
 20
802.05401282849243
 11
1217.517009153461
 21
802.18021648837521
  0
LINE
  8
_0-0_0
  6
CONTINUOUS
 62
    7
 10
1217.5968171026416
 20
801.46380896292374
 11
1217.5986703451499
 21
801.50463417143544
  0
LINE
  8
_0-0_0
  6
CONTINUOUS
 62
    7
 10
1217.5986703451499
 20
801.50463417143544
 11
1217.5986703451499
 21
801.54547015461276
  0
LINE
  8
_0-0_0
  6
CONTINUOUS
 62
    7
 10
1217.5986703451499
 20
801.54547015461276
 11
1217.5986703451499
 21
801.58629536312424
  0
LINE
  8
_0-0_0
  6
CONTINUOUS
 62
    7
 10
1217.5986703451499
 20
801.58629536312424
 11
1217.5986703451499
 21
801.62713134630155
  0
LINE
  8
_0-0_0
  6
CONTINUOUS
 62
    7
 10
1217.5949638601335
 20
801.41184275003081
 11
1217.5949638601335
 21
801.42297297974642
  0
LINE
  8
_0-0_0
  6
CONTINUOUS
 62
    7
 10
1217.5949638601335
 20
801.42297297974642
 11
1217.5949638601335
 21
801.43782046914441
  0
LINE
  8
_0-0_0
  6
CONTINUOUS
 62
    7
 10
1217.5949638601335
 20
801.43782046914441
 11
1217.5949638601335
 21
801.44896147352574
  0
LINE
  8
_0-0_0
  6
CONTINUOUS
 62
    7
 10
1217.5949638601335
 20
801.44896147352574
 11
1217.5968171026416
 21
801.46009170324135
  0
LINE
  8
_0-0_0
  6
CONTINUOUS
 62
    7
 10
1217.5930998429592
 20
801.35986576247205
 11
1217.5930998429592
 21
801.3710067668535
  0
LINE
  8
_0-0_0
  6
CONTINUOUS
 62
    7
 10
1217.5930998429592
 20
801.3710067668535
 11
1217.5930998429592
 21
801.38585425625138
  0
LINE
  8
_0-0_0
  6
CONTINUOUS
 62
    7
 10
1217.5930998429592
 20
801.38585425625138
 11
1217.5930998429592
 21
801.40070174564937
  0
LINE
  8
_0-0_0
  6
CONTINUOUS
 62
    7
 10
1217.5930998429592
 20
801.40070174564937
 11
1217.5930998429592
 21
801.41184275003081
  0
LINE
  8
_0-0_0
  6
CONTINUOUS
 62
    7
 10
1217.5949638601335
 20
801.66425006979671
 11
1217.5949638601335
 21
801.66796732947887
  0
LINE
  8
_0-0_0
  6
CONTINUOUS
 62
    7
 10
1217.5949638601335
 20
801.66796732947887
 11
1217.5930998429592
 21
801.66796732947887
  0
LINE
  8
_0-0_0
  6
CONTINUOUS
 62
    7
 10
1217.5949638601335
 20
802.94488374170317
 11
1217.5949638601335
 21
802.95973123110116
  0
LINE
  8
_0-0_0
  6
CONTINUOUS
 62
    7
 10
1217.5949638601335
 20
802.95973123110116
 11
1217.5949638601335
 21
802.97087223548237
  0
LINE
  8
_0-0_0
  6
CONTINUOUS
 62
    7
 10
1217.5949638601335
 20
802.97087223548237
 11
1217.5949638601335
 21
802.98200246519809
  0
LINE
  8
_0-0_0
  6
CONTINUOUS
 62
    7
 10
1217.5949638601335
 20
802.98200246519809
 11
1217.5930998429592
 21
802.9968499545962
  0
LINE
  8
_0-0_0
  6
CONTINUOUS
 62
    7
 10
1217.5968171026416
 20
801.62713134630155
 11
1217.5949638601335
 21
801.638272350683
  0
LINE
  8
_0-0_0
  6
CONTINUOUS
 62
    7
 10
1217.5949638601335
 20
801.638272350683
 11
1217.5949638601335
 21
801.64569609538205
  0
LINE
  8
_0-0_0
  6
CONTINUOUS
 62
    7
 10
1217.5949638601335
 20
801.64569609538205
 11
1217.5949638601335
 21
801.65311984008099
  0
LINE
  8
_0-0_0
  6
CONTINUOUS
 62
    7
 10
1217.5949638601335
 20
801.65311984008099
 11
1217.5930998429592
 21
801.66054358477993
  0
LINE
  8
_0-0_0
  6
CONTINUOUS
 62
    7
 10
1217.0548729649495
 20
798.90625887879298
 11
1217.0158902242804
 21
798.90625887879298
  0
LINE
  8
_0-0_0
  6
CONTINUOUS
 62
    7
 10
1217.0158902242804
 20
798.90625887879298
 11
1216.9787715007853
 21
798.90625887879298
  0
LINE
  8
_0-0_0
  6
CONTINUOUS
 62
    7
 10
1216.9787715007853
 20
798.90625887879298
 11
1216.9416527772905
 21
798.90625887879298
  0
LINE
  8
_0-0_0
  6
CONTINUOUS
 62
    7
 10
1216.9416527772905
 20
798.90625887879298
 11
1216.9026808112872
 21
798.90625887879298
  0
LINE
  8
_0-0_0
  6
CONTINUOUS
 62
    7
 10
1217.5930998429592
 20
801.66796732947887
 11
1217.5726926260363
 21
801.66796732947887
  0
LINE
  8
_0-0_0
  6
CONTINUOUS
 62
    7
 10
1217.5726926260363
 20
801.66796732947887
 11
1217.5504213919394
 21
801.66796732947887
  0
LINE
  8
_0-0_0
  6
CONTINUOUS
 62
    7
 10
1217.5504213919394
 20
801.66796732947887
 11
1217.5281501578424
 21
801.66796732947887
  0
LINE
  8
_0-0_0
  6
CONTINUOUS
 62
    7
 10
1217.5281501578424
 20
801.66796732947887
 11
1217.5077321662538
 21
801.66796732947887
  0
LINE
  8
_0-0_0
  6
CONTINUOUS
 62
    7
 10
1217.5095854087622
 20
802.69246564727166
 11
1217.5300034003508
 21
802.69246564727166
  0
LINE
  8
_0-0_0
  6
CONTINUOUS
 62
    7
 10
1217.5300034003508
 20
802.69246564727166
 11
1217.5504213919394
 21
802.69246564727166
  0
LINE
  8
_0-0_0
  6
CONTINUOUS
 62
    7
 10
1217.5504213919394
 20
802.69246564727166
 11
1217.5726926260363
 21
802.69246564727166
  0
LINE
  8
_0-0_0
  6
CONTINUOUS
 62
    7
 10
1217.5726926260363
 20
802.69246564727166
 11
1217.5930998429592
 21
802.69246564727166
  0
LINE
  8
_0-0_0
  6
CONTINUOUS
 62
    7
 10
1217.517009153461
 20
804.07332525994752
 11
1217.4780371874579
 21
804.35543833317513
  0
LINE
  8
_0-0_0
  6
CONTINUOUS
 62
    7
 10
1217.4780371874579
 20
804.35543833317513
 11
1217.4390544467888
 21
804.63754063173667
  0
LINE
  8
_0-0_0
  6
CONTINUOUS
 62
    7
 10
1217.4390544467888
 20
804.63754063173667
 11
1217.3982292382771
 21
804.91965370496428
  0
LINE
  8
_0-0_0
  6
CONTINUOUS
 62
    7
 10
1217.3982292382771
 20
804.91965370496428
 11
1217.3592464976082
 21
805.20176677819177
  0
LINE
  8
_0-0_0
  6
CONTINUOUS
 62
    7
 10
1217.0548729649495
 20
805.45417409795755
 11
1217.0158902242804
 21
805.45417409795755
  0
LINE
  8
_0-0_0
  6
CONTINUOUS
 62
    7
 10
1217.0158902242804
 20
805.45417409795755
 11
1216.9787715007853
 21
805.45417409795755
  0
LINE
  8
_0-0_0
  6
CONTINUOUS
 62
    7
 10
1216.9787715007853
 20
805.45417409795755
 11
1216.9416527772905
 21
805.45417409795755
  0
LINE
  8
_0-0_0
  6
CONTINUOUS
 62
    7
 10
1216.9416527772905
 20
805.45417409795755
 11
1216.9026808112872
 21
805.45417409795755
  0
LINE
  8
_0-0_0
  6
CONTINUOUS
 62
    7
 10
1217.517009153461
 20
800.28710771680312
 11
1217.5151559109529
 21
800.28710771680312
  0
LINE
  8
_0-0_0
  6
CONTINUOUS
 62
    7
 10
1217.5151559109529
 20
800.28710771680312
 11
1217.5132918937786
 21
800.28710771680312
  0
LINE
  8
_0-0_0
  6
CONTINUOUS
 62
    7
 10
1217.5132918937786
 20
800.28710771680312
 11
1217.5114386512705
 21
800.28710771680312
  0
LINE
  8
_0-0_0
  6
CONTINUOUS
 62
    7
 10
1217.5114386512705
 20
800.28710771680312
 11
1217.5095854087622
 21
800.29082497648551
  0
LINE
  8
_0-0_0
  6
CONTINUOUS
 62
    7
 10
1217.5930998429592
 20
802.9968499545962
 11
1217.5782523535613
 21
803.26411553842559
  0
LINE
  8
_0-0_0
  6
CONTINUOUS
 62
    7
 10
1217.5782523535613
 20
803.26411553842559
 11
1217.5596983791468
 21
803.53137034758947
  0
LINE
  8
_0-0_0
  6
CONTINUOUS
 62
    7
 10
1217.5596983791468
 20
803.53137034758947
 11
1217.5355739025415
 21
803.80235319110147
  0
LINE
  8
_0-0_0
  6
CONTINUOUS
 62
    7
 10
1217.5355739025415
 20
803.80235319110147
 11
1217.5077321662538
 21
804.06960800026525
  0
LINE
  8
_0-0_0
  6
CONTINUOUS
 62
    7
 10
1217.5095854087622
 20
800.29082497648551
 11
1217.5355739025415
 21
800.55437330063251
  0
LINE
  8
_0-0_0
  6
CONTINUOUS
 62
    7
 10
1217.5355739025415
 20
800.55437330063251
 11
1217.5596983791468
 21
800.82163888446212
  0
LINE
  8
_0-0_0
  6
CONTINUOUS
 62
    7
 10
1217.5596983791468
 20
800.82163888446212
 11
1217.5782523535613
 21
801.08889369362578
  0
LINE
  8
_0-0_0
  6
CONTINUOUS
 62
    7
 10
1217.5782523535613
 20
801.08889369362578
 11
1217.5930998429592
 21
801.35986576247205
  0
LINE
  8
_0-0_0
  6
CONTINUOUS
 62
    7
 10
1217.0548729649495
 20
798.90625887879298
 11
1217.162511875752
 21
798.92481285320753
  0
LINE
  8
_0-0_0
  6
CONTINUOUS
 62
    7
 10
1217.162511875752
 20
798.92481285320753
 11
1217.253460829314
 21
798.97677906610056
  0
LINE
  8
_0-0_0
  6
CONTINUOUS
 62
    7
 10
1217.253460829314
 20
798.97677906610056
 11
1217.3221277741131
 21
799.05473377277281
  0
LINE
  8
_0-0_0
  6
CONTINUOUS
 62
    7
 10
1217.3221277741131
 20
799.05473377277281
 11
1217.3592464976082
 21
799.15866619855876
  0
LINE
  8
_0-0_0
  6
CONTINUOUS
 62
    7
 10
1217.3592464976082
 20
805.20176677819177
 11
1217.3221277741131
 21
805.30199271896095
  0
LINE
  8
_0-0_0
  6
CONTINUOUS
 62
    7
 10
1217.3221277741131
 20
805.30199271896095
 11
1217.253460829314
 21
805.38365391064997
  0
LINE
  8
_0-0_0
  6
CONTINUOUS
 62
    7
 10
1217.253460829314
 20
805.38365391064997
 11
1217.1606586332437
 21
805.435620123543
  0
LINE
  8
_0-0_0
  6
CONTINUOUS
 62
    7
 10
1217.1606586332437
 20
805.435620123543
 11
1217.0530089477754
 21
805.45417409795755
  0
LINE
  8
_0-0_0
  6
CONTINUOUS
 62
    7
 10
1216.8006016280096
 20
798.92110636819098
 11
1216.8265793471232
 21
798.91738910850847
  0
LINE
  8
_0-0_0
  6
CONTINUOUS
 62
    7
 10
1216.8265793471232
 20
798.91738910850847
 11
1216.8525678409023
 21
798.91368262349192
  0
LINE
  8
_0-0_0
  6
CONTINUOUS
 62
    7
 10
1216.8525678409023
 20
798.91368262349192
 11
1216.8785455600162
 21
798.90996536380953
  0
LINE
  8
_0-0_0
  6
CONTINUOUS
 62
    7
 10
1216.8785455600162
 20
798.90996536380953
 11
1216.9026808112872
 21
798.90625887879298
  0
LINE
  8
_0-0_0
  6
CONTINUOUS
 62
    7
 10
1216.9026808112872
 20
805.45417409795755
 11
1216.8785455600162
 21
805.450467612941
  0
LINE
  8
_0-0_0
  6
CONTINUOUS
 62
    7
 10
1216.8785455600162
 20
805.450467612941
 11
1216.8525678409023
 21
805.44675035325849
  0
LINE
  8
_0-0_0
  6
CONTINUOUS
 62
    7
 10
1216.8525678409023
 20
805.44675035325849
 11
1216.8265793471232
 21
805.44304386824194
  0
LINE
  8
_0-0_0
  6
CONTINUOUS
 62
    7
 10
1216.8265793471232
 20
805.44304386824194
 11
1216.8006016280096
 21
805.43932660855955
  0
LINE
  8
_0-0_0
  6
CONTINUOUS
 62
    7
 10
1216.8006016280096
 20
759.70037488216519
 11
1216.8006016280096
 21
756.63056486447249
  0
LINE
  8
_0-0_0
  6
CONTINUOUS
 62
    7
 10
1216.8006016280096
 20
756.63056486447249
 11
1216.8006016280096
 21
753.5607656214454
  0
LINE
  8
_0-0_0
  6
CONTINUOUS
 62
    7
 10
1216.8006016280096
 20
753.5607656214454
 11
1216.8006016280096
 21
750.49096637841808
  0
LINE
  8
_0-0_0
  6
CONTINUOUS
 62
    7
 10
1216.8006016280096
 20
750.49096637841808
 11
1216.8006016280096
 21
747.42115636072526
  0
LINE
  8
_0-0_0
  6
CONTINUOUS
 62
    7
 10
1218.3354958621903
 20
760.4724658801922
 11
1218.3354958621903
 21
762.52147329044317
  0
LINE
  8
_0-0_0
  6
CONTINUOUS
 62
    7
 10
1218.3354958621903
 20
762.52147329044317
 11
1218.3354958621903
 21
764.56677421567758
  0
LINE
  8
_0-0_0
  6
CONTINUOUS
 62
    7
 10
1218.3354958621903
 20
764.56677421567758
 11
1218.3354958621903
 21
766.61207514091211
  0
LINE
  8
_0-0_0
  6
CONTINUOUS
 62
    7
 10
1218.3354958621903
 20
766.61207514091211
 11
1218.3354958621903
 21
768.6610825511633
  0
LINE
  8
_0-0_0
  6
CONTINUOUS
 62
    7
 10
1214.7515834430928
 20
746.90890720182892
 11
1215.1357756995978
 21
746.90890720182892
  0
LINE
  8
_0-0_0
  6
CONTINUOUS
 62
    7
 10
1215.1357756995978
 20
746.90890720182892
 11
1215.5199679561028
 21
746.90890720182892
  0
LINE
  8
_0-0_0
  6
CONTINUOUS
 62
    7
 10
1215.5199679561028
 20
746.90890720182892
 11
1215.902296195434
 21
746.90890720182892
  0
LINE
  8
_0-0_0
  6
CONTINUOUS
 62
    7
 10
1215.902296195434
 20
746.90890720182892
 11
1216.286488451939
 21
746.90890720182892
  0
LINE
  8
_0-0_0
  6
CONTINUOUS
 62
    7
 10
1214.7515834430928
 20
760.21634130074403
 11
1215.1357756995978
 21
760.21634130074403
  0
LINE
  8
_0-0_0
  6
CONTINUOUS
 62
    7
 10
1215.1357756995978
 20
760.21634130074403
 11
1215.5199679561028
 21
760.21634130074403
  0
LINE
  8
_0-0_0
  6
CONTINUOUS
 62
    7
 10
1215.5199679561028
 20
760.21634130074403
 11
1215.902296195434
 21
760.21634130074403
  0
LINE
  8
_0-0_0
  6
CONTINUOUS
 62
    7
 10
1215.902296195434
 20
760.21634130074403
 11
1216.286488451939
 21
760.21634130074403
  0
LINE
  8
_0-0_0
  6
CONTINUOUS
 62
    7
 10
1218.3354958621903
 20
760.4724658801922
 11
1218.7196881186956
 21
760.4724658801922
  0
LINE
  8
_0-0_0
  6
CONTINUOUS
 62
    7
 10
1218.7196881186956
 20
760.4724658801922
 11
1219.1020271326922
 21
760.4724658801922
  0
LINE
  8
_0-0_0
  6
CONTINUOUS
 62
    7
 10
1219.1020271326922
 20
760.4724658801922
 11
1219.4843553720234
 21
760.4724658801922
  0
LINE
  8
_0-0_0
  6
CONTINUOUS
 62
    7
 10
1219.4843553720234
 20
760.4724658801922
 11
1219.8685476285282
 21
760.4724658801922
  0
LINE
  8
_0-0_0
  6
CONTINUOUS
 62
    7
 10
1214.7515834430928
 20
770.11617961082902
 11
1216.0322171149994
 21
769.5964959325679
  0
LINE
  8
_0-0_0
  6
CONTINUOUS
 62
    7
 10
1216.0322171149994
 20
769.5964959325679
 11
1217.3109975443977
 21
769.07682302897274
  0
LINE
  8
_0-0_0
  6
CONTINUOUS
 62
    7
 10
1217.3109975443977
 20
769.07682302897274
 11
1218.5897671991299
 21
768.55715012537735
  0
LINE
  8
_0-0_0
  6
CONTINUOUS
 62
    7
 10
1218.5897671991299
 20
768.55715012537735
 11
1219.8704008710367
 21
768.03375996209957
  0
LINE
  8
_0-0_0
  6
CONTINUOUS
 62
    7
 10
1216.8006016280096
 20
759.70037488216519
 11
1216.7597656448322
 21
759.90081598903794
  0
LINE
  8
_0-0_0
  6
CONTINUOUS
 62
    7
 10
1216.7597656448322
 20
759.90081598903794
 11
1216.6502627168557
 21
760.06414914708159
  0
LINE
  8
_0-0_0
  6
CONTINUOUS
 62
    7
 10
1216.6502627168557
 20
760.06414914708159
 11
1216.4869403334778
 21
760.17178805788421
  0
LINE
  8
_0-0_0
  6
CONTINUOUS
 62
    7
 10
1216.4869403334778
 20
760.17178805788421
 11
1216.2883416944474
 21
760.21262404106164
  0
LINE
  8
_0-0_0
  6
CONTINUOUS
 62
    7
 10
1216.2883416944474
 20
746.90890720182892
 11
1216.4887935759859
 21
746.94973241034063
  0
LINE
  8
_0-0_0
  6
CONTINUOUS
 62
    7
 10
1216.4887935759859
 20
746.94973241034063
 11
1216.6502627168557
 21
747.05738209580886
  0
LINE
  8
_0-0_0
  6
CONTINUOUS
 62
    7
 10
1216.6502627168557
 20
747.05738209580886
 11
1216.7597656448322
 21
747.2207152538524
  0
LINE
  8
_0-0_0
  6
CONTINUOUS
 62
    7
 10
1216.7597656448322
 20
747.2207152538524
 11
1216.8006016280096
 21
747.42115636072526
  0
LINE
  8
_0-0_0
  6
CONTINUOUS
 62
    7
 10
1212.9104516590794
 20
745.88439810937075
 11
1213.3707346050826
 21
745.88439810937075
  0
LINE
  8
_0-0_0
  6
CONTINUOUS
 62
    7
 10
1213.3707346050826
 20
745.88439810937075
 11
1213.831017551086
 21
745.88439810937075
  0
LINE
  8
_0-0_0
  6
CONTINUOUS
 62
    7
 10
1213.831017551086
 20
745.88439810937075
 11
1214.2913004970894
 21
745.88439810937075
  0
LINE
  8
_0-0_0
  6
CONTINUOUS
 62
    7
 10
1214.2913004970894
 20
745.88439810937075
 11
1214.7515834430928
 21
745.88439810937075
  0
LINE
  8
_0-0_0
  6
CONTINUOUS
 62
    7
 10
1217.5095854087622
 20
754.94162523412115
 11
1217.5114386512705
 21
754.94162523412115
  0
LINE
  8
_0-0_0
  6
CONTINUOUS
 62
    7
 10
1217.5114386512705
 20
754.94162523412115
 11
1217.5132918937786
 21
754.94162523412115
  0
LINE
  8
_0-0_0
  6
CONTINUOUS
 62
    7
 10
1217.5132918937786
 20
754.94162523412115
 11
1217.5151559109529
 21
754.94162523412115
  0
LINE
  8
_0-0_0
  6
CONTINUOUS
 62
    7
 10
1217.5151559109529
 20
754.94162523412115
 11
1217.517009153461
 21
754.94162523412115
  0
LINE
  8
_0-0_0
  6
CONTINUOUS
 62
    7
 10
1217.5949638601335
 20
753.57189585116089
 11
1217.5949638601335
 21
753.58303685554233
  0
LINE
  8
_0-0_0
  6
CONTINUOUS
 62
    7
 10
1217.5949638601335
 20
753.58303685554233
 11
1217.5968171026416
 21
753.59788434494033
  0
LINE
  8
_0-0_0
  6
CONTINUOUS
 62
    7
 10
1217.5968171026416
 20
753.59788434494033
 11
1217.5986703451499
 21
753.60902534932166
  0
LINE
  8
_0-0_0
  6
CONTINUOUS
 62
    7
 10
1217.5986703451499
 20
753.60902534932166
 11
1217.5986703451499
 21
753.62015557903737
  0
LINE
  8
_0-0_0
  6
CONTINUOUS
 62
    7
 10
1217.517009153461
 20
751.15540769097697
 11
1217.4780371874579
 21
750.87329461774925
  0
LINE
  8
_0-0_0
  6
CONTINUOUS
 62
    7
 10
1217.4780371874579
 20
750.87329461774925
 11
1217.4390544467888
 21
750.59118154452165
  0
LINE
  8
_0-0_0
  6
CONTINUOUS
 62
    7
 10
1217.4390544467888
 20
750.59118154452165
 11
1217.3982292382771
 21
750.30907924595999
  0
LINE
  8
_0-0_0
  6
CONTINUOUS
 62
    7
 10
1217.3982292382771
 20
750.30907924595999
 11
1217.3592464976082
 21
750.03067265774916
  0
LINE
  8
_0-0_0
  6
CONTINUOUS
 62
    7
 10
1217.5968171026416
 20
752.49913780549207
 11
1217.5949638601335
 21
752.5065615501909
  0
LINE
  8
_0-0_0
  6
CONTINUOUS
 62
    7
 10
1217.5949638601335
 20
752.5065615501909
 11
1217.5949638601335
 21
752.51398529488995
  0
LINE
  8
_0-0_0
  6
CONTINUOUS
 62
    7
 10
1217.5949638601335
 20
752.51398529488995
 11
1217.5949638601335
 21
752.52140903958889
  0
LINE
  8
_0-0_0
  6
CONTINUOUS
 62
    7
 10
1217.5949638601335
 20
752.52140903958889
 11
1217.5930998429592
 21
752.52883278428783
  0
LINE
  8
_0-0_0
  6
CONTINUOUS
 62
    7
 10
1217.517009153461
 20
753.04851646254883
 11
1217.517009153461
 21
753.17472012243172
  0
LINE
  8
_0-0_0
  6
CONTINUOUS
 62
    7
 10
1217.517009153461
 20
753.17472012243172
 11
1217.5151559109529
 21
753.30464104199723
  0
LINE
  8
_0-0_0
  6
CONTINUOUS
 62
    7
 10
1217.5151559109529
 20
753.30464104199723
 11
1217.5132918937786
 21
753.43456196156239
  0
LINE
  8
_0-0_0
  6
CONTINUOUS
 62
    7
 10
1217.5132918937786
 20
753.43456196156239
 11
1217.5095854087622
 21
753.5607656214454
  0
LINE
  8
_0-0_0
  6
CONTINUOUS
 62
    7
 10
1217.5986703451499
 20
753.62015557903737
 11
1217.5968171026416
 21
753.66841530691363
  0
LINE
  8
_0-0_0
  6
CONTINUOUS
 62
    7
 10
1217.5968171026416
 20
753.66841530691363
 11
1217.5949638601335
 21
753.71666426012416
  0
LINE
  8
_0-0_0
  6
CONTINUOUS
 62
    7
 10
1217.5949638601335
 20
753.71666426012416
 11
1217.5949638601335
 21
753.76863047301708
  0
LINE
  8
_0-0_0
  6
CONTINUOUS
 62
    7
 10
1217.5949638601335
 20
753.76863047301708
 11
1217.5930998429592
 21
753.81689020089334
  0
LINE
  8
_0-0_0
  6
CONTINUOUS
 62
    7
 10
1217.5095854087622
 20
752.53997378866927
 11
1217.5132918937786
 21
752.66617744855216
  0
LINE
  8
_0-0_0
  6
CONTINUOUS
 62
    7
 10
1217.5132918937786
 20
752.66617744855216
 11
1217.5151559109529
 21
752.79238110843505
  0
LINE
  8
_0-0_0
  6
CONTINUOUS
 62
    7
 10
1217.5151559109529
 20
752.79238110843505
 11
1217.517009153461
 21
752.92230202800033
  0
LINE
  8
_0-0_0
  6
CONTINUOUS
 62
    7
 10
1217.517009153461
 20
752.92230202800033
 11
1217.517009153461
 21
753.04851646254883
  0
LINE
  8
_0-0_0
  6
CONTINUOUS
 62
    7
 10
1217.5968171026416
 20
752.33581542211391
 11
1217.5986703451499
 21
752.37664063062562
  0
LINE
  8
_0-0_0
  6
CONTINUOUS
 62
    7
 10
1217.5986703451499
 20
752.37664063062562
 11
1217.5986703451499
 21
752.41747661380305
  0
LINE
  8
_0-0_0
  6
CONTINUOUS
 62
    7
 10
1217.5986703451499
 20
752.41747661380305
 11
1217.5986703451499
 21
752.45831259698036
  0
LINE
  8
_0-0_0
  6
CONTINUOUS
 62
    7
 10
1217.5986703451499
 20
752.45831259698036
 11
1217.5986703451499
 21
752.49913780549207
  0
LINE
  8
_0-0_0
  6
CONTINUOUS
 62
    7
 10
1217.5949638601335
 20
752.2838492092211
 11
1217.5949638601335
 21
752.29869669861898
  0
LINE
  8
_0-0_0
  6
CONTINUOUS
 62
    7
 10
1217.5949638601335
 20
752.29869669861898
 11
1217.5949638601335
 21
752.30982692833459
  0
LINE
  8
_0-0_0
  6
CONTINUOUS
 62
    7
 10
1217.5949638601335
 20
752.30982692833459
 11
1217.5949638601335
 21
752.32096793271603
  0
LINE
  8
_0-0_0
  6
CONTINUOUS
 62
    7
 10
1217.5949638601335
 20
752.32096793271603
 11
1217.5968171026416
 21
752.33581542211391
  0
LINE
  8
_0-0_0
  6
CONTINUOUS
 62
    7
 10
1217.5930998429592
 20
752.2318829963283
 11
1217.5930998429592
 21
752.24673048572618
  0
LINE
  8
_0-0_0
  6
CONTINUOUS
 62
    7
 10
1217.5930998429592
 20
752.24673048572618
 11
1217.5930998429592
 21
752.25786071544178
  0
LINE
  8
_0-0_0
  6
CONTINUOUS
 62
    7
 10
1217.5930998429592
 20
752.25786071544178
 11
1217.5930998429592
 21
752.26900171982322
  0
LINE
  8
_0-0_0
  6
CONTINUOUS
 62
    7
 10
1217.5930998429592
 20
752.26900171982322
 11
1217.5930998429592
 21
752.2838492092211
  0
LINE
  8
_0-0_0
  6
CONTINUOUS
 62
    7
 10
1217.5949638601335
 20
753.56818936614422
 11
1217.5949638601335
 21
753.57189585116089
  0
LINE
  8
_0-0_0
  6
CONTINUOUS
 62
    7
 10
1217.5949638601335
 20
752.536256528987
 11
1217.5930998429592
 21
752.536256528987
  0
LINE
  8
_0-0_0
  6
CONTINUOUS
 62
    7
 10
1217.5949638601335
 20
753.82060746057573
 11
1217.5949638601335
 21
753.83173769029156
  0
LINE
  8
_0-0_0
  6
CONTINUOUS
 62
    7
 10
1217.5949638601335
 20
753.83173769029156
 11
1217.5949638601335
 21
753.842878694673
  0
LINE
  8
_0-0_0
  6
CONTINUOUS
 62
    7
 10
1217.5949638601335
 20
753.842878694673
 11
1217.5949638601335
 21
753.85772618407088
  0
LINE
  8
_0-0_0
  6
CONTINUOUS
 62
    7
 10
1217.5949638601335
 20
753.85772618407088
 11
1217.5930998429592
 21
753.86885641378638
  0
LINE
  8
_0-0_0
  6
CONTINUOUS
 62
    7
 10
1217.5930998429592
 20
753.5607656214454
 11
1217.5930998429592
 21
753.56447210646195
  0
LINE
  8
_0-0_0
  6
CONTINUOUS
 62
    7
 10
1217.5930998429592
 20
753.56447210646195
 11
1217.5930998429592
 21
753.56818936614422
  0
LINE
  8
_0-0_0
  6
CONTINUOUS
 62
    7
 10
1217.0548729649495
 20
749.774548078301
 11
1217.0158902242804
 21
749.774548078301
  0
LINE
  8
_0-0_0
  6
CONTINUOUS
 62
    7
 10
1217.0158902242804
 20
749.774548078301
 11
1216.9787715007853
 21
749.774548078301
  0
LINE
  8
_0-0_0
  6
CONTINUOUS
 62
    7
 10
1216.9787715007853
 20
749.774548078301
 11
1216.9416527772905
 21
749.774548078301
  0
LINE
  8
_0-0_0
  6
CONTINUOUS
 62
    7
 10
1216.9416527772905
 20
749.774548078301
 11
1216.9026808112872
 21
749.774548078301
  0
LINE
  8
_0-0_0
  6
CONTINUOUS
 62
    7
 10
1217.5930998429592
 20
752.53997378866927
 11
1217.5726926260363
 21
752.53997378866927
  0
LINE
  8
_0-0_0
  6
CONTINUOUS
 62
    7
 10
1217.5726926260363
 20
752.53997378866927
 11
1217.5504213919394
 21
752.53997378866927
  0
LINE
  8
_0-0_0
  6
CONTINUOUS
 62
    7
 10
1217.5504213919394
 20
752.53997378866927
 11
1217.5281501578424
 21
752.53997378866927
  0
LINE
  8
_0-0_0
  6
CONTINUOUS
 62
    7
 10
1217.5281501578424
 20
752.53997378866927
 11
1217.5077321662538
 21
752.53997378866927
  0
LINE
  8
_0-0_0
  6
CONTINUOUS
 62
    7
 10
1217.5095854087622
 20
753.5607656214454
 11
1217.5300034003508
 21
753.5607656214454
  0
LINE
  8
_0-0_0
  6
CONTINUOUS
 62
    7
 10
1217.5300034003508
 20
753.5607656214454
 11
1217.5504213919394
 21
753.5607656214454
  0
LINE
  8
_0-0_0
  6
CONTINUOUS
 62
    7
 10
1217.5504213919394
 20
753.5607656214454
 11
1217.5726926260363
 21
753.5607656214454
  0
LINE
  8
_0-0_0
  6
CONTINUOUS
 62
    7
 10
1217.5726926260363
 20
753.5607656214454
 11
1217.5930998429592
 21
753.5607656214454
  0
LINE
  8
_0-0_0
  6
CONTINUOUS
 62
    7
 10
1217.0548729649495
 20
756.32619133181367
 11
1217.0158902242804
 21
756.32619133181367
  0
LINE
  8
_0-0_0
  6
CONTINUOUS
 62
    7
 10
1217.0158902242804
 20
756.32619133181367
 11
1216.9787715007853
 21
756.32619133181367
  0
LINE
  8
_0-0_0
  6
CONTINUOUS
 62
    7
 10
1216.9787715007853
 20
756.32619133181367
 11
1216.9416527772905
 21
756.32619133181367
  0
LINE
  8
_0-0_0
  6
CONTINUOUS
 62
    7
 10
1216.9416527772905
 20
756.32619133181367
 11
1216.9026808112872
 21
756.32619133181367
  0
LINE
  8
_0-0_0
  6
CONTINUOUS
 62
    7
 10
1217.517009153461
 20
754.94533171913781
 11
1217.4780371874579
 21
755.22372753268291
  0
LINE
  8
_0-0_0
  6
CONTINUOUS
 62
    7
 10
1217.4780371874579
 20
755.22372753268291
 11
1217.4390544467888
 21
755.50584060591041
  0
LINE
  8
_0-0_0
  6
CONTINUOUS
 62
    7
 10
1217.4390544467888
 20
755.50584060591041
 11
1217.3982292382771
 21
755.78795367913801
  0
LINE
  8
_0-0_0
  6
CONTINUOUS
 62
    7
 10
1217.3982292382771
 20
755.78795367913801
 11
1217.3592464976082
 21
756.07005597769989
  0
LINE
  8
_0-0_0
  6
CONTINUOUS
 62
    7
 10
1217.517009153461
 20
751.15540769097697
 11
1217.5151559109529
 21
751.15540769097697
  0
LINE
  8
_0-0_0
  6
CONTINUOUS
 62
    7
 10
1217.5151559109529
 20
751.15540769097697
 11
1217.5132918937786
 21
751.15540769097697
  0
LINE
  8
_0-0_0
  6
CONTINUOUS
 62
    7
 10
1217.5132918937786
 20
751.15540769097697
 11
1217.5114386512705
 21
751.15540769097697
  0
LINE
  8
_0-0_0
  6
CONTINUOUS
 62
    7
 10
1217.5114386512705
 20
751.15540769097697
 11
1217.5095854087622
 21
751.15911417599341
  0
LINE
  8
_0-0_0
  6
CONTINUOUS
 62
    7
 10
1217.5930998429592
 20
753.86885641378638
 11
1217.5782523535613
 21
754.13982848263254
  0
LINE
  8
_0-0_0
  6
CONTINUOUS
 62
    7
 10
1217.5782523535613
 20
754.13982848263254
 11
1217.5596983791468
 21
754.40709406646215
  0
LINE
  8
_0-0_0
  6
CONTINUOUS
 62
    7
 10
1217.5596983791468
 20
754.40709406646215
 11
1217.5355739025415
 21
754.67435965029165
  0
LINE
  8
_0-0_0
  6
CONTINUOUS
 62
    7
 10
1217.5355739025415
 20
754.67435965029165
 11
1217.5077321662538
 21
754.94162523412115
  0
LINE
  8
_0-0_0
  6
CONTINUOUS
 62
    7
 10
1217.5095854087622
 20
751.15911417599341
 11
1217.5355739025415
 21
751.42637975982302
  0
LINE
  8
_0-0_0
  6
CONTINUOUS
 62
    7
 10
1217.5355739025415
 20
751.42637975982302
 11
1217.5596983791468
 21
751.69735182866907
  0
LINE
  8
_0-0_0
  6
CONTINUOUS
 62
    7
 10
1217.5596983791468
 20
751.69735182866907
 11
1217.5782523535613
 21
751.96461741249868
  0
LINE
  8
_0-0_0
  6
CONTINUOUS
 62
    7
 10
1217.5782523535613
 20
751.96461741249868
 11
1217.5930998429592
 21
752.2318829963283
  0
LINE
  8
_0-0_0
  6
CONTINUOUS
 62
    7
 10
1217.0548729649495
 20
749.774548078301
 11
1217.162511875752
 21
749.79311282738138
  0
LINE
  8
_0-0_0
  6
CONTINUOUS
 62
    7
 10
1217.162511875752
 20
749.79311282738138
 11
1217.253460829314
 21
749.84878552529085
  0
LINE
  8
_0-0_0
  6
CONTINUOUS
 62
    7
 10
1217.253460829314
 20
749.84878552529085
 11
1217.3221277741131
 21
749.93045749164537
  0
LINE
  8
_0-0_0
  6
CONTINUOUS
 62
    7
 10
1217.3221277741131
 20
749.93045749164537
 11
1217.3592464976082
 21
750.03067265774916
  0
LINE
  8
_0-0_0
  6
CONTINUOUS
 62
    7
 10
1217.3592464976082
 20
756.07005597769989
 11
1217.3221277741131
 21
756.17399917815135
  0
LINE
  8
_0-0_0
  6
CONTINUOUS
 62
    7
 10
1217.3221277741131
 20
756.17399917815135
 11
1217.253460829314
 21
756.25566036984037
  0
LINE
  8
_0-0_0
  6
CONTINUOUS
 62
    7
 10
1217.253460829314
 20
756.25566036984037
 11
1217.1606586332437
 21
756.30762658273341
  0
LINE
  8
_0-0_0
  6
CONTINUOUS
 62
    7
 10
1217.1606586332437
 20
756.30762658273341
 11
1217.0530089477754
 21
756.32619133181367
  0
LINE
  8
_0-0_0
  6
CONTINUOUS
 62
    7
 10
1216.8006016280096
 20
749.79311282738138
 11
1216.8265793471232
 21
749.78939556769888
  0
LINE
  8
_0-0_0
  6
CONTINUOUS
 62
    7
 10
1216.8265793471232
 20
749.78939556769888
 11
1216.8525678409023
 21
749.78197182299994
  0
LINE
  8
_0-0_0
  6
CONTINUOUS
 62
    7
 10
1216.8525678409023
 20
749.78197182299994
 11
1216.8785455600162
 21
749.77826533798338
  0
LINE
  8
_0-0_0
  6
CONTINUOUS
 62
    7
 10
1216.8785455600162
 20
749.77826533798338
 11
1216.9026808112872
 21
749.774548078301
  0
LINE
  8
_0-0_0
  6
CONTINUOUS
 62
    7
 10
1216.9026808112872
 20
756.32619133181367
 11
1216.8785455600162
 21
756.32247407213129
  0
LINE
  8
_0-0_0
  6
CONTINUOUS
 62
    7
 10
1216.8785455600162
 20
756.32247407213129
 11
1216.8525678409023
 21
756.31505032743235
  0
LINE
  8
_0-0_0
  6
CONTINUOUS
 62
    7
 10
1216.8525678409023
 20
756.31505032743235
 11
1216.8265793471232
 21
756.31134384241568
  0
LINE
  8
_0-0_0
  6
CONTINUOUS
 62
    7
 10
1216.8265793471232
 20
756.31134384241568
 11
1216.8006016280096
 21
756.30762658273341
  0
LINE
  8
_0-0_0
  6
CONTINUOUS
 62
    7
 10
1043.4105214223996
 20
706.32216359252538
 11
1043.4105214223996
 21
871.42711844607743
  0
LINE
  8
_0-0_0
  6
CONTINUOUS
 62
    7
 10
1043.4105214223996
 20
871.42711844607743
 11
1043.4105214223996
 21
1036.5320625249637
  0
LINE
  8
_0-0_0
  6
CONTINUOUS
 62
    7
 10
1043.4105214223996
 20
1036.5320625249637
 11
1043.4105214223996
 21
1201.6370066038501
  0
LINE
  8
_0-0_0
  6
CONTINUOUS
 62
    7
 10
1043.4105214223996
 20
1201.6370066038501
 11
1043.4105214223996
 21
1366.7400974402278
  0
LINE
  8
_0-0_0
  6
CONTINUOUS
 62
    7
 10
1038.2712967775328
 20
1363.6535866906286
 11
1038.2712967775328
 21
1200.0742706333817
  0
LINE
  8
_0-0_0
  6
CONTINUOUS
 62
    7
 10
1038.2712967775328
 20
1200.0742706333817
 11
1038.2712967775328
 21
1036.4949438014687
  0
LINE
  8
_0-0_0
  6
CONTINUOUS
 62
    7
 10
1038.2712967775328
 20
1036.4949438014687
 11
1038.2712967775328
 21
872.9156169695558
  0
LINE
  8
_0-0_0
  6
CONTINUOUS
 62
    7
 10
1038.2712967775328
 20
872.9156169695558
 11
1038.2712967775328
 21
709.34000739732528
  0
LINE
  8
_0-0_0
  6
CONTINUOUS
 62
    7
 10
537.11380506811361
 20
1366.7363909552114
 11
537.11380506811361
 21
1201.6333001188334
  0
LINE
  8
_0-0_0
  6
CONTINUOUS
 62
    7
 10
537.11380506811361
 20
1201.6333001188334
 11
537.11380506811361
 21
1036.5320625249637
  0
LINE
  8
_0-0_0
  6
CONTINUOUS
 62
    7
 10
537.11380506811361
 20
1036.5320625249637
 11
537.11380506811361
 21
871.43082493109409
  0
LINE
  8
_0-0_0
  6
CONTINUOUS
 62
    7
 10
537.11380506811361
 20
871.43082493109409
 11
537.11380506811361
 21
706.32958733722467
  0
LINE
  8
_0-0_0
  6
CONTINUOUS
 62
    7
 10
542.47947008829874
 20
1363.5106822988394
 11
542.47947008829874
 21
1199.985174922328
  0
LINE
  8
_0-0_0
  6
CONTINUOUS
 62
    7
 10
542.47947008829874
 20
1199.985174922328
 11
542.47947008829874
 21
1036.4615315629903
  0
LINE
  8
_0-0_0
  6
CONTINUOUS
 62
    7
 10
542.47947008829874
 20
1036.4615315629903
 11
542.47947008829874
 21
872.93788820365285
  0
LINE
  8
_0-0_0
  6
CONTINUOUS
 62
    7
 10
542.47947008829874
 20
872.93788820365285
 11
542.47947008829874
 21
709.41052758463286
  0
LINE
  8
_0-0_0
  6
CONTINUOUS
 62
    7
 10
537.19731950231107
 20
706.28133838401379
 11
663.57894453933568
 21
658.02936826701716
  0
LINE
  8
_0-0_0
  6
CONTINUOUS
 62
    7
 10
663.57894453933568
 20
658.02936826701716
 11
793.75977059172874
 21
643.03299453775082
  0
LINE
  8
_0-0_0
  6
CONTINUOUS
 62
    7
 10
793.75977059172874
 20
643.03299453775082
 11
922.23494550719852
 21
659.65892871444214
  0
LINE
  8
_0-0_0
  6
CONTINUOUS
 62
    7
 10
922.23494550719852
 20
659.65892871444214
 11
1043.5033236184699
 21
706.28504486903057
  0
LINE
  8
_0-0_0
  6
CONTINUOUS
 62
    7
 10
1038.2712967775328
 20
709.34000739732528
 11
1039.5797614110611
 21
708.5790466290141
  0
LINE
  8
_0-0_0
  6
CONTINUOUS
 62
    7
 10
1039.5797614110611
 20
708.5790466290141
 11
1040.886383576747
 21
707.81437937568626
  0
LINE
  8
_0-0_0
  6
CONTINUOUS
 62
    7
 10
1040.886383576747
 20
707.81437937568626
 11
1042.1948482102757
 21
707.04971212235841
  0
LINE
  8
_0-0_0
  6
CONTINUOUS
 62
    7
 10
1042.1948482102757
 20
707.04971212235841
 11
1043.5033236184699
 21
706.28504486903057
  0
LINE
  8
_0-0_0
  6
CONTINUOUS
 62
    7
 10
1038.2712967775328
 20
1363.6535866906286
 11
1039.5612074366466
 21
1364.4256776886555
  0
LINE
  8
_0-0_0
  6
CONTINUOUS
 62
    7
 10
1039.5612074366466
 20
1364.4256776886555
 11
1040.8529713382688
 21
1365.1977686866824
  0
LINE
  8
_0-0_0
  6
CONTINUOUS
 62
    7
 10
1040.8529713382688
 20
1365.1977686866824
 11
1042.1447352398909
 21
1365.9698596847093
  0
LINE
  8
_0-0_0
  6
CONTINUOUS
 62
    7
 10
1042.1447352398909
 20
1365.9698596847093
 11
1043.4346458990049
 21
1366.7400974402278
  0
LINE
  8
_0-0_0
  6
CONTINUOUS
 62
    7
 10
542.47947008829874
 20
1363.5106822988394
 11
541.14129970130818
 21
1364.318038777853
  0
LINE
  8
_0-0_0
  6
CONTINUOUS
 62
    7
 10
541.14129970130818
 20
1364.318038777853
 11
539.80312931431831
 21
1365.1235312396923
  0
LINE
  8
_0-0_0
  6
CONTINUOUS
 62
    7
 10
539.80312931431831
 20
1365.1235312396923
 11
538.46495892732776
 21
1365.9290344761976
  0
LINE
  8
_0-0_0
  6
CONTINUOUS
 62
    7
 10
538.46495892732776
 20
1365.9290344761976
 11
537.12679931500361
 21
1366.7363909552114
  0
LINE
  8
_0-0_0
  6
CONTINUOUS
 62
    7
 10
1043.4346458990049
 20
1366.7400974402278
 11
981.06232547655452
 21
1395.1255772347636
  0
LINE
  8
_0-0_0
  6
CONTINUOUS
 62
    7
 10
981.06232547655452
 20
1395.1255772347636
 11
917.05117839413765
 21
1414.9939207997329
  0
LINE
  8
_0-0_0
  6
CONTINUOUS
 62
    7
 10
917.05117839413765
 20
1414.9939207997329
 11
852.09160213409496
 21
1426.5474440338483
  0
LINE
  8
_0-0_0
  6
CONTINUOUS
 62
    7
 10
852.09160213409496
 20
1426.5474440338483
 11
786.87034156707887
 21
1429.9902945289991
  0
LINE
  8
_0-0_0
  6
CONTINUOUS
 62
    7
 10
786.87034156707887
 20
1429.9902945289991
 11
722.07596248225377
 21
1425.5285054435808
  0
LINE
  8
_0-0_0
  6
CONTINUOUS
 62
    7
 10
722.07596248225377
 20
1425.5285054435808
 11
658.39516665160909
 21
1413.3625071097999
  0
LINE
  8
_0-0_0
  6
CONTINUOUS
 62
    7
 10
658.39516665160909
 20
1413.3625071097999
 11
596.51654141364043
 21
1393.6983219113856
  0
LINE
  8
_0-0_0
  6
CONTINUOUS
 62
    7
 10
596.51654141364043
 20
1393.6983219113856
 11
537.12679931500361
 21
1366.7363909552114
  0
LINE
  8
_0-0_0
  6
CONTINUOUS
 62
    7
 10
1038.2675795178504
 20
1363.6610104353279
 11
977.11464956720636
 21
1391.1222070781744
  0
LINE
  8
_0-0_0
  6
CONTINUOUS
 62
    7
 10
977.11464956720636
 20
1391.1222070781744
 11
914.39897287142821
 21
1410.3465273221736
  0
LINE
  8
_0-0_0
  6
CONTINUOUS
 62
    7
 10
914.39897287142821
 20
1410.3465273221736
 11
850.77942024088406
 21
1421.5251352869914
  0
LINE
  8
_0-0_0
  6
CONTINUOUS
 62
    7
 10
850.77942024088406
 20
1421.5251352869914
 11
786.91489480993846
 21
1424.8529231266409
  0
LINE
  8
_0-0_0
  6
CONTINUOUS
 62
    7
 10
786.91489480993846
 20
1424.8529231266409
 11
723.48837031623384
 21
1420.5303319479947
  0
LINE
  8
_0-0_0
  6
CONTINUOUS
 62
    7
 10
723.48837031623384
 20
1420.5303319479947
 11
661.13275062568982
 21
1408.7540855982438
  0
LINE
  8
_0-0_0
  6
CONTINUOUS
 62
    7
 10
661.13275062568982
 20
1408.7540855982438
 11
600.50321083832364
 21
1389.7190762314017
  0
LINE
  8
_0-0_0
  6
CONTINUOUS
 62
    7
 10
600.50321083832364
 20
1389.7190762314017
 11
542.25860021517121
 21
1363.6220384693243
  0
LINE
  8
_0-0_0
  6
CONTINUOUS
 62
    7
 10
542.47947008829874
 20
709.41052758463286
 11
603.6212698092271
 21
681.92707048235491
  0
LINE
  8
_0-0_0
  6
CONTINUOUS
 62
    7
 10
603.6212698092271
 20
681.92707048235491
 11
666.28683353462054
 21
662.68790274895764
  0
LINE
  8
_0-0_0
  6
CONTINUOUS
 62
    7
 10
666.28683353462054
 20
662.68790274895764
 11
729.85811566262271
 21
651.50000702226691
  0
LINE
  8
_0-0_0
  6
CONTINUOUS
 62
    7
 10
729.85811566262271
 20
651.50000702226691
 11
793.71708136604309
 21
648.17036594010926
  0
LINE
  8
_0-0_0
  6
CONTINUOUS
 62
    7
 10
793.71708136604309
 20
648.17036594010926
 11
857.11019362126945
 21
652.48738661656478
  0
LINE
  8
_0-0_0
  6
CONTINUOUS
 62
    7
 10
857.11019362126945
 20
652.48738661656478
 11
919.43611833301759
 21
664.25063871942598
  0
LINE
  8
_0-0_0
  6
CONTINUOUS
 62
    7
 10
919.43611833301759
 20
664.25063871942598
 11
980.03597391625362
 21
683.26709411185345
  0
LINE
  8
_0-0_0
  6
CONTINUOUS
 62
    7
 10
980.03597391625362
 20
683.26709411185345
 11
1038.2564492881347
 21
709.336290137643
  0
LINE
  8
_0-0_0
  6
CONTINUOUS
 62
    7
 10
542.47947008829874
 20
709.41052758463286
 11
541.15800043321451
 21
708.62730635689047
  0
LINE
  8
_0-0_0
  6
CONTINUOUS
 62
    7
 10
541.15800043321451
 20
708.62730635689047
 11
539.83839479530479
 21
707.84407435448213
  0
LINE
  8
_0-0_0
  6
CONTINUOUS
 62
    7
 10
539.83839479530479
 20
707.84407435448213
 11
538.51878915739485
 21
707.06455961175629
  0
LINE
  8
_0-0_0
  6
CONTINUOUS
 62
    7
 10
538.51878915739485
 20
707.06455961175629
 11
537.19731950231107
 21
706.28133838401379
  0
LINE
  8
_0-1_レイヤ___1
  6
CONTINUOUS
 62
  131
 10
537.12679931500361
 20
1456.3095724400875
 11
1043.4346458990049
 21
1456.3095724400875
  0
LINE
  8
_0-1_レイヤ___1
  6
CONTINUOUS
 62
  131
 10
537.12679931500361
 20
1456.3095724400875
 11
546.97487684512566
 21
1458.0460542167568
  0
LINE
  8
_0-1_レイヤ___1
  6
CONTINUOUS
 62
  131
 10
537.12679931500361
 20
1456.3095724400875
 11
546.97487684512566
 21
1454.5730906634183
  0
LINE
  8
_0-1_レイヤ___1
  6
CONTINUOUS
 62
  131
 10
1043.4346458990049
 20
1456.3095724400875
 11
1033.5865683688828
 21
1454.5730906634183
  0
LINE
  8
_0-1_レイヤ___1
  6
CONTINUOUS
 62
  131
 10
1043.4346458990049
 20
1456.3095724400875
 11
1033.5865683688828
 21
1458.0460542167568
  0
LINE
  8
_0-1_レイヤ___1
  6
CONTINUOUS
 62
  131
 10
557.52410354544111
 20
1717.0938861655777
 11
1022.8832962723966
 21
1717.0938861655777
  0
LINE
  8
_0-1_レイヤ___1
  6
CONTINUOUS
 62
  131
 10
557.52410354544111
 20
1717.0938861655777
 11
567.37218107556316
 21
1718.830367942247
  0
LINE
  8
_0-1_レイヤ___1
  6
CONTINUOUS
 62
  131
 10
557.52410354544111
 20
1717.0938861655777
 11
567.37218107556316
 21
1715.3574043889082
  0
LINE
  8
_0-1_レイヤ___1
  6
CONTINUOUS
 62
  131
 10
1022.8832962723966
 20
1717.0938861655777
 11
1013.0352187422745
 21
1715.3574043889082
  0
LINE
  8
_0-1_レイヤ___1
  6
CONTINUOUS
 62
  131
 10
1022.8832962723966
 20
1717.0938861655777
 11
1013.0352187422745
 21
1718.830367942247
  0
LINE
  8
_0-1_レイヤ___1
  6
CONTINUOUS
 62
  131
 10
1227.4261244507534
 20
1427.5514025054467
 11
1330.2088610775741
 21
1427.5514025054467
  0
LINE
  8
_0-1_レイヤ___1
  6
CONTINUOUS
 62
  131
 10
1227.4261244507534
 20
1427.5514025054467
 11
1237.2742019808754
 21
1429.2878842821165
  0
LINE
  8
_0-1_レイヤ___1
  6
CONTINUOUS
 62
  131
 10
1227.4261244507534
 20
1427.5514025054467
 11
1237.2742019808754
 21
1425.8149207287779
  0
LINE
  8
_0-1_レイヤ___1
  6
CONTINUOUS
 62
  131
 10
1330.2088610775741
 20
1427.5514025054467
 11
1320.360783547452
 21
1425.8149207287779
  0
LINE
  8
_0-1_レイヤ___1
  6
CONTINUOUS
 62
  131
 10
1330.2088610775741
 20
1427.5514025054467
 11
1320.360783547452
 21
1429.2878842821165
  0
LINE
  8
_0-1_レイヤ___1
  6
CONTINUOUS
 62
  131
 10
1199.6364297986427
 20
602.95989923747322
 11
1330.2088610775741
 21
602.95989923747322
  0
LINE
  8
_0-1_レイヤ___1
  6
CONTINUOUS
 62
  131
 10
1199.6364297986427
 20
602.95989923747322
 11
1209.4845073287647
 21
604.6963810141425
  0
LINE
  8
_0-1_レイヤ___1
  6
CONTINUOUS
 62
  131
 10
1199.6364297986427
 20
602.95989923747322
 11
1209.4845073287647
 21
601.22341746080383
  0
LINE
  8
_0-1_レイヤ___1
  6
CONTINUOUS
 62
  131
 10
1330.2088610775741
 20
602.95989923747322
 11
1320.360783547452
 21
601.22341746080383
  0
LINE
  8
_0-1_レイヤ___1
  6
CONTINUOUS
 62
  131
 10
1330.2088610775741
 20
602.95989923747322
 11
1320.360783547452
 21
604.6963810141425
  0
LINE
  8
_0-1_レイヤ___1
  6
CONTINUOUS
 62
  131
 10
1408.5655807461872
 20
1374.2215835729544
 11
1408.5655807461872
 21
701.5559901997824
  0
LINE
  8
_0-1_レイヤ___1
  6
CONTINUOUS
 62
  131
 10
1408.5655807461872
 20
1374.2215835729544
 11
1410.3020625228564
 21
1364.3735060428323
  0
LINE
  8
_0-1_レイヤ___1
  6
CONTINUOUS
 62
  131
 10
1408.5655807461872
 20
1374.2215835729544
 11
1406.8290989695176
 21
1364.3735060428323
  0
LINE
  8
_0-1_レイヤ___1
  6
CONTINUOUS
 62
  131
 10
1408.5655807461872
 20
701.5559901997824
 11
1406.8290989695176
 21
711.40406772990445
  0
LINE
  8
_0-1_レイヤ___1
  6
CONTINUOUS
 62
  131
 10
1408.5655807461872
 20
701.5559901997824
 11
1410.3020625228564
 21
711.40406772990445
  0
LINE
  8
_0-1_レイヤ___1
  6
CONTINUOUS
 62
  131
 10
2082.5185963880317
 20
1189.7790713507629
 11
2241.2129591373518
 21
1189.7790713507629
  0
LINE
  8
_0-1_レイヤ___1
  6
CONTINUOUS
 62
  131
 10
2082.5185963880317
 20
1189.7790713507629
 11
2092.3666739181535
 21
1191.5155531274322
  0
LINE
  8
_0-1_レイヤ___1
  6
CONTINUOUS
 62
  131
 10
2082.5185963880317
 20
1189.7790713507629
 11
2092.3666739181535
 21
1188.0425895740937
  0
LINE
  8
_0-1_レイヤ___1
  6
CONTINUOUS
 62
  131
 10
2241.2129591373518
 20
1189.7790713507629
 11
2231.3648816072296
 21
1188.0425895740937
  0
LINE
  8
_0-1_レイヤ___1
  6
CONTINUOUS
 62
  131
 10
2241.2129591373518
 20
1189.7790713507629
 11
2231.3648816072296
 21
1191.5155531274322
  0
TEXT
  8
_0-1_レイヤ___1
 62
    7
 10
1933.4909418371253
 20
933.00105150084755
 40
30
 41
1
 50
0
  1
108ﾟ
  0
ARC
  8
_0-1_レイヤ___1
  6
CONTINUOUS
 62
  131
 10
2082.3218617661755
 20
1103.8672909620134
 40
205.25442489483211
 50
179.68499942369289
 51
224.54330651699715
  0
ARC
  8
_0-1_レイヤ___1
  6
CONTINUOUS
 62
  131
 10
2082.3218617661755
 20
1103.8672909620134
 40
205.25442489483211
 50
236.01683168191721
 51
285.95188818253433
  0
TEXT
  8
_0-1_レイヤ___1
 62
    7
 10
1403.5655807461872
 20
1019.1387868863683
 40
30
 41
1
 50
90
  1
638
  0
TEXT
  8
_0-1_レイヤ___1
 62
    7
 10
1246.1726454381082
 20
607.95989923747322
 40
30
 41
1
 50
0
  1
122
  0
TEXT
  8
_0-1_レイヤ___1
 62
    7
 10
1266.3174927641637
 20
1432.5514025054467
 40
30
 41
1
 50
0
  1
92
  0
TEXT
  8
_0-1_レイヤ___1
 62
    7
 10
771.53072260700424
 20
1461.3095724400875
 40
30
 41
1
 50
0
  1
508
  0
TEXT
  8
_0-1_レイヤ___1
 62
    7
 10
771.45369990891879
 20
1722.0938861655777
 40
30
 41
1
 50
0
  1
483
  0
TEXT
  8
_0-1_レイヤ___1
 62
    7
 10
2143.1157777626918
 20
1194.7790713507629
 40
30
 41
1
 50
0
  1
146
  0
LINE
  8
_0-0_0
  6
CONTINUOUS
 62
    7
 10
1554.1040771769872
 20
1104.5799920024574
 11
2267.7276013944124
 21
1104.5799920024574
  0
LINE
  8
_0-0_0
  6
CONTINUOUS
 62
    7
 10
1554.1040771769872
 20
1104.9957324802576
 11
1556.2117093851139
 21
1104.9957324802576
  0
LINE
  8
_0-0_0
  6
CONTINUOUS
 62
    7
 10
1556.2117093851139
 20
1104.9957324802576
 11
1732.5127380951058
 21
1104.9957324802576
  0
LINE
  8
_0-0_0
  6
CONTINUOUS
 62
    7
 10
1554.1040771769872
 20
1104.9957324802576
 11
1554.1040771769872
 21
1104.5799920024574
  0
LINE
  8
_0-1_レイヤ___1
  6
CONTINUOUS
 62
  131
 10
448.29869621459665
 20
643.03670102276726
 11
793.75977059172874
 21
643.03670102276726
  0
LINE
  8
_0-1_レイヤ___1
  6
CONTINUOUS
 62
  131
 10
448.29869621459665
 20
1430.0367010143673
 11
786.87034156707887
 21
1430.0367010143673
  0
LINE
  8
_0-1_レイヤ___1
  6
CONTINUOUS
 62
  131
 10
537.12679931500361
 20
1456.3095724400875
 11
537.12679931500361
 21
1366.7363909552114
  0
LINE
  8
_0-1_レイヤ___1
  6
CONTINUOUS
 62
  131
 10
1043.4346458990049
 20
1456.3095724400875
 11
1043.4346458990049
 21
1366.7256921148805
  0
LINE
  8
_0-1_レイヤ___1
  6
CONTINUOUS
 62
  131
 10
557.52410354544111
 20
1717.0938861655777
 11
557.52410354544111
 21
1689.7970190238689
  0
LINE
  8
_0-1_レイヤ___1
  6
CONTINUOUS
 62
  131
 10
1022.8832962723966
 20
1717.0938861655777
 11
1022.8832962723966
 21
1689.7970190238689
  0
LINE
  8
_0-1_レイヤ___1
  6
CONTINUOUS
 62
  131
 10
1227.4261244507534
 20
1427.5514025054467
 11
1227.4261244507534
 21
1374.2215835729544
  0
LINE
  8
_0-1_レイヤ___1
  6
CONTINUOUS
 62
  131
 10
1330.2088610775741
 20
1427.5514025054467
 11
1330.2088610775741
 21
1374.2215835729544
  0
LINE
  8
_0-1_レイヤ___1
  6
CONTINUOUS
 62
  131
 10
1408.5655807461872
 20
1374.2215835729544
 11
1330.2088610775741
 21
1374.2215835729544
  0
LINE
  8
_0-1_レイヤ___1
  6
CONTINUOUS
 62
  131
 10
1408.5655807461872
 20
701.5559901997824
 11
1330.2088610775741
 21
701.5559901997824
  0
LINE
  8
_0-1_レイヤ___1
  6
CONTINUOUS
 62
  131
 10
1330.2088610775741
 20
602.95989923747322
 11
1330.2088610775741
 21
701.5559901997824
  0
LINE
  8
_0-1_レイヤ___1
  6
CONTINUOUS
 62
  131
 10
1199.6364297986427
 20
602.95989923747322
 11
1199.6364297986427
 21
643.03670102276726
  0
LINE
  8
_0-1_レイヤ___1
  6
CONTINUOUS
 62
  131
 10
2082.5185963880317
 20
1189.7790713507629
 11
2082.5185963880317
 21
1118.6780710738049
  0
LINE
  8
_0-1_レイヤ___1
  6
CONTINUOUS
 62
  131
 10
2241.2129591373518
 20
1189.7790713507629
 11
2241.2129591373518
 21
630.63499610112694
  0
LINE
  8
_0-1_レイヤ___1
  6
CONTINUOUS
 62
  131
 10
489.69511063313053
 20
1430.0367010143673
 11
489.69511063313053
 21
643.03670102276726
  0
LINE
  8
_0-1_レイヤ___1
  6
CONTINUOUS
 62
  131
 10
489.69511063313053
 20
643.03670102276726
 11
487.95862885646113
 21
652.88477855288932
  0
LINE
  8
_0-1_レイヤ___1
  6
CONTINUOUS
 62
  131
 10
489.69511063313053
 20
643.03670102276726
 11
491.4315924097998
 21
652.88477855288932
  0
TEXT
  8
_0-1_レイヤ___1
 62
    7
 10
484.69511063313053
 20
1017.7867010185673
 40
30
 41
1
 50
90
  1
787
  0
LINE
  8
_f-0_
  6
CONTINUOUS
 62
    7
 10
145.92190945814195
 20
272.17690842700108
 11
2782.5613812702341
 21
272.17690842700108
  0
LINE
  8
_f-0_
  6
CONTINUOUS
 62
    7
 10
93.498778584810225
 20
2041.1430038495319
 11
2835.164073948858
 21
2041.1430038495319
  0
LINE
  8
_f-0_
  6
CONTINUOUS
 62
    7
 10
2835.164073948858
 20
2041.1430038495319
 11
2835.164073948858
 21
102.59178490525528
  0
LINE
  8
_f-0_
  6
CONTINUOUS
 62
    7
 10
2835.164073948858
 20
102.59178490525528
 11
93.498778584810225
 21
102.59178490525528
  0
LINE
  8
_f-0_
  6
CONTINUOUS
 62
    7
 10
93.498778584810225
 20
102.59178490525528
 11
93.498778584810225
 21
2041.1430038495319
  0
TEXT
  8
_f-0_
 62
    7
 10
1832.9041847314718
 20
188.57658079799819
 40
34.616986052576237
 41
1.0000000000000038
 50
0
  1
19/04/18
  0
LINE
  8
_f-0_
  6
CONTINUOUS
 62
    7
 10
145.92190945814195
 20
154.63137802700089
 11
2782.5613812702341
 21
154.63137802700089
  0
LINE
  8
_f-0_
  6
CONTINUOUS
 62
    7
 10
145.92190945814195
 20
272.17690842700108
 11
145.92190945814195
 21
154.63137802700089
  0
LINE
  8
_f-0_
  6
CONTINUOUS
 62
    7
 10
1084.5597312581417
 20
272.17690842700108
 11
1084.5597312581417
 21
154.63137802700089
  0
LINE
  8
_f-0_
  6
CONTINUOUS
 62
    7
 10
1521.3244371581418
 20
272.17690842700108
 11
1521.3244371581418
 21
154.63137802700089
  0
LINE
  8
_f-0_
  6
CONTINUOUS
 62
    7
 10
1755.1479665581417
 20
272.17690842700108
 11
1755.1479665581417
 21
154.63137802700089
  0
LINE
  8
_f-0_
  6
CONTINUOUS
 62
    7
 10
2026.471495958142
 20
272.17690842700108
 11
2026.471495958142
 21
154.63137802700089
  0
LINE
  8
_f-0_
  6
CONTINUOUS
 62
    7
 10
2782.5613812581419
 20
272.17690842700108
 11
2782.5613812581419
 21
154.63137802700089
  0
TEXT
  8
_f-0_
 62
    7
 10
1568.5886917757796
 20
188.15385166346772
 40
34.616986052576095
 41
1.0000000000000095
 50
0
  1
S=1/10
  0
TEXT
  8
_f-0_
 62
    7
 10
2174.7535403050088
 20
164.29057734204775
 40
34.616986052575953
 41
1.000000000000012
 50
0
  1
日鉄物産マテックス株式会社
  0
LINE
  8
ADD_LINE
  6
DOT
 62
    9
 10
145.92190945814195
 20
212.59531590400101
 11
2782.5613812702341
 21
212.59531590400101
  0
LINE
  8
ADD_LINE
  6
DOT
 62
    9
 10
145.92190945814195
 20
175.76404018400112
 11
2782.5613812702341
 21
175.76404018400112
  0
LINE
  8
ADD_LINE
  6
DOT
 62
    9
 10
1104.530682643142
 20
272.17690842700108
 11
1104.530682643142
 21
154.63137802700089
  0
LINE
  8
ADD_LINE
  6
DOT
 62
    9
 10
2042.5299564271422
 20
272.17690842700108
 11
2042.5299564271422
 21
154.63137802700089
  0
LINE
  8
ADD_LINE
  6
DOT
 62
    9
 10
1985.6127450980393
 20
228.38749697400104
 11
2782.5613812702341
 21
228.38749697400104
  0
TEXT
  8
_f-0_
 62
    7
 10
1104.530682643142
 20
175.76404018400112
 40
34.616986052576095
 41
1.0000000000000056
 50
0
  1
K-3073
  0
TEXT
  8
_f-0_
 62
    7
 10
1104.530682643142
 20
212.59531590400101
 40
34.616986052576095
 41
1.0000000000000056
 50
0
  1
ミラーキャビネット
  0
TEXT
  8
_f-0_
 62
    7
 10
2042.5299564271422
 20
228.38749697400104
 40
34.616986052576095
 41
1.000000000000008
 50
0
  1
KOHLER　アーチャー
  0
ENDSEC
  0
EOF
