  0
SECTION
  2
HEADER
  9
$ACADVER
  1
AC1009
  9
$INSBASE
 10
0
 20
0
 30
0
  9
$EXTMIN
 10
0
 20
0
  9
$EXTMAX
 10
2970
 20
2100
  9
$LIMMIN
 10
0
 20
0
  9
$LIMMAX
 10
2970
 20
2100
  9
$LTSCALE
 40
10
  0
ENDSEC
  0
SECTION
  2
TABLES
  0
TABLE
  2
LTYPE
 70
     9
  0
LTYPE
  2
CONTINUOUS
 70
    64
  3
実線
 72
    65
 73
     0
 40
0.0
  0
LTYPE
  2
DASHED1
 70
    64
  3
--  --  --  --  --  --  --  --  
 72
    65
 73
     2
 40
2.5
 49
1.25
 49
-1.25
  0
LTYPE
  2
DASHED2
 70
    64
  3
----    ----    ----    ----    
 72
    65
 73
     2
 40
5.0
 49
2.5
 49
-2.5
  0
LTYPE
  2
DASHED3
 70
    64
  3
------  ------  ------  ------  
 72
    65
 73
     2
 40
5.0
 49
3.75
 49
-1.25
  0
LTYPE
  2
CENTER1
 70
    64
  3
----- - ----- - ----- - ----- - 
 72
    65
 73
     4
 40
10.0
 49
6.25
 49
-1.25
 49
1.25
 49
-1.25
  0
LTYPE
  2
CENTER2
 70
    64
  3
----------  --  ----------  --  
 72
    65
 73
     4
 40
20.0
 49
12.5
 49
-2.5
 49
2.5
 49
-2.5
  0
LTYPE
  2
PHANTOM1
 70
    64
  3
--- - - --- - - --- - - --- - - 
 72
    65
 73
     6
 40
10.0
 49
3.25
 49
-1.25
 49
1.25
 49
-1.25
 49
1.25
 49
-1.25
  0
LTYPE
  2
PHANTOM2
 70
    64
  3
--------  -  -  --------  -  -  
 72
    65
 73
     6
 40
20.0
 49
10.0
 49
-2.5
 49
1.25
 49
-2.5
 49
1.25
 49
-2.5
  0
LTYPE
  2
DOT
 70
    64
  3
-   -   -   -   -   -   -   -   
 72
    65
 73
     2
 40
2.5
 49
0.625
 49
-1.875
  0
LTYPE
  2
DUMMY
 70
    64
  3
ダミー
 72
    65
 73
     0
 40
0.0
  0
LTYPE
  2
RAND1
 70
    64
  3
ランダム線1
 72
    65
 73
     4
 40
10.0
 49
1.0
 49
-2.0
 49
3.0
 49
-4.0
  0
LTYPE
  2
RAND2
 70
    64
  3
ランダム線2
 72
    65
 73
     4
 40
14.0
 49
2.0
 49
-3.0
 49
4.0
 49
-5.0
  0
LTYPE
  2
RAND3
 70
    64
  3
ランダム線3
 72
    65
 73
     4
 40
18.0
 49
3.0
 49
-4.0
 49
5.0
 49
-6.0
  0
LTYPE
  2
RAND4
 70
    64
  3
ランダム線4
 72
    65
 73
     4
 40
22.0
 49
4.0
 49
-5.0
 49
6.0
 49
-7.0
  0
LTYPE
  2
RAND5
 70
    64
  3
ランダム線5
 72
    65
 73
     4
 40
26.0
 49
5.0
 49
-6.0
 49
7.0
 49
-8.0
  0
LTYPE
  2
LONG1
 70
    64
  3
----------  --  ----------  --  
 72
    65
 73
     4
 40
40.0
 49
32.5
 49
-2.5
 49
2.5
 49
-2.5
  0
LTYPE
  2
LONG2
 70
    64
  3
--------  -  -  --------  -  -  
 72
    65
 73
     6
 40
40.0
 49
30.0
 49
-2.5
 49
1.25
 49
-2.5
 49
1.25
 49
-2.5
  0
LTYPE
  2
LONG3
 70
    64
  3
+++++++++++++++..+++++++++++++++
 72
    65
 73
     2
 40
40.0
 49
37.5
 49
-2.5
  0
LTYPE
  2
LONG4
 70
    64
  3
+++++++++++++++..+++++++++++++++
 72
    65
 73
     2
 40
80.0
 49
75.0
 49
-5.0
  0
LTYPE
  2
LONG5
 70
    64
  3
----------  --  ----------  --  
 72
    65
 73
     4
 40
60.0
 49
37.5
 49
-7.5
 49
7.5
 49
-7.5
  0
LTYPE
  2
dashed
 70
   64
  3
-------   -------------   ------
 72
   65
 73
    2
 40
7.5
 49
6
 49
-1.5
  0
LTYPE
  2
dashed_spaced
 70
   64
  3
----        --------        ----
 72
   65
 73
    2
 40
12
 49
6
 49
-6
  0
LTYPE
  2
long_dashed_dotted
 70
   64
  3
------------- --- --------------
 72
   65
 73
    4
 40
15.25
 49
12
 49
-1.5
 49
0.25
 49
-1.5
  0
LTYPE
  2
long_dashed_double-dotted
 70
   64
  3
----------- --- --- ------------
 72
   65
 73
    6
 40
17
 49
12
 49
-1.5
 49
0.25
 49
-1.5
 49
0.25
 49
-1.5
  0
LTYPE
  2
long_dashed_triplicate-dotted
 70
   64
  3
--------- --- --- --- ----------
 72
   65
 73
    8
 40
18.75
 49
12
 49
-1.5
 49
0.25
 49
-1.5
 49
0.25
 49
-1.5
 49
0.25
 49
-1.5
  0
LTYPE
  2
dotted
 70
   64
  3
   -       -       -       -    
 72
   65
 73
    2
 40
1.75
 49
0.25
 49
-1.5
  0
LTYPE
  2
chain
 70
   64
  3
-------------- -- --------------
 72
   65
 73
    4
 40
18.5
 49
12
 49
-1.5
 49
3.5
 49
-1.5
  0
LTYPE
  2
chain_double_dash
 70
   64
  3
------------ -- -- -------------
 72
   65
 73
    6
 40
23.5
 49
12
 49
-1.5
 49
3.5
 49
-1.5
 49
3.5
 49
-1.5
  0
LTYPE
  2
dashed_dotted
 70
   64
  3
-----------     -     ----------
 72
   65
 73
    4
 40
9.25
 49
6
 49
-1.5
 49
0.25
 49
-1.5
  0
LTYPE
  2
double-dashed_dotted
 70
   64
  3
------   -----------   -   -----
 72
   65
 73
    6
 40
16.75
 49
6
 49
-1.5
 49
6
 49
-1.5
 49
0.25
 49
-1.5
  0
LTYPE
  2
dashed_double-dotted
 70
   64
  3
---------    -    -    ---------
 72
   65
 73
    6
 40
11
 49
6
 49
-1.5
 49
0.25
 49
-1.5
 49
0.25
 49
-1.5
  0
LTYPE
  2
double-dashed_double-dotted
 70
   64
  3
-----   ---------   -   -   ----
 72
   65
 73
    8
 40
18.5
 49
6
 49
-1.5
 49
6
 49
-1.5
 49
0.25
 49
-1.5
 49
0.25
 49
-1.5
  0
LTYPE
  2
dashed_triplicate-dotted
 70
   64
  3
-------    -    -    -    ------
 72
   65
 73
    8
 40
12.75
 49
6
 49
-1.5
 49
0.25
 49
-1.5
 49
0.25
 49
-1.5
 49
0.25
 49
-1.5
  0
LTYPE
  2
double-dashed_triplicate-dotted
 70
   64
  3
-----  ---------  -  -  -  -----
 72
   65
 73
   10
 40
20.25
 49
6
 49
-1.5
 49
6
 49
-1.5
 49
0.25
 49
-1.5
 49
0.25
 49
-1.5
 49
0.25
 49
-1.5
  0
LTYPE
  2
undefined
 70
   64
  3
--------------------------------
 72
   65
 73
    0
 40
0
  0
LTYPE
  2
AI9-LType1
 70
   64
  3
--     ------------------     --
 72
   65
 73
    4
 40
5.0002720000000007
 49
0.600075
 49
-0.8001
 49
2.7999969999999998
 49
-0.8001
  0
LTYPE
  2
_
 70
   64
  3
                                
 72
   65
 73
    0
 40
0
  0
LTYPE
  2
__19
 70
   64
  3
                                
 72
   65
 73
    0
 40
0
  0
LTYPE
  2
__20
 70
   64
  3
                                
 72
   65
 73
    0
 40
0
  0
LTYPE
  2
__21
 70
   64
  3
                                
 72
   65
 73
    0
 40
0
  0
LTYPE
  2
__22
 70
   64
  3
                                
 72
   65
 73
    0
 40
0
  0
LTYPE
  2
__23
 70
   64
  3
                                
 72
   65
 73
    0
 40
0
  0
LTYPE
  2
__24
 70
   64
  3
                                
 72
   65
 73
    0
 40
0
  0
LTYPE
  2
__25
 70
   64
  3
                                
 72
   65
 73
    0
 40
0
  0
LTYPE
  2
__26
 70
   64
  3
                                
 72
   65
 73
    0
 40
0
  0
LTYPE
  2
__27
 70
   64
  3
                                
 72
   65
 73
    0
 40
0
  0
LTYPE
  2
__28
 70
   64
  3
                                
 72
   65
 73
    0
 40
0
  0
LTYPE
  2
__29
 70
   64
  3
                                
 72
   65
 73
    0
 40
0
  0
LTYPE
  2
__30
 70
   64
  3
                                
 72
   65
 73
    0
 40
0
  0
LTYPE
  2
__31
 70
   64
  3
                                
 72
   65
 73
    0
 40
0
  0
LTYPE
  2
__32
 70
   64
  3
                                
 72
   65
 73
    0
 40
0
  0
ENDTAB
  0
TABLE
  2
STYLE
  5
3
100
AcDbSymbolTable
 70
     1
  0
STYLE
  5
10
100
AcDbSymbolTableRecord
100
AcDbTextStyleTableRecord
  2
STANDARD
 70
     0
 40
0.0
 41
1.0
 50
0.0
 71
     0
 42
0.2
  3
txt
  4
bigfont.shx
  0
STYLE
  5
26
100
AcDbSymbolTableRecord
100
AcDbTextStyleTableRecord
  2
TATEGAKI
 70
    68
 40
0.0
 41
1.0
 50
0.0
 71
     0
 42
1.0
  3
txt
  4
bigfont.shx
  0
ENDTAB
  0
TABLE
  2
LAYER
 70
    5
  0
LAYER
  2
_0-0_0
 70
   64
 62
    7
  6
CONTINUOUS
  0
LAYER
  2
_0-1_DEFPOINTS
 70
   64
 62
    7
  6
CONTINUOUS
  0
LAYER
  2
_0-2_躯体
 70
   64
 62
    7
  6
CONTINUOUS
  0
LAYER
  2
_f-0____-240
 70
   64
 62
    7
  6
CONTINUOUS
  0
LAYER
  2
ADD_LINE
 70
   64
 62
    7
  6
CONTINUOUS
  0
ENDTAB
  0
ENDSEC
  0
SECTION
  2
BLOCKS
  0
ENDSEC
  0
SECTION
  2
ENTITIES
  0
LINE
  8
_f-0____-240
  6
CONTINUOUS
 62
    7
 10
145.92190945814195
 20
272.17690842700108
 11
2782.5613812702341
 21
272.17690842700108
  0
LINE
  8
_f-0____-240
  6
CONTINUOUS
 62
    7
 10
93.498778584810225
 20
2041.1430038495319
 11
2835.164073948858
 21
2041.1430038495319
  0
LINE
  8
_f-0____-240
  6
CONTINUOUS
 62
    7
 10
2835.164073948858
 20
2041.1430038495319
 11
2835.164073948858
 21
102.59178490525528
  0
LINE
  8
_f-0____-240
  6
CONTINUOUS
 62
    7
 10
2835.164073948858
 20
102.59178490525528
 11
93.498778584810225
 21
102.59178490525528
  0
LINE
  8
_f-0____-240
  6
CONTINUOUS
 62
    7
 10
93.498778584810225
 20
102.59178490525528
 11
93.498778584810225
 21
2041.1430038495319
  0
TEXT
  8
_f-0____-240
 62
    7
 10
1832.9041847314718
 20
188.57658079799819
 40
34.616986052576237
 41
1.0000000000000038
 50
0
  1
19/04/18
  0
LINE
  8
_f-0____-240
  6
CONTINUOUS
 62
    7
 10
145.92190945814195
 20
154.63137802700089
 11
2782.5613812702341
 21
154.63137802700089
  0
LINE
  8
_f-0____-240
  6
CONTINUOUS
 62
    7
 10
145.92190945814195
 20
272.17690842700108
 11
145.92190945814195
 21
154.63137802700089
  0
LINE
  8
_f-0____-240
  6
CONTINUOUS
 62
    7
 10
1084.5597312581417
 20
272.17690842700108
 11
1084.5597312581417
 21
154.63137802700089
  0
LINE
  8
_f-0____-240
  6
CONTINUOUS
 62
    7
 10
1521.3244371581418
 20
272.17690842700108
 11
1521.3244371581418
 21
154.63137802700089
  0
LINE
  8
_f-0____-240
  6
CONTINUOUS
 62
    7
 10
1755.1479665581417
 20
272.17690842700108
 11
1755.1479665581417
 21
154.63137802700089
  0
LINE
  8
_f-0____-240
  6
CONTINUOUS
 62
    7
 10
2026.471495958142
 20
272.17690842700108
 11
2026.471495958142
 21
154.63137802700089
  0
LINE
  8
_f-0____-240
  6
CONTINUOUS
 62
    7
 10
2782.5613812581419
 20
272.17690842700108
 11
2782.5613812581419
 21
154.63137802700089
  0
TEXT
  8
_f-0____-240
 62
    7
 10
1568.5886917757796
 20
188.15385166346772
 40
34.616986052576095
 41
1.0000000000000095
 50
0
  1
S=1/10
  0
TEXT
  8
_f-0____-240
 62
    7
 10
2174.7535403050088
 20
164.29057734204775
 40
34.616986052575953
 41
1.000000000000012
 50
0
  1
日鉄物産マテックス株式会社
  0
LINE
  8
ADD_LINE
  6
DOT
 62
    9
 10
145.92190945814195
 20
212.59531590400101
 11
2782.5613812702341
 21
212.59531590400101
  0
LINE
  8
ADD_LINE
  6
DOT
 62
    9
 10
145.92190945814195
 20
175.76404018400112
 11
2782.5613812702341
 21
175.76404018400112
  0
LINE
  8
ADD_LINE
  6
DOT
 62
    9
 10
1104.530682643142
 20
272.17690842700108
 11
1104.530682643142
 21
154.63137802700089
  0
LINE
  8
ADD_LINE
  6
DOT
 62
    9
 10
2042.5299564271422
 20
272.17690842700108
 11
2042.5299564271422
 21
154.63137802700089
  0
LINE
  8
ADD_LINE
  6
DOT
 62
    9
 10
1985.6127450980393
 20
228.38749697400104
 11
2782.5613812702341
 21
228.38749697400104
  0
TEXT
  8
_f-0____-240
 62
    7
 10
1104.530682643142
 20
175.76404018400112
 40
34.616986052576095
 41
1.0000000000000056
 50
0
  1
K-5373T
  0
TEXT
  8
_f-0____-240
 62
    7
 10
1104.530682643142
 20
212.59531590400101
 40
34.616986052576095
 41
1.0000000000000056
 50
0
  1
ラバトリーシンク
  0
TEXT
  8
_f-0____-240
 62
    7
 10
2042.5299564271422
 20
228.38749697400104
 40
34.616986052576095
 41
1.000000000000008
 50
0
  1
KOHLER　ボックス
  0
LINE
  8
_0-0_0
  6
CONTINUOUS
 62
    7
 10
631.12239172653619
 20
1521.6702130411309
 11
630.86016450891839
 21
1521.7979697668327
  0
LINE
  8
_0-0_0
  6
CONTINUOUS
 62
    7
 10
630.86016450891839
 20
1521.7979697668327
 11
630.06844753140354
 21
1522.1896223933243
  0
LINE
  8
_0-0_0
  6
CONTINUOUS
 62
    7
 10
630.06844753140354
 20
1522.1896223933243
 11
629.28345407848497
 21
1522.5745514952209
  0
LINE
  8
_0-0_0
  6
CONTINUOUS
 62
    7
 10
629.28345407848497
 20
1522.5745514952209
 11
628.49173710097023
 21
1522.9510786309675
  0
LINE
  8
_0-0_0
  6
CONTINUOUS
 62
    7
 10
628.49173710097023
 20
1522.9510786309675
 11
627.68993971575253
 21
1523.3091233928612
  0
LINE
  8
_0-0_0
  6
CONTINUOUS
 62
    7
 10
627.68993971575253
 20
1523.3091233928612
 11
627.15203823132515
 21
1523.5242761799273
  0
LINE
  8
_0-0_0
  6
CONTINUOUS
 62
    7
 10
627.15203823132515
 20
1523.5242761799273
 11
626.33007027231986
 21
1523.83524651127
  0
LINE
  8
_0-0_0
  6
CONTINUOUS
 62
    7
 10
626.33007027231986
 20
1523.83524651127
 11
625.49969058878389
 21
1524.1193325026102
  0
LINE
  8
_0-0_0
  6
CONTINUOUS
 62
    7
 10
625.49969058878389
 20
1524.1193325026102
 11
624.65754229761023
 21
1524.3630578296129
  0
LINE
  8
_0-0_0
  6
CONTINUOUS
 62
    7
 10
624.65754229761023
 20
1524.3630578296129
 11
623.8069920402869
 21
1524.5899889826978
  0
LINE
  8
_0-0_0
  6
CONTINUOUS
 62
    7
 10
623.8069920402869
 20
1524.5899889826978
 11
622.95308489985609
 21
1524.7715241467849
  0
LINE
  8
_0-0_0
  6
CONTINUOUS
 62
    7
 10
1188.2356304454338
 20
1524.7715241467849
 11
1187.6708446210043
 21
1524.6555457871027
  0
LINE
  8
_0-0_0
  6
CONTINUOUS
 62
    7
 10
1187.6708446210043
 20
1524.6555457871027
 11
1186.8169277221928
 21
1524.4454283246976
  0
LINE
  8
_0-0_0
  6
CONTINUOUS
 62
    7
 10
1186.8169277221928
 20
1524.4454283246976
 11
1185.9731009894651
 21
1524.2016932393135
  0
LINE
  8
_0-0_0
  6
CONTINUOUS
 62
    7
 10
1185.9731009894651
 20
1524.2016932393135
 11
1185.1326408982263
 21
1523.937787580142
  0
LINE
  8
_0-0_0
  6
CONTINUOUS
 62
    7
 10
1185.1326408982263
 20
1523.937787580142
 11
1184.3073062977326
 21
1523.6368976565029
  0
LINE
  8
_0-0_0
  6
CONTINUOUS
 62
    7
 10
1184.3073062977326
 20
1523.6368976565029
 11
1183.4987756295377
 21
1523.3091233928612
  0
LINE
  8
_0-0_0
  6
CONTINUOUS
 62
    7
 10
1183.4987756295377
 20
1523.3091233928612
 11
1183.2264680042167
 21
1523.1897783916907
  0
LINE
  8
_0-0_0
  6
CONTINUOUS
 62
    7
 10
1183.2264680042167
 20
1523.1897783916907
 11
1182.4280275021063
 21
1522.8216532220936
  0
LINE
  8
_0-0_0
  6
CONTINUOUS
 62
    7
 10
1182.4280275021063
 20
1522.8216532220936
 11
1181.6363105245916
 21
1522.4468045279004
  0
LINE
  8
_0-0_0
  6
CONTINUOUS
 62
    7
 10
1181.6363105245916
 20
1522.4468045279004
 11
1180.066323618754
 21
1521.6702130411309
  0
LINE
  8
_0-0_0
  6
CONTINUOUS
 62
    7
 10
1188.729824140798
 20
1524.7715241467849
 11
1188.729824140798
 21
1217.4391075299345
  0
LINE
  8
_0-0_0
  6
CONTINUOUS
 62
    7
 10
1188.2356304454338
 20
1217.4391075299345
 11
1188.2356304454338
 21
1524.7715241467849
  0
LINE
  8
_0-0_0
  6
CONTINUOUS
 62
    7
 10
667.66071769338009
 20
1569.9783957187151
 11
1143.5263192103564
 21
1569.9783957187151
  0
LINE
  8
_0-0_0
  6
CONTINUOUS
 62
    7
 10
1143.5263192103564
 20
1569.4825235817975
 11
667.66071769338009
 21
1569.4825235817975
  0
LINE
  8
_0-0_0
  6
CONTINUOUS
 62
    7
 10
667.66071769338009
 20
1172.7264296533688
 11
1143.5263192103564
 21
1172.7264296533688
  0
LINE
  8
_0-0_0
  6
CONTINUOUS
 62
    7
 10
1143.5263192103564
 20
1172.2355928411121
 11
667.66071769338009
 21
1172.2355928411121
  0
LINE
  8
_0-0_0
  6
CONTINUOUS
 62
    7
 10
622.94971825836785
 20
1524.7715241467849
 11
622.94971825836785
 21
1217.4391075299345
  0
LINE
  8
_0-0_0
  6
CONTINUOUS
 62
    7
 10
622.45384612145017
 20
1217.4391075299345
 11
622.45384612145017
 21
1524.7715241467849
  0
LINE
  8
_0-0_0
  6
CONTINUOUS
 62
    7
 10
905.5960361141988
 20
1204.5295792458703
 11
905.8532182487744
 21
1204.5295792458703
  0
LINE
  8
_0-0_0
  6
CONTINUOUS
 62
    7
 10
905.8532182487744
 20
1204.5295792458703
 11
906.83824875639516
 21
1204.4757910491037
  0
LINE
  8
_0-0_0
  6
CONTINUOUS
 62
    7
 10
906.83824875639516
 20
1204.4757910491037
 11
907.81317933955052
 21
1204.3446774402948
  0
LINE
  8
_0-0_0
  6
CONTINUOUS
 62
    7
 10
907.81317933955052
 20
1204.3446774402948
 11
908.77635107344895
 21
1204.1328815363361
  0
LINE
  8
_0-0_0
  6
CONTINUOUS
 62
    7
 10
908.77635107344895
 20
1204.1328815363361
 11
909.51932493723928
 21
1203.9042719416971
  0
LINE
  8
_0-0_0
  6
CONTINUOUS
 62
    7
 10
909.51932493723928
 20
1203.9042719416971
 11
910.43206535747845
 21
1203.5277448059508
  0
LINE
  8
_0-0_0
  6
CONTINUOUS
 62
    7
 10
910.43206535747845
 20
1203.5277448059508
 11
911.29606266399355
 21
1203.0638118504583
  0
LINE
  8
_0-0_0
  6
CONTINUOUS
 62
    7
 10
911.29606266399355
 20
1203.0638118504583
 11
911.5448428324197
 21
1202.9024375017773
  0
LINE
  8
_0-0_0
  6
CONTINUOUS
 62
    7
 10
911.5448428324197
 20
1202.9024375017773
 11
912.30126374540168
 21
1202.2771399559858
  0
LINE
  8
_0-0_0
  6
CONTINUOUS
 62
    7
 10
912.30126374540168
 20
1202.2771399559858
 11
912.85260252063949
 21
1201.5980444550464
  0
LINE
  8
_0-0_0
  6
CONTINUOUS
 62
    7
 10
912.85260252063949
 20
1201.5980444550464
 11
912.97363572174515
 21
1201.3929720756837
  0
LINE
  8
_0-0_0
  6
CONTINUOUS
 62
    7
 10
912.97363572174515
 20
1201.3929720756837
 11
913.27956097004528
 21
1200.6567217364889
  0
LINE
  8
_0-0_0
  6
CONTINUOUS
 62
    7
 10
913.27956097004528
 20
1200.6567217364889
 11
913.37536875594037
 21
1199.9507321371661
  0
LINE
  8
_0-0_0
  6
CONTINUOUS
 62
    7
 10
921.60351862081006
 20
1199.9238380387831
 11
921.70604993130098
 21
1200.633184521213
  0
LINE
  8
_0-0_0
  6
CONTINUOUS
 62
    7
 10
921.70604993130098
 20
1200.633184521213
 11
922.00525165500517
 21
1201.3660779773004
  0
LINE
  8
_0-0_0
  6
CONTINUOUS
 62
    7
 10
922.00525165500517
 20
1201.3660779773004
 11
922.12628485611106
 21
1201.5644268320673
  0
LINE
  8
_0-0_0
  6
CONTINUOUS
 62
    7
 10
922.12628485611106
 20
1201.5644268320673
 11
922.67762363134898
 21
1202.2367988084111
  0
LINE
  8
_0-0_0
  6
CONTINUOUS
 62
    7
 10
922.67762363134898
 20
1202.2367988084111
 11
923.44244651048029
 21
1202.8553728296069
  0
LINE
  8
_0-0_0
  6
CONTINUOUS
 62
    7
 10
923.44244651048029
 20
1202.8553728296069
 11
923.68954823735282
 21
1203.0167471782877
  0
LINE
  8
_0-0_0
  6
CONTINUOUS
 62
    7
 10
923.68954823735282
 20
1203.0167471782877
 11
924.79391398776329
 21
1203.5949800519088
  0
LINE
  8
_0-0_0
  6
CONTINUOUS
 62
    7
 10
924.79391398776329
 20
1203.5949800519088
 11
926.08822662679154
 21
1204.0320286673987
  0
LINE
  8
_0-0_0
  6
CONTINUOUS
 62
    7
 10
926.08822662679154
 20
1204.0320286673987
 11
926.21934023560038
 21
1204.0757266980811
  0
LINE
  8
_0-0_0
  6
CONTINUOUS
 62
    7
 10
926.21934023560038
 20
1204.0757266980811
 11
927.73721738622521
 21
1204.354767606379
  0
LINE
  8
_0-0_0
  6
CONTINUOUS
 62
    7
 10
927.73721738622521
 20
1204.354767606379
 11
929.34923363957273
 21
1204.4488969507202
  0
LINE
  8
_0-0_0
  6
CONTINUOUS
 62
    7
 10
929.34923363957273
 20
1204.4488969507202
 11
929.40133363640427
 21
1204.4488969507202
  0
LINE
  8
_0-0_0
  6
CONTINUOUS
 62
    7
 10
929.40133363640427
 20
1204.4488969507202
 11
929.43831790087188
 21
1204.4488969507202
  0
LINE
  8
_0-0_0
  6
CONTINUOUS
 62
    7
 10
929.43831790087188
 20
1204.4488969507202
 11
931.05369103732642
 21
1204.3345872742107
  0
LINE
  8
_0-0_0
  6
CONTINUOUS
 62
    7
 10
931.05369103732642
 20
1204.3345872742107
 11
932.57492507105871
 21
1204.0185816182075
  0
LINE
  8
_0-0_0
  6
CONTINUOUS
 62
    7
 10
932.57492507105871
 20
1204.0185816182075
 11
932.6808230230381
 21
1203.9984110444195
  0
LINE
  8
_0-0_0
  6
CONTINUOUS
 62
    7
 10
932.6808230230381
 20
1203.9984110444195
 11
933.97850230355459
 21
1203.5277448059508
  0
LINE
  8
_0-0_0
  6
CONTINUOUS
 62
    7
 10
933.97850230355459
 20
1203.5277448059508
 11
935.09127977849573
 21
1202.9427884077338
  0
LINE
  8
_0-0_0
  6
CONTINUOUS
 62
    7
 10
935.09127977849573
 20
1202.9427884077338
 11
935.32829133928408
 21
1202.7847807005414
  0
LINE
  8
_0-0_0
  6
CONTINUOUS
 62
    7
 10
935.32829133928408
 20
1202.7847807005414
 11
936.09311421841539
 21
1202.1493832302842
  0
LINE
  8
_0-0_0
  6
CONTINUOUS
 62
    7
 10
936.09311421841539
 20
1202.1493832302842
 11
936.64781963514179
 21
1201.4702877293448
  0
LINE
  8
_0-0_0
  6
CONTINUOUS
 62
    7
 10
936.64781963514179
 20
1201.4702877293448
 11
936.7671646363126
 21
1201.2685819914705
  0
LINE
  8
_0-0_0
  6
CONTINUOUS
 62
    7
 10
936.7671646363126
 20
1201.2685819914705
 11
937.0663663600169
 21
1200.5323316522758
  0
LINE
  8
_0-0_0
  6
CONTINUOUS
 62
    7
 10
937.0663663600169
 20
1200.5323316522758
 11
937.17058587044278
 21
1199.8297086944417
  0
LINE
  8
_0-0_0
  6
CONTINUOUS
 62
    7
 10
874.01645103329406
 20
1199.8297086944417
 11
874.11730390223113
 21
1200.5323316522758
  0
LINE
  8
_0-0_0
  6
CONTINUOUS
 62
    7
 10
874.11730390223113
 20
1200.5323316522758
 11
874.4198722674239
 21
1201.2685819914705
  0
LINE
  8
_0-0_0
  6
CONTINUOUS
 62
    7
 10
874.4198722674239
 20
1201.2685819914705
 11
874.54089571014856
 21
1201.4702877293448
  0
LINE
  8
_0-0_0
  6
CONTINUOUS
 62
    7
 10
874.54089571014856
 20
1201.4702877293448
 11
875.0939226853211
 21
1202.1493832302842
  0
LINE
  8
_0-0_0
  6
CONTINUOUS
 62
    7
 10
875.0939226853211
 20
1202.1493832302842
 11
875.85874556445242
 21
1202.7847807005414
  0
LINE
  8
_0-0_0
  6
CONTINUOUS
 62
    7
 10
875.85874556445242
 20
1202.7847807005414
 11
876.09240024213352
 21
1202.9427884077338
  0
LINE
  8
_0-0_0
  6
CONTINUOUS
 62
    7
 10
876.09240024213352
 20
1202.9427884077338
 11
877.20853460018202
 21
1203.5277448059508
  0
LINE
  8
_0-0_0
  6
CONTINUOUS
 62
    7
 10
877.20853460018202
 20
1203.5277448059508
 11
878.50620412231751
 21
1203.9984110444195
  0
LINE
  8
_0-0_0
  6
CONTINUOUS
 62
    7
 10
878.50620412231751
 20
1203.9984110444195
 11
878.61210207429679
 21
1204.0185816182075
  0
LINE
  8
_0-0_0
  6
CONTINUOUS
 62
    7
 10
878.61210207429679
 20
1204.0185816182075
 11
880.13502430796382
 21
1204.3345872742107
  0
LINE
  8
_0-0_0
  6
CONTINUOUS
 62
    7
 10
880.13502430796382
 20
1204.3345872742107
 11
881.74871900286473
 21
1204.4488969507202
  0
LINE
  8
_0-0_0
  6
CONTINUOUS
 62
    7
 10
881.74871900286473
 20
1204.4488969507202
 11
881.78738170888607
 21
1204.4488969507202
  0
LINE
  8
_0-0_0
  6
CONTINUOUS
 62
    7
 10
881.78738170888607
 20
1204.4488969507202
 11
881.84116990565258
 21
1204.4488969507202
  0
LINE
  8
_0-0_0
  6
CONTINUOUS
 62
    7
 10
881.84116990565258
 20
1204.4488969507202
 11
883.45317640061864
 21
1204.354767606379
  0
LINE
  8
_0-0_0
  6
CONTINUOUS
 62
    7
 10
883.45317640061864
 20
1204.354767606379
 11
884.96769666813611
 21
1204.0757266980811
  0
LINE
  8
_0-0_0
  6
CONTINUOUS
 62
    7
 10
884.96769666813611
 20
1204.0757266980811
 11
885.09881027694519
 21
1204.0320286673987
  0
LINE
  8
_0-0_0
  6
CONTINUOUS
 62
    7
 10
885.09881027694519
 20
1204.0320286673987
 11
886.38975627448474
 21
1203.5949800519088
  0
LINE
  8
_0-0_0
  6
CONTINUOUS
 62
    7
 10
886.38975627448474
 20
1203.5949800519088
 11
887.50085530787237
 21
1203.0167471782877
  0
LINE
  8
_0-0_0
  6
CONTINUOUS
 62
    7
 10
887.50085530787237
 20
1203.0167471782877
 11
887.7496257179173
 21
1202.8553728296069
  0
LINE
  8
_0-0_0
  6
CONTINUOUS
 62
    7
 10
887.7496257179173
 20
1202.8553728296069
 11
888.50604663089928
 21
1202.2367988084111
  0
LINE
  8
_0-0_0
  6
CONTINUOUS
 62
    7
 10
888.50604663089928
 20
1202.2367988084111
 11
889.06075204762556
 21
1201.5644268320673
  0
LINE
  8
_0-0_0
  6
CONTINUOUS
 62
    7
 10
889.06075204762556
 20
1201.5644268320673
 11
889.18177549035022
 21
1201.3660779773004
  0
LINE
  8
_0-0_0
  6
CONTINUOUS
 62
    7
 10
889.18177549035022
 20
1201.3660779773004
 11
889.4843438555431
 21
1200.633184521213
  0
LINE
  8
_0-0_0
  6
CONTINUOUS
 62
    7
 10
889.4843438555431
 20
1200.633184521213
 11
889.58016139981919
 21
1199.9238380387831
  0
LINE
  8
_0-0_0
  6
CONTINUOUS
 62
    7
 10
897.81165838941524
 20
1199.9507321371661
 11
897.91252101673354
 21
1200.6567217364889
  0
LINE
  8
_0-0_0
  6
CONTINUOUS
 62
    7
 10
897.91252101673354
 20
1200.6567217364889
 11
898.21508938192619
 21
1201.3929720756837
  0
LINE
  8
_0-0_0
  6
CONTINUOUS
 62
    7
 10
898.21508938192619
 20
1201.3929720756837
 11
898.33106774160865
 21
1201.5980444550464
  0
LINE
  8
_0-0_0
  6
CONTINUOUS
 62
    7
 10
898.33106774160865
 20
1201.5980444550464
 11
898.88577315833504
 21
1202.2771399559858
  0
LINE
  8
_0-0_0
  6
CONTINUOUS
 62
    7
 10
898.88577315833504
 20
1202.2771399559858
 11
899.09925726222855
 21
1202.4653986446688
  0
LINE
  8
_0-0_0
  6
CONTINUOUS
 62
    7
 10
899.09925726222855
 20
1202.4653986446688
 11
899.88760759825482
 21
1203.0638118504583
  0
LINE
  8
_0-0_0
  6
CONTINUOUS
 62
    7
 10
899.88760759825482
 20
1203.0638118504583
 11
900.57006974068258
 21
1203.4470625108006
  0
LINE
  8
_0-0_0
  6
CONTINUOUS
 62
    7
 10
900.57006974068258
 20
1203.4470625108006
 11
901.47440819477254
 21
1203.833679812632
  0
LINE
  8
_0-0_0
  6
CONTINUOUS
 62
    7
 10
901.47440819477254
 20
1203.833679812632
 11
902.41404271339502
 21
1204.1328815363361
  0
LINE
  8
_0-0_0
  6
CONTINUOUS
 62
    7
 10
902.41404271339502
 20
1204.1328815363361
 11
902.669546406417
 21
1204.1866697331027
  0
LINE
  8
_0-0_0
  6
CONTINUOUS
 62
    7
 10
902.669546406417
 20
1204.1866697331027
 11
903.6360750234229
 21
1204.3816617047623
  0
LINE
  8
_0-0_0
  6
CONTINUOUS
 62
    7
 10
903.6360750234229
 20
1204.3816617047623
 11
904.61101536495926
 21
1204.4959616228912
  0
LINE
  8
_0-0_0
  6
CONTINUOUS
 62
    7
 10
904.61101536495926
 20
1204.4959616228912
 11
905.5960361141988
 21
1204.5295792458703
  0
LINE
  8
_0-0_0
  6
CONTINUOUS
 62
    7
 10
913.37536875594037
 20
1199.9507321371661
 11
913.27956097004528
 21
1199.2481091793322
  0
LINE
  8
_0-0_0
  6
CONTINUOUS
 62
    7
 10
913.27956097004528
 20
1199.2481091793322
 11
912.97363572174515
 21
1198.508492198649
  0
LINE
  8
_0-0_0
  6
CONTINUOUS
 62
    7
 10
912.97363572174515
 20
1198.508492198649
 11
912.85596916212796
 21
1198.3202335099663
  0
LINE
  8
_0-0_0
  6
CONTINUOUS
 62
    7
 10
912.85596916212796
 20
1198.3202335099663
 11
912.30798726999751
 21
1197.6478615336227
  0
LINE
  8
_0-0_0
  6
CONTINUOUS
 62
    7
 10
912.30798726999751
 20
1197.6478615336227
 11
911.54819971552706
 21
1197.0326443955341
  0
LINE
  8
_0-0_0
  6
CONTINUOUS
 62
    7
 10
911.54819971552706
 20
1197.0326443955341
 11
911.29606266399355
 21
1196.8712700468534
  0
LINE
  8
_0-0_0
  6
CONTINUOUS
 62
    7
 10
911.29606266399355
 20
1196.8712700468534
 11
910.61528872150018
 21
1196.4913860279994
  0
LINE
  8
_0-0_0
  6
CONTINUOUS
 62
    7
 10
910.61528872150018
 20
1196.4913860279994
 11
909.70927182585683
 21
1196.1047687261682
  0
LINE
  8
_0-0_0
  6
CONTINUOUS
 62
    7
 10
909.70927182585683
 20
1196.1047687261682
 11
908.76962754885312
 21
1195.8223709347631
  0
LINE
  8
_0-0_0
  6
CONTINUOUS
 62
    7
 10
908.76962754885312
 20
1195.8223709347631
 11
908.51076697272379
 21
1195.755135688805
  0
LINE
  8
_0-0_0
  6
CONTINUOUS
 62
    7
 10
908.51076697272379
 20
1195.755135688805
 11
907.54423835571799
 21
1195.5736005247177
  0
LINE
  8
_0-0_0
  6
CONTINUOUS
 62
    7
 10
907.54423835571799
 20
1195.5736005247177
 11
906.572654897289
 21
1195.4660143728038
  0
LINE
  8
_0-0_0
  6
CONTINUOUS
 62
    7
 10
906.572654897289
 20
1195.4660143728038
 11
905.5960361141988
 21
1195.4256732252286
  0
LINE
  8
_0-0_0
  6
CONTINUOUS
 62
    7
 10
937.17058587044278
 20
1199.8297086944417
 11
937.0663663600169
 21
1199.1371661443104
  0
LINE
  8
_0-0_0
  6
CONTINUOUS
 62
    7
 10
937.0663663600169
 20
1199.1371661443104
 11
936.7671646363126
 21
1198.4042824466046
  0
LINE
  8
_0-0_0
  6
CONTINUOUS
 62
    7
 10
936.7671646363126
 20
1198.4042824466046
 11
936.64781963514179
 21
1198.2059335918373
  0
LINE
  8
_0-0_0
  6
CONTINUOUS
 62
    7
 10
936.64781963514179
 20
1198.2059335918373
 11
936.09647110152264
 21
1197.550365547793
  0
LINE
  8
_0-0_0
  6
CONTINUOUS
 62
    7
 10
936.09647110152264
 20
1197.550365547793
 11
935.33837174698715
 21
1196.935148409704
  0
LINE
  8
_0-0_0
  6
CONTINUOUS
 62
    7
 10
935.33837174698715
 20
1196.935148409704
 11
935.08118961241155
 21
1196.770417177916
  0
LINE
  8
_0-0_0
  6
CONTINUOUS
 62
    7
 10
935.08118961241155
 20
1196.770417177916
 11
933.96505525436294
 21
1196.2056215951052
  0
LINE
  8
_0-0_0
  6
CONTINUOUS
 62
    7
 10
933.96505525436294
 20
1196.2056215951052
 11
932.66737597384633
 21
1195.7685827379967
  0
LINE
  8
_0-0_0
  6
CONTINUOUS
 62
    7
 10
932.66737597384633
 20
1195.7685827379967
 11
932.54971917261014
 21
1195.7416886396131
  0
LINE
  8
_0-0_0
  6
CONTINUOUS
 62
    7
 10
932.54971917261014
 20
1195.7416886396131
 11
931.01166168981672
 21
1195.4592908482077
  0
LINE
  8
_0-0_0
  6
CONTINUOUS
 62
    7
 10
931.01166168981672
 20
1195.4592908482077
 11
929.37612773795593
 21
1195.368528145355
  0
LINE
  8
_0-0_0
  6
CONTINUOUS
 62
    7
 10
929.37612773795593
 20
1195.368528145355
 11
929.36940421335999
 21
1195.368528145355
  0
LINE
  8
_0-0_0
  6
CONTINUOUS
 62
    7
 10
929.36940421335999
 20
1195.368528145355
 11
927.73721738622521
 21
1195.4794614219954
  0
LINE
  8
_0-0_0
  6
CONTINUOUS
 62
    7
 10
927.73721738622521
 20
1195.4794614219954
 11
926.19916966181313
 21
1195.7753062625923
  0
LINE
  8
_0-0_0
  6
CONTINUOUS
 62
    7
 10
926.19916966181313
 20
1195.7753062625923
 11
926.09159326827989
 21
1195.8022003609753
  0
LINE
  8
_0-0_0
  6
CONTINUOUS
 62
    7
 10
926.09159326827989
 20
1195.8022003609753
 11
924.79391398776329
 21
1196.2594195502531
  0
LINE
  8
_0-0_0
  6
CONTINUOUS
 62
    7
 10
924.79391398776329
 20
1196.2594195502531
 11
923.68282471275711
 21
1196.8376524238743
  0
LINE
  8
_0-0_0
  6
CONTINUOUS
 62
    7
 10
923.68282471275711
 20
1196.8376524238743
 11
923.43404454433073
 21
1196.9923032479594
  0
LINE
  8
_0-0_0
  6
CONTINUOUS
 62
    7
 10
923.43404454433073
 20
1196.9923032479594
 11
922.67762363134898
 21
1197.6209674352392
  0
LINE
  8
_0-0_0
  6
CONTINUOUS
 62
    7
 10
922.67762363134898
 20
1197.6209674352392
 11
922.12628485611106
 21
1198.2899727700947
  0
LINE
  8
_0-0_0
  6
CONTINUOUS
 62
    7
 10
922.12628485611106
 20
1198.2899727700947
 11
922.00525165500517
 21
1198.4883216248618
  0
LINE
  8
_0-0_0
  6
CONTINUOUS
 62
    7
 10
922.00525165500517
 20
1198.4883216248618
 11
921.70604993130098
 21
1199.2212053225676
  0
LINE
  8
_0-0_0
  6
CONTINUOUS
 62
    7
 10
921.70604993130098
 20
1199.2212053225676
 11
921.60351862081006
 21
1199.9238380387831
  0
LINE
  8
_0-0_0
  6
CONTINUOUS
 62
    7
 10
889.58016139981919
 20
1199.9238380387831
 11
889.4843438555431
 21
1199.2212053225676
  0
LINE
  8
_0-0_0
  6
CONTINUOUS
 62
    7
 10
889.4843438555431
 20
1199.2212053225676
 11
889.18177549035022
 21
1198.4883216248618
  0
LINE
  8
_0-0_0
  6
CONTINUOUS
 62
    7
 10
889.18177549035022
 20
1198.4883216248618
 11
889.06075204762556
 21
1198.2899727700947
  0
LINE
  8
_0-0_0
  6
CONTINUOUS
 62
    7
 10
889.06075204762556
 20
1198.2899727700947
 11
888.51277015549499
 21
1197.6209674352392
  0
LINE
  8
_0-0_0
  6
CONTINUOUS
 62
    7
 10
888.51277015549499
 20
1197.6209674352392
 11
887.75299235940588
 21
1196.9923032479594
  0
LINE
  8
_0-0_0
  6
CONTINUOUS
 62
    7
 10
887.75299235940588
 20
1196.9923032479594
 11
887.50421219097962
 21
1196.8376524238743
  0
LINE
  8
_0-0_0
  6
CONTINUOUS
 62
    7
 10
887.50421219097962
 20
1196.8376524238743
 11
886.39312291597321
 21
1196.2594195502531
  0
LINE
  8
_0-0_0
  6
CONTINUOUS
 62
    7
 10
886.39312291597321
 20
1196.2594195502531
 11
885.0954436354566
 21
1195.8022003609753
  0
LINE
  8
_0-0_0
  6
CONTINUOUS
 62
    7
 10
885.0954436354566
 20
1195.8022003609753
 11
884.9878672419236
 21
1195.7753062625923
  0
LINE
  8
_0-0_0
  6
CONTINUOUS
 62
    7
 10
884.9878672419236
 20
1195.7753062625923
 11
883.45317640061864
 21
1195.4794614219954
  0
LINE
  8
_0-0_0
  6
CONTINUOUS
 62
    7
 10
883.45317640061864
 20
1195.4794614219954
 11
881.8209993318651
 21
1195.368528145355
  0
LINE
  8
_0-0_0
  6
CONTINUOUS
 62
    7
 10
881.8209993318651
 20
1195.368528145355
 11
881.80755228267344
 21
1195.368528145355
  0
LINE
  8
_0-0_0
  6
CONTINUOUS
 62
    7
 10
881.80755228267344
 20
1195.368528145355
 11
880.17536545553867
 21
1195.4592908482077
  0
LINE
  8
_0-0_0
  6
CONTINUOUS
 62
    7
 10
880.17536545553867
 20
1195.4592908482077
 11
878.64068437261494
 21
1195.7416886396131
  0
LINE
  8
_0-0_0
  6
CONTINUOUS
 62
    7
 10
878.64068437261494
 20
1195.7416886396131
 11
878.51965117150917
 21
1195.7685827379967
  0
LINE
  8
_0-0_0
  6
CONTINUOUS
 62
    7
 10
878.51965117150917
 20
1195.7685827379967
 11
877.21861500788521
 21
1196.2056215951052
  0
LINE
  8
_0-0_0
  6
CONTINUOUS
 62
    7
 10
877.21861500788521
 20
1196.2056215951052
 11
876.1075257328788
 21
1196.770417177916
  0
LINE
  8
_0-0_0
  6
CONTINUOUS
 62
    7
 10
876.1075257328788
 20
1196.770417177916
 11
875.85202203985671
 21
1196.935148409704
  0
LINE
  8
_0-0_0
  6
CONTINUOUS
 62
    7
 10
875.85202203985671
 20
1196.935148409704
 11
875.09056580221386
 21
1197.550365547793
  0
LINE
  8
_0-0_0
  6
CONTINUOUS
 62
    7
 10
875.09056580221386
 20
1197.550365547793
 11
874.54089571014856
 21
1198.2059335918373
  0
LINE
  8
_0-0_0
  6
CONTINUOUS
 62
    7
 10
874.54089571014856
 20
1198.2059335918373
 11
874.4198722674239
 21
1198.4042824466046
  0
LINE
  8
_0-0_0
  6
CONTINUOUS
 62
    7
 10
874.4198722674239
 20
1198.4042824466046
 11
874.11730390223113
 21
1199.1371661443104
  0
LINE
  8
_0-0_0
  6
CONTINUOUS
 62
    7
 10
874.11730390223113
 20
1199.1371661443104
 11
874.01645103329406
 21
1199.8297086944417
  0
LINE
  8
_0-0_0
  6
CONTINUOUS
 62
    7
 10
905.5960361141988
 20
1195.4256732252286
 11
905.32709513036616
 21
1195.4256732252286
  0
LINE
  8
_0-0_0
  6
CONTINUOUS
 62
    7
 10
905.32709513036616
 20
1195.4256732252286
 11
904.34543126423387
 21
1195.486184946591
  0
LINE
  8
_0-0_0
  6
CONTINUOUS
 62
    7
 10
904.34543126423387
 20
1195.486184946591
 11
903.37553600573983
 21
1195.6105750308045
  0
LINE
  8
_0-0_0
  6
CONTINUOUS
 62
    7
 10
903.37553600573983
 20
1195.6105750308045
 11
902.41740935488338
 21
1195.8223709347631
  0
LINE
  8
_0-0_0
  6
CONTINUOUS
 62
    7
 10
902.41740935488338
 20
1195.8223709347631
 11
901.67106884960481
 21
1196.0442570048058
  0
LINE
  8
_0-0_0
  6
CONTINUOUS
 62
    7
 10
901.67106884960481
 20
1196.0442570048058
 11
900.75497154625828
 21
1196.4073370913611
  0
LINE
  8
_0-0_0
  6
CONTINUOUS
 62
    7
 10
900.75497154625828
 20
1196.4073370913611
 11
899.89433112285053
 21
1196.8712700468534
  0
LINE
  8
_0-0_0
  6
CONTINUOUS
 62
    7
 10
899.89433112285053
 20
1196.8712700468534
 11
899.64051562976329
 21
1197.0326443955341
  0
LINE
  8
_0-0_0
  6
CONTINUOUS
 62
    7
 10
899.64051562976329
 20
1197.0326443955341
 11
898.8824162752278
 21
1197.6478615336227
  0
LINE
  8
_0-0_0
  6
CONTINUOUS
 62
    7
 10
898.8824162752278
 20
1197.6478615336227
 11
898.33106774160865
 21
1198.3202335099663
  0
LINE
  8
_0-0_0
  6
CONTINUOUS
 62
    7
 10
898.33106774160865
 20
1198.3202335099663
 11
898.21508938192619
 21
1198.508492198649
  0
LINE
  8
_0-0_0
  6
CONTINUOUS
 62
    7
 10
898.21508938192619
 20
1198.508492198649
 11
897.91252101673354
 21
1199.2481091793322
  0
LINE
  8
_0-0_0
  6
CONTINUOUS
 62
    7
 10
897.91252101673354
 20
1199.2481091793322
 11
897.81165838941524
 21
1199.9507321371661
  0
LINE
  8
_0-0_0
  6
CONTINUOUS
 62
    7
 10
622.94971825836785
 20
1217.4391075299345
 11
623.05225932723988
 21
1217.4592781037225
  0
LINE
  8
_0-0_0
  6
CONTINUOUS
 62
    7
 10
623.05225932723988
 20
1217.4592781037225
 11
623.98853696275501
 21
1217.6744308907882
  0
LINE
  8
_0-0_0
  6
CONTINUOUS
 62
    7
 10
623.98853696275501
 20
1217.6744308907882
 11
624.91472443218584
 21
1217.9232110592145
  0
LINE
  8
_0-0_0
  6
CONTINUOUS
 62
    7
 10
624.91472443218584
 20
1217.9232110592145
 11
625.83418837702095
 21
1218.2056088506201
  0
LINE
  8
_0-0_0
  6
CONTINUOUS
 62
    7
 10
625.83418837702095
 20
1218.2056088506201
 11
626.73853658949213
 21
1218.5216242650042
  0
LINE
  8
_0-0_0
  6
CONTINUOUS
 62
    7
 10
626.73853658949213
 20
1218.5216242650042
 11
627.63110643594382
 21
1218.881337710071
  0
LINE
  8
_0-0_0
  6
CONTINUOUS
 62
    7
 10
627.63110643594382
 20
1218.881337710071
 11
628.51190767475771
 21
1219.2645883704133
  0
LINE
  8
_0-0_0
  6
CONTINUOUS
 62
    7
 10
628.51190767475771
 20
1219.2645883704133
 11
629.28009719537749
 21
1219.631035098457
  0
LINE
  8
_0-0_0
  6
CONTINUOUS
 62
    7
 10
629.28009719537749
 20
1219.631035098457
 11
630.14072786040401
 21
1220.0613504309704
  0
LINE
  8
_0-0_0
  6
CONTINUOUS
 62
    7
 10
630.14072786040401
 20
1220.0613504309704
 11
631.00472516691889
 21
1220.4849422388875
  0
LINE
  8
_0-0_0
  6
CONTINUOUS
 62
    7
 10
631.00472516691889
 20
1220.4849422388875
 11
631.87208911492223
 21
1220.878283065314
  0
LINE
  8
_0-0_0
  6
CONTINUOUS
 62
    7
 10
631.87208911492223
 20
1521.3390721360017
 11
631.79644214443351
 21
1521.3676446759382
  0
LINE
  8
_0-0_0
  6
CONTINUOUS
 62
    7
 10
631.79644214443351
 20
1521.3676446759382
 11
631.72080493232602
 21
1521.4012720572987
  0
LINE
  8
_0-0_0
  6
CONTINUOUS
 62
    7
 10
631.72080493232602
 20
1521.4012720572987
 11
631.64515796183707
 21
1521.426477955747
  0
LINE
  8
_0-0_0
  6
CONTINUOUS
 62
    7
 10
631.64515796183707
 20
1521.426477955747
 11
631.56952074972969
 21
1521.4584171371723
  0
LINE
  8
_0-0_0
  6
CONTINUOUS
 62
    7
 10
631.56952074972969
 20
1521.4584171371723
 11
631.49387377924074
 21
1521.4954014016398
  0
LINE
  8
_0-0_0
  6
CONTINUOUS
 62
    7
 10
631.49387377924074
 20
1521.4954014016398
 11
631.42159345024038
 21
1521.5323759077262
  0
LINE
  8
_0-0_0
  6
CONTINUOUS
 62
    7
 10
631.42159345024038
 20
1521.5323759077262
 11
631.345956238133
 21
1521.5660032890864
  0
LINE
  8
_0-0_0
  6
CONTINUOUS
 62
    7
 10
631.345956238133
 20
1521.5660032890864
 11
631.27367590913263
 21
1521.596254270577
  0
LINE
  8
_0-0_0
  6
CONTINUOUS
 62
    7
 10
631.27367590913263
 20
1521.596254270577
 11
631.1980289386438
 21
1521.6332385350449
  0
LINE
  8
_0-0_0
  6
CONTINUOUS
 62
    7
 10
631.1980289386438
 20
1521.6332385350449
 11
631.12239172653619
 21
1521.6735796826197
  0
LINE
  8
_0-0_0
  6
CONTINUOUS
 62
    7
 10
631.87208911492223
 20
1220.878283065314
 11
631.97629886696689
 21
1218.5350713141961
  0
LINE
  8
_0-0_0
  6
CONTINUOUS
 62
    7
 10
631.97629886696689
 20
1218.5350713141961
 11
632.28895739824395
 21
1216.1414282494181
  0
LINE
  8
_0-0_0
  6
CONTINUOUS
 62
    7
 10
632.28895739824395
 20
1216.1414282494181
 11
632.72263937224568
 21
1214.0772476482166
  0
LINE
  8
_0-0_0
  6
CONTINUOUS
 62
    7
 10
632.72263937224568
 20
1214.0772476482166
 11
633.42862897156829
 21
1211.6432634358639
  0
LINE
  8
_0-0_0
  6
CONTINUOUS
 62
    7
 10
633.42862897156829
 20
1211.6432634358639
 11
634.3648968487023
 21
1209.1622145513409
  0
LINE
  8
_0-0_0
  6
CONTINUOUS
 62
    7
 10
634.3648968487023
 20
1209.1622145513409
 11
635.20536669832256
 21
1207.2997494463946
  0
LINE
  8
_0-0_0
  6
CONTINUOUS
 62
    7
 10
635.20536669832256
 20
1207.2997494463946
 11
636.56523614175512
 21
1204.7245712175302
  0
LINE
  8
_0-0_0
  6
CONTINUOUS
 62
    7
 10
636.56523614175512
 20
1204.7245712175302
 11
638.15202697989162
 21
1202.1561067548803
  0
LINE
  8
_0-0_0
  6
CONTINUOUS
 62
    7
 10
638.15202697989162
 20
1202.1561067548803
 11
639.96911561260185
 21
1199.6212696735902
  0
LINE
  8
_0-0_0
  6
CONTINUOUS
 62
    7
 10
639.96911561260185
 20
1199.6212696735902
 11
641.53910251843968
 21
1197.6680321074102
  0
LINE
  8
_0-0_0
  6
CONTINUOUS
 62
    7
 10
641.53910251843968
 20
1197.6680321074102
 11
642.91577589417102
 21
1196.1047687261682
  0
LINE
  8
_0-0_0
  6
CONTINUOUS
 62
    7
 10
642.91577589417102
 20
1196.1047687261682
 11
645.2051994485231
 21
1193.7581903335613
  0
LINE
  8
_0-0_0
  6
CONTINUOUS
 62
    7
 10
645.2051994485231
 20
1193.7581903335613
 11
647.61228956249238
 21
1191.5897999803153
  0
LINE
  8
_0-0_0
  6
CONTINUOUS
 62
    7
 10
647.61228956249238
 20
1191.5897999803153
 11
650.13200115303687
 21
1189.5962212665602
  0
LINE
  8
_0-0_0
  6
CONTINUOUS
 62
    7
 10
650.13200115303687
 20
1189.5962212665602
 11
650.14209131912128
 21
1189.5827742173688
  0
LINE
  8
_0-0_0
  6
CONTINUOUS
 62
    7
 10
650.14209131912128
 20
1189.5827742173688
 11
652.63154216979387
 21
1187.8715835366374
  0
LINE
  8
_0-0_0
  6
CONTINUOUS
 62
    7
 10
652.63154216979387
 20
1187.8715835366374
 11
655.078973431338
 21
1186.4192631904175
  0
LINE
  8
_0-0_0
  6
CONTINUOUS
 62
    7
 10
655.078973431338
 20
1186.4192631904175
 11
657.51295764369058
 21
1185.2056328465389
  0
LINE
  8
_0-0_0
  6
CONTINUOUS
 62
    7
 10
657.51295764369058
 20
1185.2056328465389
 11
659.92509284070206
 21
1184.2172454558108
  0
LINE
  8
_0-0_0
  6
CONTINUOUS
 62
    7
 10
659.92509284070206
 20
1184.2172454558108
 11
660.6966294860481
 21
1183.9483044719784
  0
LINE
  8
_0-0_0
  6
CONTINUOUS
 62
    7
 10
660.6966294860481
 20
1183.9483044719784
 11
663.11380976610167
 21
1183.2423148726552
  0
LINE
  8
_0-0_0
  6
CONTINUOUS
 62
    7
 10
663.11380976610167
 20
1183.2423148726552
 11
665.50240774783731
 21
1182.7582015849946
  0
LINE
  8
_0-0_0
  6
CONTINUOUS
 62
    7
 10
665.50240774783731
 20
1182.7582015849946
 11
667.8254489251683
 21
1182.4892508427811
  0
LINE
  8
_0-0_0
  6
CONTINUOUS
 62
    7
 10
667.8254489251683
 20
1182.4892508427811
 11
670.08461173964849
 21
1182.4287391214186
  0
LINE
  8
_0-0_0
  6
CONTINUOUS
 62
    7
 10
669.22733795772945
 20
1560.5635193667317
 11
666.60004997365195
 21
1560.4643449393482
  0
LINE
  8
_0-0_0
  6
CONTINUOUS
 62
    7
 10
666.60004997365195
 20
1560.4643449393482
 11
663.96436002342512
 21
1560.16346477409
  0
LINE
  8
_0-0_0
  6
CONTINUOUS
 62
    7
 10
663.96436002342512
 20
1560.16346477409
 11
661.42279941753952
 21
1559.6675828787911
  0
LINE
  8
_0-0_0
  6
CONTINUOUS
 62
    7
 10
661.42279941753952
 20
1559.6675828787911
 11
658.92998192537812
 21
1558.9733618871064
  0
LINE
  8
_0-0_0
  6
CONTINUOUS
 62
    7
 10
658.92998192537812
 20
1558.9733618871064
 11
656.47246049774981
 21
1558.0723900745054
  0
LINE
  8
_0-0_0
  6
CONTINUOUS
 62
    7
 10
656.47246049774981
 20
1558.0723900745054
 11
654.29397997841932
 21
1557.0772791591812
  0
LINE
  8
_0-0_0
  6
CONTINUOUS
 62
    7
 10
654.29397997841932
 20
1557.0772791591812
 11
651.95581331034282
 21
1555.7964135693446
  0
LINE
  8
_0-0_0
  6
CONTINUOUS
 62
    7
 10
651.95581331034282
 20
1555.7964135693446
 11
649.65966623139502
 21
1554.2919834679117
  0
LINE
  8
_0-0_0
  6
CONTINUOUS
 62
    7
 10
649.65966623139502
 20
1554.2919834679117
 11
647.415619149279
 21
1552.5791143456272
  0
LINE
  8
_0-0_0
  6
CONTINUOUS
 62
    7
 10
647.415619149279
 20
1552.5791143456272
 11
645.24218371299071
 21
1550.666217927022
  0
LINE
  8
_0-0_0
  6
CONTINUOUS
 62
    7
 10
645.24218371299071
 20
1550.666217927022
 11
643.16455606259728
 21
1548.549927570607
  0
LINE
  8
_0-0_0
  6
CONTINUOUS
 62
    7
 10
643.16455606259728
 20
1548.549927570607
 11
642.42662728184939
 21
1547.7195576454526
  0
LINE
  8
_0-0_0
  6
CONTINUOUS
 62
    7
 10
642.42662728184939
 20
1547.7195576454526
 11
640.51373086324384
 21
1545.3612106452078
  0
LINE
  8
_0-0_0
  6
CONTINUOUS
 62
    7
 10
640.51373086324384
 20
1545.3612106452078
 11
638.74035977797826
 21
1542.8583127453435
  0
LINE
  8
_0-0_0
  6
CONTINUOUS
 62
    7
 10
638.74035977797826
 20
1542.8583127453435
 11
637.94527615897505
 21
1541.5976177292941
  0
LINE
  8
_0-0_0
  6
CONTINUOUS
 62
    7
 10
637.94527615897505
 20
1541.5976177292941
 11
637.21239246126925
 21
1540.3537266455442
  0
LINE
  8
_0-0_0
  6
CONTINUOUS
 62
    7
 10
637.21239246126925
 20
1540.3537266455442
 11
635.81050342870799
 21
1537.6860975138916
  0
LINE
  8
_0-0_0
  6
CONTINUOUS
 62
    7
 10
635.81050342870799
 20
1537.6860975138916
 11
634.61872210017066
 21
1534.9764390347298
  0
LINE
  8
_0-0_0
  6
CONTINUOUS
 62
    7
 10
634.61872210017066
 20
1534.9764390347298
 11
634.5296280804904
 21
1534.752874523133
  0
LINE
  8
_0-0_0
  6
CONTINUOUS
 62
    7
 10
634.5296280804904
 20
1534.752874523133
 11
633.56982298808043
 21
1532.014643504034
  0
LINE
  8
_0-0_0
  6
CONTINUOUS
 62
    7
 10
633.56982298808043
 20
1532.014643504034
 11
632.82181379962913
 21
1529.2747340433812
  0
LINE
  8
_0-0_0
  6
CONTINUOUS
 62
    7
 10
632.82181379962913
 20
1529.2747340433812
 11
632.28895739824395
 21
1526.573477530369
  0
LINE
  8
_0-0_0
  6
CONTINUOUS
 62
    7
 10
632.28895739824395
 20
1526.573477530369
 11
631.97629886696689
 21
1523.9209738894615
  0
LINE
  8
_0-0_0
  6
CONTINUOUS
 62
    7
 10
631.97629886696689
 20
1523.9209738894615
 11
631.87208911492223
 21
1521.3390721360017
  0
LINE
  8
_0-0_0
  6
CONTINUOUS
 62
    7
 10
874.67873284355335
 20
1384.8258875737592
 11
875.4872635117481
 21
1386.501772431576
  0
LINE
  8
_0-0_0
  6
CONTINUOUS
 62
    7
 10
875.4872635117481
 20
1386.501772431576
 11
876.38823532434935
 21
1388.1406827833066
  0
LINE
  8
_0-0_0
  6
CONTINUOUS
 62
    7
 10
876.38823532434935
 20
1388.1406827833066
 11
877.36989919048153
 21
1389.7274736214433
  0
LINE
  8
_0-0_0
  6
CONTINUOUS
 62
    7
 10
877.36989919048153
 20
1389.7274736214433
 11
878.43392379331726
 21
1391.2705664288978
  0
LINE
  8
_0-0_0
  6
CONTINUOUS
 62
    7
 10
878.43392379331726
 20
1391.2705664288978
 11
879.57696200813018
 21
1392.7497808735011
  0
LINE
  8
_0-0_0
  6
CONTINUOUS
 62
    7
 10
879.57696200813018
 20
1392.7497808735011
 11
880.7956276766696
 21
1394.1684835967426
  0
LINE
  8
_0-0_0
  6
CONTINUOUS
 62
    7
 10
880.7956276766696
 20
1394.1684835967426
 11
882.08995007407884
 21
1395.518272632472
  0
LINE
  8
_0-0_0
  6
CONTINUOUS
 62
    7
 10
882.08995007407884
 20
1395.518272632472
 11
883.4464528760227
 21
1396.79577158082
  0
LINE
  8
_0-0_0
  6
CONTINUOUS
 62
    7
 10
883.4464528760227
 20
1396.79577158082
 11
884.87187912385991
 21
1398.0077234831447
  0
LINE
  8
_0-0_0
  6
CONTINUOUS
 62
    7
 10
884.87187912385991
 20
1398.0077234831447
 11
886.35446020995209
 21
1399.1406715318731
  0
LINE
  8
_0-0_0
  6
CONTINUOUS
 62
    7
 10
667.66071769338009
 20
1172.2355928411121
 11
667.63718047810448
 21
1171.9128539021317
  0
LINE
  8
_0-0_0
  6
CONTINUOUS
 62
    7
 10
667.63718047810448
 20
1171.9128539021317
 11
667.60860793816744
 21
1171.4758150450227
  0
LINE
  8
_0-0_0
  6
CONTINUOUS
 62
    7
 10
667.60860793816744
 20
1171.4758150450227
 11
667.58508048127271
 21
1171.0387761879138
  0
LINE
  8
_0-0_0
  6
CONTINUOUS
 62
    7
 10
667.58508048127271
 20
1171.0387761879138
 11
667.57835695667677
 21
1170.8908488884247
  0
LINE
  8
_0-0_0
  6
CONTINUOUS
 62
    7
 10
667.57835695667677
 20
1170.8908488884247
 11
667.56490014910401
 21
1170.4538100313157
  0
LINE
  8
_0-0_0
  6
CONTINUOUS
 62
    7
 10
667.56490014910401
 20
1170.4538100313157
 11
667.55145309991246
 21
1170.0167711742065
  0
LINE
  8
_0-0_0
  6
CONTINUOUS
 62
    7
 10
667.55145309991246
 20
1170.0167711742065
 11
667.54809621680511
 21
1169.6402440384602
  0
LINE
  8
_0-0_0
  6
CONTINUOUS
 62
    7
 10
667.54809621680511
 20
1169.6402440384602
 11
667.54809621680511
 21
1169.206562064458
  0
LINE
  8
_0-0_0
  6
CONTINUOUS
 62
    7
 10
667.54809621680511
 20
1169.206562064458
 11
667.55145309991246
 21
1169.0351073080744
  0
LINE
  8
_0-0_0
  6
CONTINUOUS
 62
    7
 10
667.55145309991246
 20
1169.0351073080744
 11
667.56490014910401
 21
1168.5980684509655
  0
LINE
  8
_0-0_0
  6
CONTINUOUS
 62
    7
 10
667.56490014910401
 20
1168.5980684509655
 11
667.59180400586843
 21
1168.2013707414312
  0
LINE
  8
_0-0_0
  6
CONTINUOUS
 62
    7
 10
667.59180400586843
 20
1168.2013707414312
 11
667.62710007040118
 21
1167.976127788281
  0
LINE
  8
_0-0_0
  6
CONTINUOUS
 62
    7
 10
667.62710007040118
 20
1167.976127788281
 11
667.65062752729591
 21
1167.8853553270469
  0
LINE
  8
_0-0_0
  6
CONTINUOUS
 62
    7
 10
667.65062752729591
 20
1167.8853553270469
 11
667.66071769338009
 21
1167.8719082778553
  0
LINE
  8
_0-0_0
  6
CONTINUOUS
 62
    7
 10
886.35446020995209
 20
1399.1406715318731
 11
888.05891760770589
 21
1400.2803431051975
  0
LINE
  8
_0-0_0
  6
CONTINUOUS
 62
    7
 10
888.05891760770589
 20
1400.2803431051975
 11
889.82894156824545
 21
1401.3225089343109
  0
LINE
  8
_0-0_0
  6
CONTINUOUS
 62
    7
 10
889.82894156824545
 20
1401.3225089343109
 11
891.65946749176612
 21
1402.2621532113146
  0
LINE
  8
_0-0_0
  6
CONTINUOUS
 62
    7
 10
891.65946749176612
 20
1402.2621532113146
 11
893.54714825354176
 21
1403.085809370255
  0
LINE
  8
_0-0_0
  6
CONTINUOUS
 62
    7
 10
893.54714825354176
 20
1403.085809370255
 11
895.48526032897666
 21
1403.7901107696428
  0
LINE
  8
_0-0_0
  6
CONTINUOUS
 62
    7
 10
895.48526032897666
 20
1403.7901107696428
 11
897.46034691049795
 21
1404.3683534016452
  0
LINE
  8
_0-0_0
  6
CONTINUOUS
 62
    7
 10
897.46034691049795
 20
1404.3683534016452
 11
899.46737267344474
 21
1404.823884390988
  0
LINE
  8
_0-0_0
  6
CONTINUOUS
 62
    7
 10
899.46737267344474
 20
1404.823884390988
 11
901.49961409322088
 21
1405.1550252961174
  0
LINE
  8
_0-0_0
  6
CONTINUOUS
 62
    7
 10
901.49961409322088
 20
1405.1550252961174
 11
903.54362412063506
 21
1405.3500172677773
  0
LINE
  8
_0-0_0
  6
CONTINUOUS
 62
    7
 10
903.54362412063506
 20
1405.3500172677773
 11
905.5960361141988
 21
1405.4122074306931
  0
LINE
  8
_0-0_0
  6
CONTINUOUS
 62
    7
 10
1143.5263192103564
 20
1569.9783957187151
 11
1143.5464897841437
 21
1570.2389444947794
  0
LINE
  8
_0-0_0
  6
CONTINUOUS
 62
    7
 10
1143.5464897841437
 20
1570.2389444947794
 11
1143.5750623240806
 21
1570.6675813857387
  0
LINE
  8
_0-0_0
  6
CONTINUOUS
 62
    7
 10
1143.5750623240806
 20
1570.6675813857387
 11
1143.5985995393567
 21
1571.1062986844017
  0
LINE
  8
_0-0_0
  6
CONTINUOUS
 62
    7
 10
1143.5985995393567
 20
1571.1062986844017
 11
1143.6204485546978
 21
1571.534935575361
  0
LINE
  8
_0-0_0
  6
CONTINUOUS
 62
    7
 10
1143.6204485546978
 20
1571.534935575361
 11
1143.6338956038892
 21
1571.9820645985544
  0
LINE
  8
_0-0_0
  6
CONTINUOUS
 62
    7
 10
1143.6338956038892
 20
1571.9820645985544
 11
1143.6372622453778
 21
1572.4275054218128
  0
LINE
  8
_0-0_0
  6
CONTINUOUS
 62
    7
 10
1143.6372622453778
 20
1572.4275054218128
 11
1143.640619128485
 21
1572.4644896862808
  0
LINE
  8
_0-0_0
  6
CONTINUOUS
 62
    7
 10
1143.640619128485
 20
1572.4644896862808
 11
1143.6372622453778
 21
1572.9149755925812
  0
LINE
  8
_0-0_0
  6
CONTINUOUS
 62
    7
 10
1143.6372622453778
 20
1572.9149755925812
 11
1143.6305387207819
 21
1573.3654712572629
  0
LINE
  8
_0-0_0
  6
CONTINUOUS
 62
    7
 10
1143.6305387207819
 20
1573.3654712572629
 11
1143.6120465885483
 21
1573.7739375744352
  0
LINE
  8
_0-0_0
  6
CONTINUOUS
 62
    7
 10
1143.6120465885483
 20
1573.7739375744352
 11
1143.6120465885483
 21
1573.8277257712016
  0
LINE
  8
_0-0_0
  6
CONTINUOUS
 62
    7
 10
1143.6120465885483
 20
1573.8277257712016
 11
1143.5582583917817
 21
1574.2613979868224
  0
LINE
  8
_0-0_0
  6
CONTINUOUS
 62
    7
 10
1143.5582583917817
 20
1574.2613979868224
 11
1143.5582583917817
 21
1574.269809711353
  0
LINE
  8
_0-0_0
  6
CONTINUOUS
 62
    7
 10
1143.5582583917817
 20
1574.269809711353
 11
1143.5128721611648
 21
1574.3437684819069
  0
LINE
  8
_0-0_0
  6
CONTINUOUS
 62
    7
 10
1141.9596891876258
 20
1560.5635193667317
 11
1144.5869869300848
 21
1560.4643449393482
  0
LINE
  8
_0-0_0
  6
CONTINUOUS
 62
    7
 10
1144.5869869300848
 20
1560.4643449393482
 11
1147.2243553218652
 21
1560.16346477409
  0
LINE
  8
_0-0_0
  6
CONTINUOUS
 62
    7
 10
1147.2243553218652
 20
1560.16346477409
 11
1149.7642374861971
 21
1559.6675828787911
  0
LINE
  8
_0-0_0
  6
CONTINUOUS
 62
    7
 10
1149.7642374861971
 20
1559.6675828787911
 11
1152.260421619847
 21
1558.9733618871064
  0
LINE
  8
_0-0_0
  6
CONTINUOUS
 62
    7
 10
1152.260421619847
 20
1558.9733618871064
 11
1154.7179332890942
 21
1558.0723900745054
  0
LINE
  8
_0-0_0
  6
CONTINUOUS
 62
    7
 10
1154.7179332890942
 20
1558.0723900745054
 11
1156.8947353668709
 21
1557.0772791591812
  0
LINE
  8
_0-0_0
  6
CONTINUOUS
 62
    7
 10
1156.8947353668709
 20
1557.0772791591812
 11
1159.2312235933937
 21
1555.7964135693446
  0
LINE
  8
_0-0_0
  6
CONTINUOUS
 62
    7
 10
1159.2312235933937
 20
1555.7964135693446
 11
1161.5240137892342
 21
1554.2919834679117
  0
LINE
  8
_0-0_0
  6
CONTINUOUS
 62
    7
 10
1161.5240137892342
 20
1554.2919834679117
 11
1163.7714079960765
 21
1552.5791143456272
  0
LINE
  8
_0-0_0
  6
CONTINUOUS
 62
    7
 10
1163.7714079960765
 20
1552.5791143456272
 11
1165.9414865492574
 21
1550.666217927022
  0
LINE
  8
_0-0_0
  6
CONTINUOUS
 62
    7
 10
1165.9414865492574
 20
1550.666217927022
 11
1168.0241592826928
 21
1548.549927570607
  0
LINE
  8
_0-0_0
  6
CONTINUOUS
 62
    7
 10
1168.0241592826928
 20
1548.549927570607
 11
1168.7637665049947
 21
1547.7195576454526
  0
LINE
  8
_0-0_0
  6
CONTINUOUS
 62
    7
 10
1168.7637665049947
 20
1547.7195576454526
 11
1170.6749844820463
 21
1545.3612106452078
  0
LINE
  8
_0-0_0
  6
CONTINUOUS
 62
    7
 10
1170.6749844820463
 20
1545.3612106452078
 11
1172.4466771257585
 21
1542.8583127453435
  0
LINE
  8
_0-0_0
  6
CONTINUOUS
 62
    7
 10
1172.4466771257585
 20
1542.8583127453435
 11
1173.2383941032729
 21
1541.5976177292941
  0
LINE
  8
_0-0_0
  6
CONTINUOUS
 62
    7
 10
1173.2383941032729
 20
1541.5976177292941
 11
1173.9729660009139
 21
1540.3537266455442
  0
LINE
  8
_0-0_0
  6
CONTINUOUS
 62
    7
 10
1173.9729660009139
 20
1540.3537266455442
 11
1175.3765334750285
 21
1537.6860975138916
  0
LINE
  8
_0-0_0
  6
CONTINUOUS
 62
    7
 10
1175.3765334750285
 20
1537.6860975138916
 11
1176.5649481620771
 21
1534.9764390347298
  0
LINE
  8
_0-0_0
  6
CONTINUOUS
 62
    7
 10
1176.5649481620771
 20
1534.9764390347298
 11
1176.6573990648651
 21
1534.752874523133
  0
LINE
  8
_0-0_0
  6
CONTINUOUS
 62
    7
 10
1176.6573990648651
 20
1534.752874523133
 11
1177.6188923572099
 21
1532.014643504034
  0
LINE
  8
_0-0_0
  6
CONTINUOUS
 62
    7
 10
1177.6188923572099
 20
1532.014643504034
 11
1178.368589745596
 21
1529.2747340433812
  0
LINE
  8
_0-0_0
  6
CONTINUOUS
 62
    7
 10
1178.368589745596
 20
1529.2747340433812
 11
1178.8947226223854
 21
1526.573477530369
  0
LINE
  8
_0-0_0
  6
CONTINUOUS
 62
    7
 10
1178.8947226223854
 20
1526.573477530369
 11
1179.209049836835
 21
1523.9209738894615
  0
LINE
  8
_0-0_0
  6
CONTINUOUS
 62
    7
 10
1179.209049836835
 20
1523.9209738894615
 11
1179.3183144303027
 21
1521.3390721360017
  0
LINE
  8
_0-0_0
  6
CONTINUOUS
 62
    7
 10
1180.066323618754
 20
1521.6735796826197
 11
1179.9906864066465
 21
1521.6332385350449
  0
LINE
  8
_0-0_0
  6
CONTINUOUS
 62
    7
 10
1179.9906864066465
 20
1521.6332385350449
 11
1179.9184060776461
 21
1521.596254270577
  0
LINE
  8
_0-0_0
  6
CONTINUOUS
 62
    7
 10
1179.9184060776461
 20
1521.596254270577
 11
1179.8427591071575
 21
1521.5660032890864
  0
LINE
  8
_0-0_0
  6
CONTINUOUS
 62
    7
 10
1179.8427591071575
 20
1521.5660032890864
 11
1179.7671218950497
 21
1521.5323759077262
  0
LINE
  8
_0-0_0
  6
CONTINUOUS
 62
    7
 10
1179.7671218950497
 20
1521.5323759077262
 11
1179.6931631244959
 21
1521.4954014016398
  0
LINE
  8
_0-0_0
  6
CONTINUOUS
 62
    7
 10
1179.6931631244959
 20
1521.4954014016398
 11
1179.6175161540073
 21
1521.4584171371723
  0
LINE
  8
_0-0_0
  6
CONTINUOUS
 62
    7
 10
1179.6175161540073
 20
1521.4584171371723
 11
1179.5452358250068
 21
1521.426477955747
  0
LINE
  8
_0-0_0
  6
CONTINUOUS
 62
    7
 10
1179.5452358250068
 20
1521.426477955747
 11
1179.4662319714107
 21
1521.4012720572987
  0
LINE
  8
_0-0_0
  6
CONTINUOUS
 62
    7
 10
1179.4662319714107
 20
1521.4012720572987
 11
1179.3905947593032
 21
1521.3676446759382
  0
LINE
  8
_0-0_0
  6
CONTINUOUS
 62
    7
 10
1179.3905947593032
 20
1521.3676446759382
 11
1179.3183144303027
 21
1521.3390721360017
  0
LINE
  8
_0-0_0
  6
CONTINUOUS
 62
    7
 10
1179.3183144303027
 20
1220.878283065314
 11
1180.0898608340301
 21
1220.5252833864624
  0
LINE
  8
_0-0_0
  6
CONTINUOUS
 62
    7
 10
1180.0898608340301
 20
1220.5252833864624
 11
1180.9538581405448
 21
1220.1084151031409
  0
LINE
  8
_0-0_0
  6
CONTINUOUS
 62
    7
 10
1180.9538581405448
 20
1220.1084151031409
 11
1181.8077652809754
 21
1219.6780997706278
  0
LINE
  8
_0-0_0
  6
CONTINUOUS
 62
    7
 10
1181.8077652809754
 20
1219.6780997706278
 11
1182.6751292289789
 21
1219.2645883704133
  0
LINE
  8
_0-0_0
  6
CONTINUOUS
 62
    7
 10
1182.6751292289789
 20
1219.2645883704133
 11
1182.7709370148739
 21
1219.2208903397309
  0
LINE
  8
_0-0_0
  6
CONTINUOUS
 62
    7
 10
1182.7709370148739
 20
1219.2208903397309
 11
1183.6500598121343
 21
1218.8342730378999
  0
LINE
  8
_0-0_0
  6
CONTINUOUS
 62
    7
 10
1183.6500598121343
 20
1218.8342730378999
 11
1184.5476747416283
 21
1218.4812831174295
  0
LINE
  8
_0-0_0
  6
CONTINUOUS
 62
    7
 10
1184.5476747416283
 20
1218.4812831174295
 11
1185.4570582787601
 21
1218.1686245861524
  0
LINE
  8
_0-0_0
  6
CONTINUOUS
 62
    7
 10
1185.4570582787601
 20
1218.1686245861524
 11
1186.3731653404877
 21
1217.8929503193426
  0
LINE
  8
_0-0_0
  6
CONTINUOUS
 62
    7
 10
1186.3731653404877
 20
1217.8929503193426
 11
1187.302719451407
 21
1217.6475367924049
  0
LINE
  8
_0-0_0
  6
CONTINUOUS
 62
    7
 10
1187.302719451407
 20
1217.6475367924049
 11
1188.2356304454338
 21
1217.4391075299345
  0
LINE
  8
_0-0_0
  6
CONTINUOUS
 62
    7
 10
1179.3183144303027
 20
1220.878283065314
 11
1179.209049836835
 21
1218.5350713141961
  0
LINE
  8
_0-0_0
  6
CONTINUOUS
 62
    7
 10
1179.209049836835
 20
1218.5350713141961
 11
1178.8980795054929
 21
1216.1414282494181
  0
LINE
  8
_0-0_0
  6
CONTINUOUS
 62
    7
 10
1178.8980795054929
 20
1216.1414282494181
 11
1178.4610406483837
 21
1214.0772476482166
  0
LINE
  8
_0-0_0
  6
CONTINUOUS
 62
    7
 10
1178.4610406483837
 20
1214.0772476482166
 11
1177.755051049061
 21
1211.6432634358639
  0
LINE
  8
_0-0_0
  6
CONTINUOUS
 62
    7
 10
1177.755051049061
 20
1211.6432634358639
 11
1176.8221302966531
 21
1209.1622145513409
  0
LINE
  8
_0-0_0
  6
CONTINUOUS
 62
    7
 10
1176.8221302966531
 20
1209.1622145513409
 11
1175.9833486469677
 21
1207.2997494463946
  0
LINE
  8
_0-0_0
  6
CONTINUOUS
 62
    7
 10
1175.9833486469677
 20
1207.2997494463946
 11
1174.6234792035352
 21
1204.7245712175302
  0
LINE
  8
_0-0_0
  6
CONTINUOUS
 62
    7
 10
1174.6234792035352
 20
1204.7245712175302
 11
1173.040045248506
 21
1202.1561067548803
  0
LINE
  8
_0-0_0
  6
CONTINUOUS
 62
    7
 10
1173.040045248506
 20
1202.1561067548803
 11
1171.2212781742419
 21
1199.6212696735902
  0
LINE
  8
_0-0_0
  6
CONTINUOUS
 62
    7
 10
1171.2212781742419
 20
1199.6212696735902
 11
1169.6513010267856
 21
1197.6680321074102
  0
LINE
  8
_0-0_0
  6
CONTINUOUS
 62
    7
 10
1169.6513010267856
 20
1197.6680321074102
 11
1168.2712512511844
 21
1196.1047687261682
  0
LINE
  8
_0-0_0
  6
CONTINUOUS
 62
    7
 10
1168.2712512511844
 20
1196.1047687261682
 11
1165.9818276968324
 21
1193.7581903335613
  0
LINE
  8
_0-0_0
  6
CONTINUOUS
 62
    7
 10
1165.9818276968324
 20
1193.7581903335613
 11
1163.5730591413094
 21
1191.5897999803153
  0
LINE
  8
_0-0_0
  6
CONTINUOUS
 62
    7
 10
1163.5730591413094
 20
1191.5897999803153
 11
1161.0600710753606
 21
1189.5962212665602
  0
LINE
  8
_0-0_0
  6
CONTINUOUS
 62
    7
 10
1161.0600710753606
 20
1189.5962212665602
 11
1161.0415887015081
 21
1189.5827742173688
  0
LINE
  8
_0-0_0
  6
CONTINUOUS
 62
    7
 10
1161.0415887015081
 20
1189.5827742173688
 11
1158.5605398169848
 21
1187.8715835366374
  0
LINE
  8
_0-0_0
  6
CONTINUOUS
 62
    7
 10
1158.5605398169848
 20
1187.8715835366374
 11
1156.1063850308449
 21
1186.4192631904175
  0
LINE
  8
_0-0_0
  6
CONTINUOUS
 62
    7
 10
1156.1063850308449
 20
1186.4192631904175
 11
1153.6757577015997
 21
1185.2056328465389
  0
LINE
  8
_0-0_0
  6
CONTINUOUS
 62
    7
 10
1153.6757577015997
 20
1185.2056328465389
 11
1151.2585871799272
 21
1184.2172454558108
  0
LINE
  8
_0-0_0
  6
CONTINUOUS
 62
    7
 10
1151.2585871799272
 20
1184.2172454558108
 11
1150.4870407762
 21
1183.9483044719784
  0
LINE
  8
_0-0_0
  6
CONTINUOUS
 62
    7
 10
1150.4870407762
 20
1183.9483044719784
 11
1148.0715486960812
 21
1183.2423148726552
  0
LINE
  8
_0-0_0
  6
CONTINUOUS
 62
    7
 10
1148.0715486960812
 20
1183.2423148726552
 11
1145.6846291558995
 21
1182.7582015849946
  0
LINE
  8
_0-0_0
  6
CONTINUOUS
 62
    7
 10
1145.6846291558995
 20
1182.7582015849946
 11
1143.3615879785684
 21
1182.4892508427811
  0
LINE
  8
_0-0_0
  6
CONTINUOUS
 62
    7
 10
1143.3615879785684
 20
1182.4892508427811
 11
1141.1057820471954
 21
1182.4287391214186
  0
LINE
  8
_0-0_0
  6
CONTINUOUS
 62
    7
 10
1141.1057820471954
 20
1182.4287391214186
 11
1141.7294011514336
 21
1181.7261161635843
  0
LINE
  8
_0-0_0
  6
CONTINUOUS
 62
    7
 10
1141.7294011514336
 20
1181.7261161635843
 11
1142.1395556685407
 21
1181.0503775457523
  0
LINE
  8
_0-0_0
  6
CONTINUOUS
 62
    7
 10
1142.1395556685407
 20
1181.0503775457523
 11
1142.494224030565
 21
1180.1124214686836
  0
LINE
  8
_0-0_0
  6
CONTINUOUS
 62
    7
 10
1142.494224030565
 20
1180.1124214686836
 11
1142.5530573103736
 21
1179.9073490893206
  0
LINE
  8
_0-0_0
  6
CONTINUOUS
 62
    7
 10
1142.5530573103736
 20
1179.9073490893206
 11
1142.7665414142671
 21
1178.9055146494011
  0
LINE
  8
_0-0_0
  6
CONTINUOUS
 62
    7
 10
1142.7665414142671
 20
1178.9055146494011
 11
1142.9178255968634
 21
1177.9709252138205
  0
LINE
  8
_0-0_0
  6
CONTINUOUS
 62
    7
 10
1142.9178255968634
 20
1177.9709252138205
 11
1143.0522960887797
 21
1176.9623672493051
  0
LINE
  8
_0-0_0
  6
CONTINUOUS
 62
    7
 10
1143.0522960887797
 20
1176.9623672493051
 11
1143.1649175653549
 21
1175.9538092847895
  0
LINE
  8
_0-0_0
  6
CONTINUOUS
 62
    7
 10
1143.1649175653549
 20
1175.9538092847895
 11
1143.1850881391424
 21
1175.7655408377257
  0
LINE
  8
_0-0_0
  6
CONTINUOUS
 62
    7
 10
1143.1850881391424
 20
1175.7655408377257
 11
1143.2893076495682
 21
1174.7502593486142
  0
LINE
  8
_0-0_0
  6
CONTINUOUS
 62
    7
 10
1143.2893076495682
 20
1174.7502593486142
 11
1143.4019291261432
 21
1173.7417111424797
  0
LINE
  8
_0-0_0
  6
CONTINUOUS
 62
    7
 10
1143.4019291261432
 20
1173.7417111424797
 11
1143.5263192103564
 21
1172.7264296533688
  0
LINE
  8
_0-0_0
  6
CONTINUOUS
 62
    7
 10
1141.9596891876258
 20
1560.5635193667317
 11
1142.4084966523731
 21
1561.1014208511588
  0
LINE
  8
_0-0_0
  6
CONTINUOUS
 62
    7
 10
1142.4084966523731
 20
1561.1014208511588
 11
1142.7413257574376
 21
1561.810767333589
  0
LINE
  8
_0-0_0
  6
CONTINUOUS
 62
    7
 10
1142.7413257574376
 20
1561.810767333589
 11
1142.7480492820332
 21
1561.8359829904184
  0
LINE
  8
_0-0_0
  6
CONTINUOUS
 62
    7
 10
1142.7480492820332
 20
1561.8359829904184
 11
1142.9749706767373
 21
1562.7520900521463
  0
LINE
  8
_0-0_0
  6
CONTINUOUS
 62
    7
 10
1142.9749706767373
 20
1562.7520900521463
 11
1143.1027274024391
 21
1563.7203068690869
  0
LINE
  8
_0-0_0
  6
CONTINUOUS
 62
    7
 10
1143.1027274024391
 20
1563.7203068690869
 11
1143.1380234669716
 21
1564.0329556419829
  0
LINE
  8
_0-0_0
  6
CONTINUOUS
 62
    7
 10
1143.1380234669716
 20
1564.0329556419829
 11
1143.2203842036752
 21
1564.962509752902
  0
LINE
  8
_0-0_0
  6
CONTINUOUS
 62
    7
 10
1143.2203842036752
 20
1564.962509752902
 11
1143.2859410080796
 21
1565.8886972223331
  0
LINE
  8
_0-0_0
  6
CONTINUOUS
 62
    7
 10
1143.2859410080796
 20
1565.8886972223331
 11
1143.3414174047809
 21
1566.7930356764227
  0
LINE
  8
_0-0_0
  6
CONTINUOUS
 62
    7
 10
1143.3414174047809
 20
1566.7930356764227
 11
1143.391838960059
 21
1567.6889721643636
  0
LINE
  8
_0-0_0
  6
CONTINUOUS
 62
    7
 10
1143.391838960059
 20
1567.6889721643636
 11
1143.4540388813562
 21
1568.5815517691963
  0
LINE
  8
_0-0_0
  6
CONTINUOUS
 62
    7
 10
1143.4540388813562
 20
1568.5815517691963
 11
1143.5263192103564
 21
1569.4858902232861
  0
LINE
  8
_0-0_0
  6
CONTINUOUS
 62
    7
 10
1188.729824140798
 20
1524.7715241467849
 11
1188.7684868468191
 21
1524.7765692298274
  0
LINE
  8
_0-0_0
  6
CONTINUOUS
 62
    7
 10
1188.7684868468191
 20
1524.7765692298274
 11
1189.2055257039283
 21
1524.8051417697643
  0
LINE
  8
_0-0_0
  6
CONTINUOUS
 62
    7
 10
1189.2055257039283
 20
1524.8051417697643
 11
1189.63920767793
 21
1524.8337240680823
  0
LINE
  8
_0-0_0
  6
CONTINUOUS
 62
    7
 10
1189.63920767793
 20
1524.8337240680823
 11
1190.0829700596346
 21
1524.858939724912
  0
LINE
  8
_0-0_0
  6
CONTINUOUS
 62
    7
 10
1190.0829700596346
 20
1524.858939724912
 11
1190.5166520336365
 21
1524.8706985741687
  0
LINE
  8
_0-0_0
  6
CONTINUOUS
 62
    7
 10
1190.5166520336365
 20
1524.8706985741687
 11
1190.9553790906805
 21
1524.8791102986991
  0
LINE
  8
_0-0_0
  6
CONTINUOUS
 62
    7
 10
1190.9553790906805
 20
1524.8791102986991
 11
1191.0579104011711
 21
1524.8791102986991
  0
LINE
  8
_0-0_0
  6
CONTINUOUS
 62
    7
 10
1191.0579104011711
 20
1524.8791102986991
 11
1191.491592375173
 21
1524.8841456233604
  0
LINE
  8
_0-0_0
  6
CONTINUOUS
 62
    7
 10
1191.491592375173
 20
1524.8841456233604
 11
1191.9252743491745
 21
1524.8791102986991
  0
LINE
  8
_0-0_0
  6
CONTINUOUS
 62
    7
 10
1191.9252743491745
 20
1524.8791102986991
 11
1192.3723936139868
 21
1524.8673416910615
  0
LINE
  8
_0-0_0
  6
CONTINUOUS
 62
    7
 10
1192.3723936139868
 20
1524.8673416910615
 11
1192.769091323521
 21
1524.842126034232
  0
LINE
  8
_0-0_0
  6
CONTINUOUS
 62
    7
 10
1192.769091323521
 20
1524.842126034232
 11
1192.996022476606
 21
1524.8101868528065
  0
LINE
  8
_0-0_0
  6
CONTINUOUS
 62
    7
 10
1192.996022476606
 20
1524.8101868528065
 11
1193.0128264089051
 21
1524.8101868528065
  0
LINE
  8
_0-0_0
  6
CONTINUOUS
 62
    7
 10
1193.0128264089051
 20
1524.8101868528065
 11
1193.0951969039895
 21
1524.7715241467849
  0
LINE
  8
_0-0_0
  6
CONTINUOUS
 62
    7
 10
1188.729824140798
 20
1217.4391075299345
 11
1189.0576081628203
 21
1217.4222938392545
  0
LINE
  8
_0-0_0
  6
CONTINUOUS
 62
    7
 10
1189.0576081628203
 20
1217.4222938392545
 11
1189.4946470199293
 21
1217.3953997408714
  0
LINE
  8
_0-0_0
  6
CONTINUOUS
 62
    7
 10
1189.4946470199293
 20
1217.3953997408714
 11
1189.9350525185268
 21
1217.365139001
  0
LINE
  8
_0-0_0
  6
CONTINUOUS
 62
    7
 10
1189.9350525185268
 20
1217.365139001
 11
1190.0796131765273
 21
1217.365139001
  0
LINE
  8
_0-0_0
  6
CONTINUOUS
 62
    7
 10
1190.0796131765273
 20
1217.365139001
 11
1190.5166520336365
 21
1217.3449684272123
  0
LINE
  8
_0-0_0
  6
CONTINUOUS
 62
    7
 10
1190.5166520336365
 20
1217.3449684272123
 11
1190.9553790906805
 21
1217.3382449026165
  0
LINE
  8
_0-0_0
  6
CONTINUOUS
 62
    7
 10
1190.9553790906805
 20
1217.3382449026165
 11
1191.330218026492
 21
1217.3214409703176
  0
LINE
  8
_0-0_0
  6
CONTINUOUS
 62
    7
 10
1191.330218026492
 20
1217.3214409703176
 11
1191.7672666419824
 21
1217.3214409703176
  0
LINE
  8
_0-0_0
  6
CONTINUOUS
 62
    7
 10
1191.7672666419824
 20
1217.3214409703176
 11
1192.3723936139868
 21
1217.3449684272123
  0
LINE
  8
_0-0_0
  6
CONTINUOUS
 62
    7
 10
1192.3723936139868
 20
1217.3449684272123
 11
1192.769091323521
 21
1217.3785958085725
  0
LINE
  8
_0-0_0
  6
CONTINUOUS
 62
    7
 10
1192.769091323521
 20
1217.3785958085725
 11
1192.996022476606
 21
1217.4054899069556
  0
LINE
  8
_0-0_0
  6
CONTINUOUS
 62
    7
 10
1192.996022476606
 20
1217.4054899069556
 11
1193.0817498547979
 21
1217.4357408884462
  0
LINE
  8
_0-0_0
  6
CONTINUOUS
 62
    7
 10
1193.0817498547979
 20
1217.4357408884462
 11
1193.0951969039895
 21
1217.4391075299345
  0
LINE
  8
_0-0_0
  6
CONTINUOUS
 62
    7
 10
1143.5263192103564
 20
1172.2355928411121
 11
1143.5296760934636
 21
1172.2019752181332
  0
LINE
  8
_0-0_0
  6
CONTINUOUS
 62
    7
 10
1143.5296760934636
 20
1172.2019752181332
 11
1143.5582583917817
 21
1171.764936361024
  0
LINE
  8
_0-0_0
  6
CONTINUOUS
 62
    7
 10
1143.5582583917817
 20
1171.764936361024
 11
1143.5885093732722
 21
1171.3211739793192
  0
LINE
  8
_0-0_0
  6
CONTINUOUS
 62
    7
 10
1143.5885093732722
 20
1171.3211739793192
 11
1143.6086799470597
 21
1170.8908488884247
  0
LINE
  8
_0-0_0
  6
CONTINUOUS
 62
    7
 10
1143.6086799470597
 20
1170.8908488884247
 11
1143.6271720792936
 21
1170.4470865067201
  0
LINE
  8
_0-0_0
  6
CONTINUOUS
 62
    7
 10
1143.6271720792936
 20
1170.4470865067201
 11
1143.6338956038892
 21
1170.0167711742065
  0
LINE
  8
_0-0_0
  6
CONTINUOUS
 62
    7
 10
1143.6338956038892
 20
1170.0167711742065
 11
1143.6372622453778
 21
1169.9091947806737
  0
LINE
  8
_0-0_0
  6
CONTINUOUS
 62
    7
 10
1143.6372622453778
 20
1169.9091947806737
 11
1143.6372622453778
 21
1169.4788696897795
  0
LINE
  8
_0-0_0
  6
CONTINUOUS
 62
    7
 10
1143.6372622453778
 20
1169.4788696897795
 11
1143.6338956038892
 21
1169.04183083267
  0
LINE
  8
_0-0_0
  6
CONTINUOUS
 62
    7
 10
1143.6338956038892
 20
1169.04183083267
 11
1143.6271720792936
 21
1168.5980684509655
  0
LINE
  8
_0-0_0
  6
CONTINUOUS
 62
    7
 10
1143.6271720792936
 20
1168.5980684509655
 11
1143.5952328978683
 21
1168.2013707414312
  0
LINE
  8
_0-0_0
  6
CONTINUOUS
 62
    7
 10
1143.5952328978683
 20
1168.2013707414312
 11
1143.5649819163775
 21
1167.976127788281
  0
LINE
  8
_0-0_0
  6
CONTINUOUS
 62
    7
 10
1143.5649819163775
 20
1167.976127788281
 11
1143.5649819163775
 21
1167.9559572144935
  0
LINE
  8
_0-0_0
  6
CONTINUOUS
 62
    7
 10
1143.5649819163775
 20
1167.9559572144935
 11
1143.5263192103564
 21
1167.8719082778553
  0
LINE
  8
_0-0_0
  6
CONTINUOUS
 62
    7
 10
622.45384612145017
 20
1217.4391075299345
 11
622.4185500569173
 21
1217.4391075299345
  0
LINE
  8
_0-0_0
  6
CONTINUOUS
 62
    7
 10
622.4185500569173
 20
1217.4391075299345
 11
621.98151119980844
 21
1217.4088467900631
  0
LINE
  8
_0-0_0
  6
CONTINUOUS
 62
    7
 10
621.98151119980844
 20
1217.4088467900631
 11
621.54446258431813
 21
1217.3785958085725
  0
LINE
  8
_0-0_0
  6
CONTINUOUS
 62
    7
 10
621.54446258431813
 20
1217.3785958085725
 11
621.10406684410179
 21
1217.3584154764037
  0
LINE
  8
_0-0_0
  6
CONTINUOUS
 62
    7
 10
621.10406684410179
 20
1217.3584154764037
 11
620.66701822861182
 21
1217.3449684272123
  0
LINE
  8
_0-0_0
  6
CONTINUOUS
 62
    7
 10
620.66701822861182
 20
1217.3449684272123
 11
620.23334601299109
 21
1217.3382449026165
  0
LINE
  8
_0-0_0
  6
CONTINUOUS
 62
    7
 10
620.23334601299109
 20
1217.3382449026165
 11
620.12912650256544
 21
1217.3315213780209
  0
LINE
  8
_0-0_0
  6
CONTINUOUS
 62
    7
 10
620.12912650256544
 20
1217.3315213780209
 11
619.69544452856348
 21
1217.3315213780209
  0
LINE
  8
_0-0_0
  6
CONTINUOUS
 62
    7
 10
619.69544452856348
 20
1217.3315213780209
 11
619.25840567145474
 21
1217.3382449026165
  0
LINE
  8
_0-0_0
  6
CONTINUOUS
 62
    7
 10
619.25840567145474
 20
1217.3382449026165
 11
618.8180001728573
 21
1217.3449684272123
  0
LINE
  8
_0-0_0
  6
CONTINUOUS
 62
    7
 10
618.8180001728573
 20
1217.3449684272123
 11
618.41457893872735
 21
1217.3785958085725
  0
LINE
  8
_0-0_0
  6
CONTINUOUS
 62
    7
 10
618.41457893872735
 20
1217.3785958085725
 11
618.19101442713054
 21
1217.4054899069556
  0
LINE
  8
_0-0_0
  6
CONTINUOUS
 62
    7
 10
618.19101442713054
 20
1217.4054899069556
 11
618.17084385334329
 21
1217.4088467900631
  0
LINE
  8
_0-0_0
  6
CONTINUOUS
 62
    7
 10
618.17084385334329
 20
1217.4088467900631
 11
618.09519688285434
 21
1217.4391075299345
  0
LINE
  8
_0-0_0
  6
CONTINUOUS
 62
    7
 10
622.45384612145017
 20
1524.7715241467849
 11
622.12942874091618
 21
1524.7967398036144
  0
LINE
  8
_0-0_0
  6
CONTINUOUS
 62
    7
 10
622.12942874091618
 20
1524.7967398036144
 11
621.69238988380721
 21
1524.8253221019331
  0
LINE
  8
_0-0_0
  6
CONTINUOUS
 62
    7
 10
621.69238988380721
 20
1524.8253221019331
 11
621.2553412683169
 21
1524.8471711172738
  0
LINE
  8
_0-0_0
  6
CONTINUOUS
 62
    7
 10
621.2553412683169
 20
1524.8471711172738
 11
621.11079036869774
 21
1524.8538946418698
  0
LINE
  8
_0-0_0
  6
CONTINUOUS
 62
    7
 10
621.11079036869774
 20
1524.8538946418698
 11
620.67038487010007
 21
1524.8673416910615
  0
LINE
  8
_0-0_0
  6
CONTINUOUS
 62
    7
 10
620.67038487010007
 20
1524.8673416910615
 11
620.23334601299109
 21
1524.8791102986991
  0
LINE
  8
_0-0_0
  6
CONTINUOUS
 62
    7
 10
620.23334601299109
 20
1524.8791102986991
 11
619.85849731879796
 21
1524.8875122648487
  0
LINE
  8
_0-0_0
  6
CONTINUOUS
 62
    7
 10
619.85849731879796
 20
1524.8875122648487
 11
619.41977026175437
 21
1524.8841456233604
  0
LINE
  8
_0-0_0
  6
CONTINUOUS
 62
    7
 10
619.41977026175437
 20
1524.8841456233604
 11
619.25503902996616
 21
1524.8791102986991
  0
LINE
  8
_0-0_0
  6
CONTINUOUS
 62
    7
 10
619.25503902996616
 20
1524.8791102986991
 11
618.8180001728573
 21
1524.8673416910615
  0
LINE
  8
_0-0_0
  6
CONTINUOUS
 62
    7
 10
618.8180001728573
 20
1524.8673416910615
 11
618.41457893872735
 21
1524.842126034232
  0
LINE
  8
_0-0_0
  6
CONTINUOUS
 62
    7
 10
618.41457893872735
 20
1524.842126034232
 11
618.19101442713054
 21
1524.8101868528065
  0
LINE
  8
_0-0_0
  6
CONTINUOUS
 62
    7
 10
618.19101442713054
 20
1524.8101868528065
 11
618.10528704893864
 21
1524.7849711959768
  0
LINE
  8
_0-0_0
  6
CONTINUOUS
 62
    7
 10
618.10528704893864
 20
1524.7849711959768
 11
618.09519688285434
 21
1524.7715241467849
  0
LINE
  8
_0-0_0
  6
CONTINUOUS
 62
    7
 10
881.93194236688657
 20
1336.9261712133471
 11
882.24122449829395
 21
1337.3800237611363
  0
LINE
  8
_0-0_0
  6
CONTINUOUS
 62
    7
 10
882.24122449829395
 20
1337.3800237611363
 11
882.68835352148722
 21
1338.0255016390968
  0
LINE
  8
_0-0_0
  6
CONTINUOUS
 62
    7
 10
882.68835352148722
 20
1338.0255016390968
 11
883.12875902008489
 21
1338.6642559924612
  0
LINE
  8
_0-0_0
  6
CONTINUOUS
 62
    7
 10
883.12875902008489
 20
1338.6642559924612
 11
883.25987262889385
 21
1338.8575597641861
  0
LINE
  8
_0-0_0
  6
CONTINUOUS
 62
    7
 10
883.25987262889385
 20
1338.8575597641861
 11
883.70363501059853
 21
1339.4946259176161
  0
LINE
  8
_0-0_0
  6
CONTINUOUS
 62
    7
 10
883.70363501059853
 20
1339.4946259176161
 11
884.14571895074982
 21
1340.14178223713
  0
LINE
  8
_0-0_0
  6
CONTINUOUS
 62
    7
 10
884.14571895074982
 20
1340.14178223713
 11
884.58948133245462
 21
1340.7822247904292
  0
LINE
  8
_0-0_0
  6
CONTINUOUS
 62
    7
 10
884.58948133245462
 20
1340.7822247904292
 11
885.02988683105218
 21
1341.4226575853477
  0
LINE
  8
_0-0_0
  6
CONTINUOUS
 62
    7
 10
885.02988683105218
 20
1341.4226575853477
 11
885.47029232964974
 21
1342.0630903802657
  0
LINE
  8
_0-0_0
  6
CONTINUOUS
 62
    7
 10
885.47029232964974
 20
1342.0630903802657
 11
885.91742135284289
 21
1342.7136035828869
  0
LINE
  8
_0-0_0
  6
CONTINUOUS
 62
    7
 10
885.91742135284289
 20
1342.7136035828869
 11
886.35446020995209
 21
1343.3540363778056
  0
LINE
  8
_0-0_0
  6
CONTINUOUS
 62
    7
 10
670.08461173964849
 20
1182.4287391214186
 11
669.45426911081438
 21
1181.7261161635843
  0
LINE
  8
_0-0_0
  6
CONTINUOUS
 62
    7
 10
669.45426911081438
 20
1181.7261161635843
 11
669.05084787668454
 21
1181.0503775457523
  0
LINE
  8
_0-0_0
  6
CONTINUOUS
 62
    7
 10
669.05084787668454
 20
1181.0503775457523
 11
668.69449131472538
 21
1180.1124214686836
  0
LINE
  8
_0-0_0
  6
CONTINUOUS
 62
    7
 10
668.69449131472538
 20
1180.1124214686836
 11
668.63901491802392
 21
1179.9073490893206
  0
LINE
  8
_0-0_0
  6
CONTINUOUS
 62
    7
 10
668.63901491802392
 20
1179.9073490893206
 11
668.42217393102317
 21
1178.9055146494011
  0
LINE
  8
_0-0_0
  6
CONTINUOUS
 62
    7
 10
668.42217393102317
 20
1178.9055146494011
 11
668.27088974842695
 21
1177.9709252138205
  0
LINE
  8
_0-0_0
  6
CONTINUOUS
 62
    7
 10
668.27088974842695
 20
1177.9709252138205
 11
668.13306237340316
 21
1176.9623672493051
  0
LINE
  8
_0-0_0
  6
CONTINUOUS
 62
    7
 10
668.13306237340316
 20
1176.9623672493051
 11
668.02211933838157
 21
1175.9538092847895
  0
LINE
  8
_0-0_0
  6
CONTINUOUS
 62
    7
 10
668.02211933838157
 20
1175.9538092847895
 11
668.00194876459432
 21
1175.7655408377257
  0
LINE
  8
_0-0_0
  6
CONTINUOUS
 62
    7
 10
668.00194876459432
 20
1175.7655408377257
 11
667.89436261268008
 21
1174.7502593486142
  0
LINE
  8
_0-0_0
  6
CONTINUOUS
 62
    7
 10
667.89436261268008
 20
1174.7502593486142
 11
667.78510777759357
 21
1173.7417111424797
  0
LINE
  8
_0-0_0
  6
CONTINUOUS
 62
    7
 10
667.78510777759357
 20
1173.7417111424797
 11
667.66071769338009
 21
1172.7264296533688
  0
LINE
  8
_0-0_0
  6
CONTINUOUS
 62
    7
 10
667.66071769338009
 20
1569.4825235817975
 11
667.68929023331725
 21
1569.1850002996466
  0
LINE
  8
_0-0_0
  6
CONTINUOUS
 62
    7
 10
667.68929023331725
 20
1569.1850002996466
 11
667.75316859616794
 21
1568.2840187286647
  0
LINE
  8
_0-0_0
  6
CONTINUOUS
 62
    7
 10
667.75316859616794
 20
1568.2840187286647
 11
667.81200187597665
 21
1567.3796802745744
  0
LINE
  8
_0-0_0
  6
CONTINUOUS
 62
    7
 10
667.81200187597665
 20
1567.3796802745744
 11
667.86411163118953
 21
1566.4871104281228
  0
LINE
  8
_0-0_0
  6
CONTINUOUS
 62
    7
 10
667.86411163118953
 20
1566.4871104281228
 11
667.92294491099813
 21
1565.5794150909255
  0
LINE
  8
_0-0_0
  6
CONTINUOUS
 62
    7
 10
667.92294491099813
 20
1565.5794150909255
 11
667.99185859851013
 21
1564.6532178631139
  0
LINE
  8
_0-0_0
  6
CONTINUOUS
 62
    7
 10
667.99185859851013
 20
1564.6532178631139
 11
668.08430950129764
 21
1563.7152617860447
  0
LINE
  8
_0-0_0
  6
CONTINUOUS
 62
    7
 10
668.08430950129764
 20
1563.7152617860447
 11
668.08767614278611
 21
1563.686689246108
  0
LINE
  8
_0-0_0
  6
CONTINUOUS
 62
    7
 10
668.08767614278611
 20
1563.686689246108
 11
668.2154231101066
 21
1562.7285528368702
  0
LINE
  8
_0-0_0
  6
CONTINUOUS
 62
    7
 10
668.2154231101066
 20
1562.7285528368702
 11
668.445711146299
 21
1561.810767333589
  0
LINE
  8
_0-0_0
  6
CONTINUOUS
 62
    7
 10
668.445711146299
 20
1561.810767333589
 11
668.78357557602453
 21
1561.1014208511588
  0
LINE
  8
_0-0_0
  6
CONTINUOUS
 62
    7
 10
668.78357557602453
 20
1561.1014208511588
 11
669.22733795772945
 21
1560.5635193667317
  0
LINE
  8
_0-0_0
  6
CONTINUOUS
 62
    7
 10
929.25678273678488
 20
1336.9295378548354
 11
928.94580264706156
 21
1337.3833806442437
  0
LINE
  8
_0-0_0
  6
CONTINUOUS
 62
    7
 10
928.94580264706156
 20
1337.3833806442437
 11
928.50204026535664
 21
1338.0255016390968
  0
LINE
  8
_0-0_0
  6
CONTINUOUS
 62
    7
 10
928.50204026535664
 20
1338.0255016390968
 11
928.05827788365173
 21
1338.6642559924612
  0
LINE
  8
_0-0_0
  6
CONTINUOUS
 62
    7
 10
928.05827788365173
 20
1338.6642559924612
 11
927.92716427484277
 21
1338.8575597641861
  0
LINE
  8
_0-0_0
  6
CONTINUOUS
 62
    7
 10
927.92716427484277
 20
1338.8575597641861
 11
927.48340189313808
 21
1339.4946259176161
  0
LINE
  8
_0-0_0
  6
CONTINUOUS
 62
    7
 10
927.48340189313808
 20
1339.4946259176161
 11
927.04299639454052
 21
1340.14178223713
  0
LINE
  8
_0-0_0
  6
CONTINUOUS
 62
    7
 10
927.04299639454052
 20
1340.14178223713
 11
926.60259089594308
 21
1340.7822247904292
  0
LINE
  8
_0-0_0
  6
CONTINUOUS
 62
    7
 10
926.60259089594308
 20
1340.7822247904292
 11
926.15715007268454
 21
1341.4226575853477
  0
LINE
  8
_0-0_0
  6
CONTINUOUS
 62
    7
 10
926.15715007268454
 20
1341.4226575853477
 11
925.71337793259841
 21
1342.0630903802657
  0
LINE
  8
_0-0_0
  6
CONTINUOUS
 62
    7
 10
925.71337793259841
 20
1342.0630903802657
 11
925.26961555089372
 21
1342.7136035828869
  0
LINE
  8
_0-0_0
  6
CONTINUOUS
 62
    7
 10
925.26961555089372
 20
1342.7136035828869
 11
924.82921005229616
 21
1343.3540363778056
  0
LINE
  8
_0-0_0
  6
CONTINUOUS
 62
    7
 10
881.92521884229086
 20
1336.9463417871343
 11
881.08811563415907
 21
1336.4824088316423
  0
LINE
  8
_0-0_0
  6
CONTINUOUS
 62
    7
 10
881.93194236688657
 20
1336.9261712133471
 11
880.09972824343106
 21
1338.2725936075881
  0
LINE
  8
_0-0_0
  6
CONTINUOUS
 62
    7
 10
880.09972824343106
 20
1338.2725936075881
 11
878.34147289052953
 21
1339.7148335461052
  0
LINE
  8
_0-0_0
  6
CONTINUOUS
 62
    7
 10
878.34147289052953
 20
1339.7148335461052
 11
876.66055270805145
 21
1341.2427911044329
  0
LINE
  8
_0-0_0
  6
CONTINUOUS
 62
    7
 10
876.66055270805145
 20
1341.2427911044329
 11
875.06702858693802
 21
1342.8749779315676
  0
LINE
  8
_0-0_0
  6
CONTINUOUS
 62
    7
 10
875.06702858693802
 20
1342.8749779315676
 11
873.56596512699321
 21
1344.5828019708101
  0
LINE
  8
_0-0_0
  6
CONTINUOUS
 62
    7
 10
873.56596512699321
 20
1344.5828019708101
 11
872.16070945294359
 21
1346.3729867467559
  0
LINE
  8
_0-0_0
  6
CONTINUOUS
 62
    7
 10
872.16070945294359
 20
1346.3729867467559
 11
870.85966353093852
 21
1348.2488989008937
  0
LINE
  8
_0-0_0
  6
CONTINUOUS
 62
    7
 10
870.85966353093852
 20
1348.2488989008937
 11
869.66284687774032
 21
1350.1769208102442
  0
LINE
  8
_0-0_0
  6
CONTINUOUS
 62
    7
 10
869.66284687774032
 20
1350.1769208102442
 11
868.57023997658655
 21
1352.1772328069765
  0
LINE
  8
_0-0_0
  6
CONTINUOUS
 62
    7
 10
868.57023997658655
 20
1352.1772328069765
 11
867.59698783498493
 21
1354.2245997174982
  0
LINE
  8
_0-0_0
  6
CONTINUOUS
 62
    7
 10
867.62051529187966
 20
1388.0213280237547
 11
868.59545563341612
 21
1390.0653380511687
  0
LINE
  8
_0-0_0
  6
CONTINUOUS
 62
    7
 10
868.59545563341612
 20
1390.0653380511687
 11
869.68301745152769
 21
1392.0622834064125
  0
LINE
  8
_0-0_0
  6
CONTINUOUS
 62
    7
 10
869.68301745152769
 20
1392.0622834064125
 11
870.87479878006491
 21
1393.9970288403586
  0
LINE
  8
_0-0_0
  6
CONTINUOUS
 62
    7
 10
870.87479878006491
 20
1393.9970288403586
 11
872.17583494368898
 21
1395.8594939453046
  0
LINE
  8
_0-0_0
  6
CONTINUOUS
 62
    7
 10
872.17583494368898
 20
1395.8594939453046
 11
873.57268865158915
 21
1397.6463218381434
  0
LINE
  8
_0-0_0
  6
CONTINUOUS
 62
    7
 10
873.57268865158915
 20
1397.6463218381434
 11
875.07711875302221
 21
1399.3541458773859
  0
LINE
  8
_0-0_0
  6
CONTINUOUS
 62
    7
 10
875.07711875302221
 20
1399.3541458773859
 11
876.67063311575464
 21
1400.9678405722866
  0
LINE
  8
_0-0_0
  6
CONTINUOUS
 62
    7
 10
876.67063311575464
 20
1400.9678405722866
 11
878.35156305661371
 21
1402.4957981306147
  0
LINE
  8
_0-0_0
  6
CONTINUOUS
 62
    7
 10
878.35156305661371
 20
1402.4957981306147
 11
880.10980865113424
 21
1403.934671427643
  0
LINE
  8
_0-0_0
  6
CONTINUOUS
 62
    7
 10
880.10980865113424
 20
1403.934671427643
 11
881.93529924999382
 21
1405.2676467726926
  0
LINE
  8
_0-0_0
  6
CONTINUOUS
 62
    7
 10
929.24501412914674
 20
1405.2743702972884
 11
931.0738616111139
 21
1403.9380380691318
  0
LINE
  8
_0-0_0
  6
CONTINUOUS
 62
    7
 10
931.0738616111139
 20
1403.9380380691318
 11
932.82875032252696
 21
1402.4957981306147
  0
LINE
  8
_0-0_0
  6
CONTINUOUS
 62
    7
 10
932.82875032252696
 20
1402.4957981306147
 11
934.51303714649362
 21
1400.9678405722866
  0
LINE
  8
_0-0_0
  6
CONTINUOUS
 62
    7
 10
934.51303714649362
 20
1400.9678405722866
 11
936.10656126760705
 21
1399.3541458773859
  0
LINE
  8
_0-0_0
  6
CONTINUOUS
 62
    7
 10
936.10656126760705
 20
1399.3541458773859
 11
937.61099136904022
 21
1397.6463218381434
  0
LINE
  8
_0-0_0
  6
CONTINUOUS
 62
    7
 10
937.61099136904022
 20
1397.6463218381434
 11
939.00952351849401
 21
1395.8594939453046
  0
LINE
  8
_0-0_0
  6
CONTINUOUS
 62
    7
 10
939.00952351849401
 20
1395.8594939453046
 11
940.31055968211808
 21
1393.9970288403586
  0
LINE
  8
_0-0_0
  6
CONTINUOUS
 62
    7
 10
940.31055968211808
 20
1393.9970288403586
 11
941.50401945220892
 21
1392.0622834064125
  0
LINE
  8
_0-0_0
  6
CONTINUOUS
 62
    7
 10
941.50401945220892
 20
1392.0622834064125
 11
942.59325971187423
 21
1390.0653380511687
  0
LINE
  8
_0-0_0
  6
CONTINUOUS
 62
    7
 10
942.59325971187423
 20
1390.0653380511687
 11
943.56651185347573
 21
1388.0162926990938
  0
LINE
  8
_0-0_0
  6
CONTINUOUS
 62
    7
 10
905.5960361141988
 20
1405.4122074306931
 11
907.64004614161308
 21
1405.3500172677773
  0
LINE
  8
_0-0_0
  6
CONTINUOUS
 62
    7
 10
907.64004614161308
 20
1405.3500172677773
 11
909.68573461058088
 21
1405.1550252961174
  0
LINE
  8
_0-0_0
  6
CONTINUOUS
 62
    7
 10
909.68573461058088
 20
1405.1550252961174
 11
911.7162975888034
 21
1404.823884390988
  0
LINE
  8
_0-0_0
  6
CONTINUOUS
 62
    7
 10
911.7162975888034
 20
1404.823884390988
 11
913.7233233517502
 21
1404.3683534016452
  0
LINE
  8
_0-0_0
  6
CONTINUOUS
 62
    7
 10
913.7233233517502
 20
1404.3683534016452
 11
915.70345501631346
 21
1403.7901107696428
  0
LINE
  8
_0-0_0
  6
CONTINUOUS
 62
    7
 10
915.70345501631346
 20
1403.7901107696428
 11
917.63821020864111
 21
1403.085809370255
  0
LINE
  8
_0-0_0
  6
CONTINUOUS
 62
    7
 10
917.63821020864111
 20
1403.085809370255
 11
919.52420277048202
 21
1402.2621532113146
  0
LINE
  8
_0-0_0
  6
CONTINUOUS
 62
    7
 10
919.52420277048202
 20
1402.2621532113146
 11
921.3547384523838
 21
1401.3225089343109
  0
LINE
  8
_0-0_0
  6
CONTINUOUS
 62
    7
 10
921.3547384523838
 20
1401.3225089343109
 11
923.12475265454225
 21
1400.2803431051975
  0
LINE
  8
_0-0_0
  6
CONTINUOUS
 62
    7
 10
923.12475265454225
 20
1400.2803431051975
 11
924.8258531691888
 21
1399.1406715318731
  0
LINE
  8
_0-0_0
  6
CONTINUOUS
 62
    7
 10
924.8258531691888
 20
1399.1406715318731
 11
926.31346957994197
 21
1398.0110901246335
  0
LINE
  8
_0-0_0
  6
CONTINUOUS
 62
    7
 10
926.31346957994197
 20
1398.0110901246335
 11
927.73721738622521
 21
1396.8058617469044
  0
LINE
  8
_0-0_0
  6
CONTINUOUS
 62
    7
 10
927.73721738622521
 20
1396.8058617469044
 11
929.09372994655041
 21
1395.5249961570678
  0
LINE
  8
_0-0_0
  6
CONTINUOUS
 62
    7
 10
929.09372994655041
 20
1395.5249961570678
 11
930.38804258557866
 21
1394.1718502382309
  0
LINE
  8
_0-0_0
  6
CONTINUOUS
 62
    7
 10
930.38804258557866
 20
1394.1718502382309
 11
931.60671801249907
 21
1392.7497808735011
  0
LINE
  8
_0-0_0
  6
CONTINUOUS
 62
    7
 10
931.60671801249907
 20
1392.7497808735011
 11
931.61007489560666
 21
1392.7497808735011
  0
LINE
  8
_0-0_0
  6
CONTINUOUS
 62
    7
 10
931.61007489560666
 20
1392.7497808735011
 11
932.75646999352671
 21
1391.2705664288978
  0
LINE
  8
_0-0_0
  6
CONTINUOUS
 62
    7
 10
932.75646999352671
 20
1391.2705664288978
 11
933.81713771325508
 21
1389.7308402629315
  0
LINE
  8
_0-0_0
  6
CONTINUOUS
 62
    7
 10
933.81713771325508
 20
1389.7308402629315
 11
934.80215846249462
 21
1388.1406827833066
  0
LINE
  8
_0-0_0
  6
CONTINUOUS
 62
    7
 10
934.80215846249462
 20
1388.1406827833066
 11
935.69641650888127
 21
1386.4984155484685
  0
LINE
  8
_0-0_0
  6
CONTINUOUS
 62
    7
 10
935.69641650888127
 20
1386.4984155484685
 11
936.509982501737
 21
1384.8258875737592
  0
LINE
  8
_0-0_0
  6
CONTINUOUS
 62
    7
 10
936.509982501737
 20
1384.8258875737592
 11
937.50172677557225
 21
1382.3750994291076
  0
LINE
  8
_0-0_0
  6
CONTINUOUS
 62
    7
 10
937.50172677557225
 20
1382.3750994291076
 11
938.30016727768282
 21
1379.8402525894369
  0
LINE
  8
_0-0_0
  6
CONTINUOUS
 62
    7
 10
938.30016727768282
 20
1379.8402525894369
 11
938.52709843076798
 21
1378.9594513506231
  0
LINE
  8
_0-0_0
  6
CONTINUOUS
 62
    7
 10
938.52709843076798
 20
1378.9594513506231
 11
939.0565881906648
 21
1376.3472888572906
  0
LINE
  8
_0-0_0
  6
CONTINUOUS
 62
    7
 10
939.0565881906648
 20
1376.3472888572906
 11
939.37428204660273
 21
1373.726724397809
  0
LINE
  8
_0-0_0
  6
CONTINUOUS
 62
    7
 10
939.37428204660273
 20
1373.726724397809
 11
939.48017999858223
 21
1371.1212854290727
  0
LINE
  8
_0-0_0
  6
CONTINUOUS
 62
    7
 10
939.48017999858223
 20
1371.1212854290727
 11
939.3776389297102
 21
1368.5158464603362
  0
LINE
  8
_0-0_0
  6
CONTINUOUS
 62
    7
 10
939.3776389297102
 20
1368.5158464603362
 11
939.06666859836776
 21
1365.8919153593661
  0
LINE
  8
_0-0_0
  6
CONTINUOUS
 62
    7
 10
939.06666859836776
 20
1365.8919153593661
 11
938.54726900455546
 21
1363.2898430321179
  0
LINE
  8
_0-0_0
  6
CONTINUOUS
 62
    7
 10
938.54726900455546
 20
1363.2898430321179
 11
938.31361432687447
 21
1362.3771026118789
  0
LINE
  8
_0-0_0
  6
CONTINUOUS
 62
    7
 10
938.31361432687447
 20
1362.3771026118789
 11
937.51854046625249
 21
1359.8439439721426
  0
LINE
  8
_0-0_0
  6
CONTINUOUS
 62
    7
 10
937.51854046625249
 20
1359.8439439721426
 11
936.53687660012019
 21
1357.4099597597899
  0
LINE
  8
_0-0_0
  6
CONTINUOUS
 62
    7
 10
936.53687660012019
 20
1357.4099597597899
 11
935.73171257341392
 21
1355.7508788342725
  0
LINE
  8
_0-0_0
  6
CONTINUOUS
 62
    7
 10
935.73171257341392
 20
1355.7508788342725
 11
934.83241920236628
 21
1354.1254252901147
  0
LINE
  8
_0-0_0
  6
CONTINUOUS
 62
    7
 10
934.83241920236628
 20
1354.1254252901147
 11
933.85580041927619
 21
1352.5554383842768
  0
LINE
  8
_0-0_0
  6
CONTINUOUS
 62
    7
 10
933.85580041927619
 20
1352.5554383842768
 11
932.78840917495222
 21
1351.037561233652
  0
LINE
  8
_0-0_0
  6
CONTINUOUS
 62
    7
 10
932.78840917495222
 20
1351.037561233652
 11
931.6453807185203
 21
1349.5818742459428
  0
LINE
  8
_0-0_0
  6
CONTINUOUS
 62
    7
 10
931.6453807185203
 20
1349.5818742459428
 11
930.41661512551559
 21
1348.1900656210848
  0
LINE
  8
_0-0_0
  6
CONTINUOUS
 62
    7
 10
930.41661512551559
 20
1348.1900656210848
 11
929.12230248648734
 21
1346.8688588836735
  0
LINE
  8
_0-0_0
  6
CONTINUOUS
 62
    7
 10
929.12230248648734
 20
1346.8688588836735
 11
927.75234287697049
 21
1345.6148873922202
  0
LINE
  8
_0-0_0
  6
CONTINUOUS
 62
    7
 10
927.75234287697049
 20
1345.6148873922202
 11
926.32355974602615
 21
1344.4449648374052
  0
LINE
  8
_0-0_0
  6
CONTINUOUS
 62
    7
 10
926.32355974602615
 20
1344.4449648374052
 11
924.82921005229616
 21
1343.3540363778056
  0
LINE
  8
_0-0_0
  6
CONTINUOUS
 62
    7
 10
886.35446020995209
 20
1343.3540363778056
 11
884.86852224075267
 21
1344.4449648374052
  0
LINE
  8
_0-0_0
  6
CONTINUOUS
 62
    7
 10
884.86852224075267
 20
1344.4449648374052
 11
883.43637246831975
 21
1345.6148873922202
  0
LINE
  8
_0-0_0
  6
CONTINUOUS
 62
    7
 10
883.43637246831975
 20
1345.6148873922202
 11
882.06976974191025
 21
1346.8655020005665
  0
LINE
  8
_0-0_0
  6
CONTINUOUS
 62
    7
 10
882.06976974191025
 20
1346.8655020005665
 11
880.76705513673255
 21
1348.1900656210848
  0
LINE
  8
_0-0_0
  6
CONTINUOUS
 62
    7
 10
880.76705513673255
 20
1348.1900656210848
 11
879.54165618521631
 21
1349.5818742459428
  0
LINE
  8
_0-0_0
  6
CONTINUOUS
 62
    7
 10
879.54165618521631
 20
1349.5818742459428
 11
878.39527084567726
 21
1351.037561233652
  0
LINE
  8
_0-0_0
  6
CONTINUOUS
 62
    7
 10
878.39527084567726
 20
1351.037561233652
 11
877.33292468439515
 21
1352.5554383842768
  0
LINE
  8
_0-0_0
  6
CONTINUOUS
 62
    7
 10
877.33292468439515
 20
1352.5554383842768
 11
876.35461770137022
 21
1354.1254252901147
  0
LINE
  8
_0-0_0
  6
CONTINUOUS
 62
    7
 10
876.35461770137022
 20
1354.1254252901147
 11
875.45868121342994
 21
1355.7508788342725
  0
LINE
  8
_0-0_0
  6
CONTINUOUS
 62
    7
 10
875.45868121342994
 20
1355.7508788342725
 11
874.65351718672366
 21
1357.4099597597899
  0
LINE
  8
_0-0_0
  6
CONTINUOUS
 62
    7
 10
874.65351718672366
 20
1357.4099597597899
 11
873.67017487903786
 21
1359.8439439721426
  0
LINE
  8
_0-0_0
  6
CONTINUOUS
 62
    7
 10
873.67017487903786
 20
1359.8439439721426
 11
872.8767794599695
 21
1362.37373597039
  0
LINE
  8
_0-0_0
  6
CONTINUOUS
 62
    7
 10
872.8767794599695
 20
1362.37373597039
 11
872.63976789918115
 21
1363.2898430321179
  0
LINE
  8
_0-0_0
  6
CONTINUOUS
 62
    7
 10
872.63976789918115
 20
1363.2898430321179
 11
872.12035854698775
 21
1365.8919153593661
  0
LINE
  8
_0-0_0
  6
CONTINUOUS
 62
    7
 10
872.12035854698775
 20
1365.8919153593661
 11
871.81107641558015
 21
1368.5158464603362
  0
LINE
  8
_0-0_0
  6
CONTINUOUS
 62
    7
 10
871.81107641558015
 20
1368.5158464603362
 11
871.70685690515438
 21
1371.1212854290727
  0
LINE
  8
_0-0_0
  6
CONTINUOUS
 62
    7
 10
871.70685690515438
 20
1371.1212854290727
 11
871.81443329868762
 21
1373.726724397809
  0
LINE
  8
_0-0_0
  6
CONTINUOUS
 62
    7
 10
871.81443329868762
 20
1373.726724397809
 11
872.1338153545604
 21
1376.3472888572906
  0
LINE
  8
_0-0_0
  6
CONTINUOUS
 62
    7
 10
872.1338153545604
 20
1376.3472888572906
 11
872.65993847296863
 21
1378.9594513506231
  0
LINE
  8
_0-0_0
  6
CONTINUOUS
 62
    7
 10
872.65993847296863
 20
1378.9594513506231
 11
872.88854806760753
 21
1379.8402525894369
  0
LINE
  8
_0-0_0
  6
CONTINUOUS
 62
    7
 10
872.88854806760753
 20
1379.8402525894369
 11
873.68698856971787
 21
1382.3750994291076
  0
LINE
  8
_0-0_0
  6
CONTINUOUS
 62
    7
 10
873.68698856971787
 20
1382.3750994291076
 11
874.67873284355335
 21
1384.8258875737592
  0
LINE
  8
_0-0_0
  6
CONTINUOUS
 62
    7
 10
881.93529924999382
 20
1405.2676467726926
 11
886.35446020995209
 21
1399.1406715318731
  0
LINE
  8
_0-0_0
  6
CONTINUOUS
 62
    7
 10
936.53687660012019
 20
1357.4099597597899
 11
943.59004906875157
 21
1354.2245997174982
  0
LINE
  8
_0-0_0
  6
CONTINUOUS
 62
    7
 10
943.56651185347573
 20
1388.0162926990938
 11
936.509982501737
 21
1384.8258875737592
  0
LINE
  8
_0-0_0
  6
CONTINUOUS
 62
    7
 10
905.5960361141988
 20
1184.6341234975134
 11
670.07788821505278
 21
1182.432105762907
  0
LINE
  8
_0-0_0
  6
CONTINUOUS
 62
    7
 10
1141.1057820471954
 20
1182.432105762907
 11
905.5960361141988
 21
1184.6341234975134
  0
LINE
  8
_0-0_0
  6
CONTINUOUS
 62
    7
 10
924.8258531691888
 20
1399.1406715318731
 11
929.24501412914674
 21
1405.2743702972884
  0
LINE
  8
_0-0_0
  6
CONTINUOUS
 62
    7
 10
867.59698783498493
 20
1354.2245997174982
 11
874.65351718672366
 21
1357.4099597597899
  0
LINE
  8
_0-0_0
  6
CONTINUOUS
 62
    7
 10
874.67873284355335
 20
1384.8258875737592
 11
867.6171584087723
 21
1388.0162926990938
  0
LINE
  8
_0-0_0
  6
CONTINUOUS
 62
    7
 10
1193.0951969039895
 20
1217.4391075299345
 11
1193.0951969039895
 21
1524.7715241467849
  0
LINE
  8
_0-0_0
  6
CONTINUOUS
 62
    7
 10
1179.3183144303027
 20
1220.878283065314
 11
1179.3183144303027
 21
1521.3390721360017
  0
LINE
  8
_0-0_0
  6
CONTINUOUS
 62
    7
 10
667.66071769338009
 20
1574.3437684819069
 11
1143.5128721611648
 21
1574.3437684819069
  0
LINE
  8
_0-0_0
  6
CONTINUOUS
 62
    7
 10
905.5960361141988
 20
1560.5517507590935
 11
669.22061443313351
 21
1560.5752879743693
  0
LINE
  8
_0-0_0
  6
CONTINUOUS
 62
    7
 10
905.5960361141988
 20
1560.5517507590935
 11
1141.9630558291146
 21
1560.5752879743693
  0
LINE
  8
_0-0_0
  6
CONTINUOUS
 62
    7
 10
905.5960361141988
 20
1172.7264296533688
 11
905.5960361141988
 21
1184.6273999729178
  0
LINE
  8
_0-0_0
  6
CONTINUOUS
 62
    7
 10
1143.5263192103564
 20
1167.8719082778553
 11
667.66071769338009
 21
1167.8719082778553
  0
LINE
  8
_0-0_0
  6
CONTINUOUS
 62
    7
 10
667.66071769338009
 20
1569.9783957187151
 11
667.66071769338009
 21
1574.3437684819069
  0
LINE
  8
_0-0_0
  6
CONTINUOUS
 62
    7
 10
631.87208911492223
 20
1220.878283065314
 11
631.87208911492223
 21
1521.3390721360017
  0
LINE
  8
_0-0_0
  6
CONTINUOUS
 62
    7
 10
618.09519688285434
 20
1524.7715241467849
 11
618.09519688285434
 21
1217.4391075299345
  0
LINE
  8
_0-1_DEFPOINTS
  6
CENTER1
 62
    7
 10
905.5960361141988
 20
1179.9140726139165
 11
905.5960361141988
 21
1605.6073381484271
  0
LINE
  8
_0-2_躯体
  6
CONTINUOUS
 62
    7
 10
1184.156022115136
 20
1607.8065934526308
 11
627.03269323015411
 21
1607.8065934526308
  0
LINE
  8
_0-2_躯体
  6
CONTINUOUS
 62
    7
 10
1184.156022115136
 20
1607.8065934526308
 11
1174.307944585014
 21
1606.0701116759617
  0
LINE
  8
_0-2_躯体
  6
CONTINUOUS
 62
    7
 10
1184.156022115136
 20
1607.8065934526308
 11
1174.307944585014
 21
1609.5430752293
  0
LINE
  8
_0-2_躯体
  6
CONTINUOUS
 62
    7
 10
627.03269323015411
 20
1607.8065934526308
 11
636.88077076027616
 21
1609.5430752293
  0
LINE
  8
_0-2_躯体
  6
CONTINUOUS
 62
    7
 10
627.03269323015411
 20
1607.8065934526308
 11
636.88077076027616
 21
1606.0701116759617
  0
LINE
  8
_0-2_躯体
  6
CONTINUOUS
 62
    7
 10
1193.0951969039895
 20
1648.9830640408661
 11
618.09519688285434
 21
1648.9830640408661
  0
LINE
  8
_0-2_躯体
  6
CONTINUOUS
 62
    7
 10
1193.0951969039895
 20
1648.9830640408661
 11
1183.2471193738675
 21
1647.2465822641968
  0
LINE
  8
_0-2_躯体
  6
CONTINUOUS
 62
    7
 10
1193.0951969039895
 20
1648.9830640408661
 11
1183.2471193738675
 21
1650.7195458175352
  0
LINE
  8
_0-2_躯体
  6
CONTINUOUS
 62
    7
 10
618.09519688285434
 20
1648.9830640408661
 11
627.94327441297639
 21
1650.7195458175352
  0
LINE
  8
_0-2_躯体
  6
CONTINUOUS
 62
    7
 10
618.09519688285434
 20
1648.9830640408661
 11
627.94327441297639
 21
1647.2465822641968
  0
TEXT
  8
_0-2_躯体
 62
    7
 10
886.84519689342198
 20
1653.9830640408661
 40
25
 41
1
 50
0
  1
575
  0
LINE
  8
_0-2_躯体
  6
CONTINUOUS
 62
    7
 10
1193.0951969039895
 20
1648.9830640408661
 11
1193.0951969039895
 21
1524.7715241467849
  0
LINE
  8
_0-2_躯体
  6
CONTINUOUS
 62
    7
 10
618.09519688285434
 20
1648.9830640408661
 11
618.09519688285434
 21
1524.7715241467849
  0
LINE
  8
_0-2_躯体
  6
CONTINUOUS
 62
    7
 10
627.03269323015411
 20
1607.8065934526308
 11
627.03269323015411
 21
1559.8205552613222
  0
TEXT
  8
_0-2_躯体
 62
    7
 10
886.84435767264506
 20
1612.8065934526308
 40
25
 41
1
 50
0
  1
562
  0
LINE
  8
_0-1_DEFPOINTS
  6
CENTER1
 62
    7
 10
1202.9829109121963
 20
1371.1095168214347
 11
599.10575803014115
 21
1371.1095168214347
  0
LINE
  8
_0-2_躯体
  6
CONTINUOUS
 62
    7
 10
1244.4128471194915
 20
1565.033111640349
 11
1246.1493288961608
 21
1555.185034110227
  0
LINE
  8
_0-2_躯体
  6
CONTINUOUS
 62
    7
 10
1244.4128471194915
 20
1565.033111640349
 11
1242.6763653428222
 21
1555.185034110227
  0
LINE
  8
_0-2_躯体
  6
CONTINUOUS
 62
    7
 10
1244.4128471194915
 20
1177.5809412705009
 11
1242.6763653428222
 21
1187.4290188006232
  0
LINE
  8
_0-2_躯体
  6
CONTINUOUS
 62
    7
 10
1244.4128471194915
 20
1177.5809412705009
 11
1246.1493288961608
 21
1187.4290188006232
  0
LINE
  8
_0-2_躯体
  6
CONTINUOUS
 62
    7
 10
1285.9705813242845
 20
1167.8719082778553
 11
1284.2340995476152
 21
1177.7199858079773
  0
LINE
  8
_0-2_躯体
  6
CONTINUOUS
 62
    7
 10
1285.9705813242845
 20
1167.8719082778553
 11
1287.7070631009537
 21
1177.7199858079773
  0
LINE
  8
_0-2_躯体
  6
CONTINUOUS
 62
    7
 10
1285.9705813242845
 20
1574.3437684819069
 11
1287.707063100954
 21
1564.4956909517848
  0
LINE
  8
_0-2_躯体
  6
CONTINUOUS
 62
    7
 10
1285.9705813242845
 20
1574.3437684819069
 11
1284.2340995476152
 21
1564.4956909517848
  0
TEXT
  8
_0-2_躯体
 62
    7
 10
1280.9705813242845
 20
1352.3578383798808
 40
25
 41
1
 50
90
  1
410
  0
TEXT
  8
_0-2_躯体
 62
    7
 10
1239.4128471194915
 20
1352.5570264554249
 40
25
 41
1
 50
90
  1
390
  0
LINE
  8
_0-2_躯体
  6
CONTINUOUS
 62
    7
 10
1285.9705813242845
 20
1167.8719082778553
 11
1143.5263192103564
 21
1167.8719082778553
  0
LINE
  8
_0-2_躯体
  6
CONTINUOUS
 62
    7
 10
1244.4128471194915
 20
1565.033111640349
 11
1244.4128471194915
 21
1177.5809412705009
  0
LINE
  8
_0-2_躯体
  6
CONTINUOUS
 62
    7
 10
1244.4128471194915
 20
1177.5809412705009
 11
1153.7151791281246
 21
1177.5809412705012
  0
LINE
  8
_0-2_躯体
  6
CONTINUOUS
 62
    7
 10
1244.0726389844951
 20
1565.033111640349
 11
1153.3117255656298
 21
1565.033111640349
  0
LINE
  8
_0-2_躯体
  6
CONTINUOUS
 62
    7
 10
1285.9705813242845
 20
1167.8719082778553
 11
1285.9705813242845
 21
1573.9833265762352
  0
LINE
  8
_0-2_躯体
  6
CONTINUOUS
 62
    7
 10
1285.9027043439723
 20
1574.3437684819069
 11
1143.5128721611648
 21
1574.3437684819069
  0
LINE
  8
_0-2_躯体
  6
CONTINUOUS
 62
    7
 10
1184.156022115136
 20
1607.8065934526308
 11
1184.156022115136
 21
1559.8205552613222
  0
ARC
  8
_0-0_0
  6
CONTINUOUS
 62
    7
 10
667.43867182762403
 20
1525.3178701052955
 40
49.026401214043119
 50
89.740500339683905
 51
180.55599747348973
  0
ARC
  8
_0-0_0
  6
CONTINUOUS
 62
    7
 10
1143.7534004007737
 20
1525.3178701052955
 40
49.026401214043119
 50
359.4440025265103
 51
90.259499660316095
  0
ARC
  8
_0-0_0
  6
CONTINUOUS
 62
    7
 10
667.43867182762403
 20
1216.9011635375741
 40
49.026401214043119
 50
179.44400252651027
 51
270.25949966031607
  0
ARC
  8
_0-0_0
  6
CONTINUOUS
 62
    7
 10
1143.7534004007737
 20
1216.9011635375741
 40
49.026401214043119
 50
269.74050033968393
 51
0.5559974734896968
  0
ARC
  8
_0-0_0
  6
CONTINUOUS
 62
    7
 10
1143.7534004007737
 20
1216.9011635375741
 40
44.979640685043123
 50
269.74050033968393
 51
0.5559974734896968
  0
ARC
  8
_0-0_0
  6
CONTINUOUS
 62
    7
 10
1143.7534004007737
 20
1525.3178701052955
 40
44.979640685043123
 50
359.4440025265103
 51
90.259499660316095
  0
ARC
  8
_0-0_0
  6
CONTINUOUS
 62
    7
 10
667.43867182762403
 20
1525.3178701052955
 40
44.979640685043123
 50
89.740500339683905
 51
180.55599747348973
  0
ARC
  8
_0-0_0
  6
CONTINUOUS
 62
    7
 10
667.43867182762403
 20
1216.9011635375741
 40
44.979640685043123
 50
179.44400252651027
 51
270.25949966031607
  0
CIRCLE
  8
_0-0_0
  6
CONTINUOUS
 62
    7
 10
905.5960361141988
 20
1371.1095168214347
 40
22.309279145302519
  0
CIRCLE
  8
_0-0_0
  6
CONTINUOUS
 62
    7
 10
905.5960361141988
 20
1371.1095168214347
 40
31.473696887306417
  0
ARC
  8
_0-0_0
  6
CONTINUOUS
 62
    7
 10
905.5960361141988
 20
1371.1095168214347
 40
33.768057012356998
 50
235.26824094238299
 51
304.72004307776552
  0
ARC
  8
_0-0_0
  6
CONTINUOUS
 62
    7
 10
905.5960361141988
 20
1371.1095168214347
 40
41.552351784561985
 50
55.288859980080332
 51
124.71658936578542
  0
ARC
  8
_0-0_0
  6
CONTINUOUS
 62
    7
 10
905.5960361141988
 20
1371.1095168214347
 40
41.569134074855818
 50
235.30631876085954
 51
23.993541422842394
  0
ARC
  8
_0-0_0
  6
CONTINUOUS
 62
    7
 10
905.5960361141988
 20
1371.1095168214347
 40
41.581583612614367
 50
156.00928589836019
 51
203.9580204976298
  0
LINE
  8
_0-0_0
  6
CONTINUOUS
 62
    7
 10
926.5605713068145
 20
665.80472464012564
 11
927.22789820011599
 21
665.8887735767637
  0
LINE
  8
_0-0_0
  6
CONTINUOUS
 62
    7
 10
927.22789820011599
 20
665.8887735767637
 11
927.73049386162938
 21
666.14427726978579
  0
LINE
  8
_0-0_0
  6
CONTINUOUS
 62
    7
 10
927.73049386162938
 20
666.14427726978579
 11
927.90362705956693
 21
666.22831644804296
  0
LINE
  8
_0-0_0
  6
CONTINUOUS
 62
    7
 10
927.90362705956693
 20
666.22831644804296
 11
928.323861984377
 21
666.64855137285303
  0
LINE
  8
_0-0_0
  6
CONTINUOUS
 62
    7
 10
928.323861984377
 20
666.64855137285303
 11
928.73905182614499
 21
667.06541965617475
  0
LINE
  8
_0-0_0
  6
CONTINUOUS
 62
    7
 10
928.73905182614499
 20
667.06541965617475
 11
928.99118887767838
 21
667.4856545809846
  0
LINE
  8
_0-0_0
  6
CONTINUOUS
 62
    7
 10
928.99118887767838
 20
667.4856545809846
 11
929.24501412914674
 21
667.99665220864767
  0
LINE
  8
_0-0_0
  6
CONTINUOUS
 62
    7
 10
929.24501412914674
 20
667.99665220864767
 11
929.49715118068048
 21
668.58161836524573
  0
LINE
  8
_0-0_0
  6
CONTINUOUS
 62
    7
 10
929.49715118068048
 20
668.58161836524573
 11
929.57951191738391
 21
669.08253558520551
  0
LINE
  8
_0-0_0
  6
CONTINUOUS
 62
    7
 10
929.57951191738391
 20
669.08253558520551
 11
929.74760979066048
 21
669.75826444465656
  0
LINE
  8
_0-0_0
  6
CONTINUOUS
 62
    7
 10
929.74760979066048
 20
669.75826444465656
 11
929.74760979066048
 21
670.34323060125462
  0
LINE
  8
_0-0_0
  6
CONTINUOUS
 62
    7
 10
870.46128737985077
 20
702.92969520512133
 11
870.37892664314745
 21
703.01374414175939
  0
LINE
  8
_0-0_0
  6
CONTINUOUS
 62
    7
 10
870.37892664314745
 20
703.01374414175939
 11
870.12342295012513
 21
703.1784753735476
  0
LINE
  8
_0-0_0
  6
CONTINUOUS
 62
    7
 10
870.12342295012513
 20
703.1784753735476
 11
869.87296434014524
 21
703.34656348844305
  0
LINE
  8
_0-0_0
  6
CONTINUOUS
 62
    7
 10
869.87296434014524
 20
703.34656348844305
 11
869.62082728861174
 21
703.51466136171939
  0
LINE
  8
_0-0_0
  6
CONTINUOUS
 62
    7
 10
869.62082728861174
 20
703.51466136171939
 11
869.28631974199345
 21
703.59871029835745
  0
LINE
  8
_0-0_0
  6
CONTINUOUS
 62
    7
 10
869.28631974199345
 20
703.59871029835745
 11
869.118221868717
 21
703.67939259350737
  0
LINE
  8
_0-0_0
  6
CONTINUOUS
 62
    7
 10
869.118221868717
 20
703.67939259350737
 11
868.86272793407613
 21
703.76679841325313
  0
LINE
  8
_0-0_0
  6
CONTINUOUS
 62
    7
 10
868.86272793407613
 20
703.76679841325313
 11
868.5298988290117
 21
703.85084734989141
  0
LINE
  8
_0-0_0
  6
CONTINUOUS
 62
    7
 10
868.5298988290117
 20
703.85084734989141
 11
868.27776177747808
 21
703.93152964504111
  0
LINE
  8
_0-0_0
  6
CONTINUOUS
 62
    7
 10
868.27776177747808
 20
703.93152964504111
 11
867.94157578930617
 21
704.01557858167939
  0
LINE
  8
_0-0_0
  6
CONTINUOUS
 62
    7
 10
867.94157578930617
 20
704.01557858167939
 11
867.60371135958076
 21
704.01557858167939
  0
LINE
  8
_0-0_0
  6
CONTINUOUS
 62
    7
 10
857.02394777744303
 20
759.52652971055636
 11
857.02394777744303
 21
759.1869868392771
  0
LINE
  8
_0-0_0
  6
CONTINUOUS
 62
    7
 10
857.02394777744303
 20
759.1869868392771
 11
857.10799671408142
 21
759.02897913208494
  0
LINE
  8
_0-0_0
  6
CONTINUOUS
 62
    7
 10
857.10799671408142
 20
759.02897913208494
 11
857.10799671408142
 21
758.85752437570113
  0
LINE
  8
_0-0_0
  6
CONTINUOUS
 62
    7
 10
857.10799671408142
 20
758.85752437570113
 11
857.19036720916597
 21
758.77011855595583
  0
LINE
  8
_0-0_0
  6
CONTINUOUS
 62
    7
 10
857.19036720916597
 20
758.77011855595583
 11
857.19036720916597
 21
758.43393256778404
  0
LINE
  8
_0-0_0
  6
CONTINUOUS
 62
    7
 10
857.19036720916597
 20
758.43393256778404
 11
857.19036720916597
 21
758.35660715574136
  0
LINE
  8
_0-0_0
  6
CONTINUOUS
 62
    7
 10
857.19036720916597
 20
758.35660715574136
 11
857.27609458735787
 21
758.18515239935755
  0
LINE
  8
_0-0_0
  6
CONTINUOUS
 62
    7
 10
857.27609458735787
 20
758.18515239935755
 11
857.27609458735787
 21
757.50942353990672
  0
LINE
  8
_0-0_0
  6
CONTINUOUS
 62
    7
 10
857.27609458735787
 20
757.50942353990672
 11
857.35845532406131
 21
757.42537460326844
  0
LINE
  8
_0-0_0
  6
CONTINUOUS
 62
    7
 10
857.35845532406131
 20
757.42537460326844
 11
857.35845532406131
 21
757.1732375517347
  0
LINE
  8
_0-0_0
  6
CONTINUOUS
 62
    7
 10
857.35845532406131
 20
757.1732375517347
 11
857.35845532406131
 21
756.92445738330866
  0
LINE
  8
_0-0_0
  6
CONTINUOUS
 62
    7
 10
857.35845532406131
 20
756.92445738330866
 11
857.44754934374157
 21
756.75635951003187
  0
LINE
  8
_0-0_0
  6
CONTINUOUS
 62
    7
 10
857.44754934374157
 20
756.75635951003187
 11
857.44754934374157
 21
755.91926606028142
  0
LINE
  8
_0-0_0
  6
CONTINUOUS
 62
    7
 10
857.44754934374157
 20
755.91926606028142
 11
857.52991008044501
 21
755.74444466240925
  0
LINE
  8
_0-0_0
  6
CONTINUOUS
 62
    7
 10
857.52991008044501
 20
755.74444466240925
 11
857.52991008044501
 21
755.41498219883329
  0
LINE
  8
_0-0_0
  6
CONTINUOUS
 62
    7
 10
857.52991008044501
 20
755.41498219883329
 11
858.28464279349214
 21
750.70838812280863
  0
LINE
  8
_0-0_0
  6
CONTINUOUS
 62
    7
 10
858.28464279349214
 20
750.70838812280863
 11
859.12511264311217
 21
745.8370530566151
  0
LINE
  8
_0-0_0
  6
CONTINUOUS
 62
    7
 10
859.12511264311217
 20
745.8370530566151
 11
859.96052765130912
 21
740.96909439029127
  0
LINE
  8
_0-0_0
  6
CONTINUOUS
 62
    7
 10
859.96052765130912
 20
740.96909439029127
 11
860.96908561582472
 21
736.09440244099028
  0
LINE
  8
_0-0_0
  6
CONTINUOUS
 62
    7
 10
860.96908561582472
 20
736.09440244099028
 11
861.81291234855212
 21
731.73070811935236
  0
LINE
  8
_0-0_0
  6
CONTINUOUS
 62
    7
 10
861.81291234855212
 20
731.73070811935236
 11
862.90384080815215
 21
726.8627494530283
  0
LINE
  8
_0-0_0
  6
CONTINUOUS
 62
    7
 10
862.90384080815215
 20
726.8627494530283
 11
863.49047564792272
 21
724.42204171608
  0
LINE
  8
_0-0_0
  6
CONTINUOUS
 62
    7
 10
863.49047564792272
 20
724.42204171608
 11
864.74949222241821
 21
719.64147911112059
  0
LINE
  8
_0-0_0
  6
CONTINUOUS
 62
    7
 10
864.74949222241821
 20
719.64147911112059
 11
864.83186271750264
 21
719.21788730320304
  0
LINE
  8
_0-0_0
  6
CONTINUOUS
 62
    7
 10
864.83186271750264
 20
719.21788730320304
 11
866.2606458484471
 21
714.42724429054033
  0
LINE
  8
_0-0_0
  6
CONTINUOUS
 62
    7
 10
866.2606458484471
 20
714.42724429054033
 11
866.34301634353164
 21
714.42724429054033
  0
LINE
  8
_0-0_0
  6
CONTINUOUS
 62
    7
 10
866.34301634353164
 20
714.42724429054033
 11
867.60371135958076
 21
710.8199708818845
  0
LINE
  8
_0-0_0
  6
CONTINUOUS
 62
    7
 10
867.60371135958076
 20
710.8199708818845
 11
868.78035743899159
 21
708.38262978642456
  0
LINE
  8
_0-0_0
  6
CONTINUOUS
 62
    7
 10
868.78035743899159
 20
708.38262978642456
 11
869.37036867863185
 21
707.37742870501643
  0
LINE
  8
_0-0_0
  6
CONTINUOUS
 62
    7
 10
787.83024351922052
 20
712.1647148345719
 11
785.64335127535946
 21
712.58158311789316
  0
LINE
  8
_0-0_0
  6
CONTINUOUS
 62
    7
 10
785.64335127535946
 20
712.58158311789316
 11
785.56099053865614
 21
712.58158311789316
  0
LINE
  8
_0-0_0
  6
CONTINUOUS
 62
    7
 10
785.56099053865614
 20
712.58158311789316
 11
774.56268023164307
 21
714.85083609845788
  0
LINE
  8
_0-0_0
  6
CONTINUOUS
 62
    7
 10
774.56268023164307
 20
714.85083609845788
 11
774.05671792864098
 21
714.93488503509616
  0
LINE
  8
_0-0_0
  6
CONTINUOUS
 62
    7
 10
774.05671792864098
 20
714.93488503509616
 11
763.47359746339612
 21
717.45290842570557
  0
LINE
  8
_0-0_0
  6
CONTINUOUS
 62
    7
 10
763.47359746339612
 20
717.45290842570557
 11
762.80627057009451
 21
717.62100629898214
  0
LINE
  8
_0-0_0
  6
CONTINUOUS
 62
    7
 10
762.80627057009451
 20
717.62100629898214
 11
752.47193027327569
 21
720.4819392023594
  0
LINE
  8
_0-0_0
  6
CONTINUOUS
 62
    7
 10
752.47193027327569
 20
720.4819392023594
 11
751.30031951852607
 21
720.81812519053119
  0
LINE
  8
_0-0_0
  6
CONTINUOUS
 62
    7
 10
751.30031951852607
 20
720.81812519053119
 11
741.38957102962445
 21
723.92448137922747
  0
LINE
  8
_0-0_0
  6
CONTINUOUS
 62
    7
 10
741.38957102962445
 20
723.92448137922747
 11
739.78932338391519
 21
724.42204171608
  0
LINE
  8
_0-0_0
  6
CONTINUOUS
 62
    7
 10
739.78932338391519
 20
724.42204171608
 11
730.47026457620768
 21
727.78053495630979
  0
LINE
  8
_0-0_0
  6
CONTINUOUS
 62
    7
 10
730.47026457620768
 20
727.78053495630979
 11
728.37414479358063
 21
728.62436168903741
  0
LINE
  8
_0-0_0
  6
CONTINUOUS
 62
    7
 10
728.37414479358063
 20
728.62436168903741
 11
719.47195426919484
 21
732.31567427595041
  0
LINE
  8
_0-0_0
  6
CONTINUOUS
 62
    7
 10
719.47195426919484
 20
732.31567427595041
 11
716.95056423709673
 21
733.32423224046579
  0
LINE
  8
_0-0_0
  6
CONTINUOUS
 62
    7
 10
716.95056423709673
 20
733.32423224046579
 11
708.63669675241624
 21
737.27104852040134
  0
LINE
  8
_0-0_0
  6
CONTINUOUS
 62
    7
 10
708.63669675241624
 20
737.27104852040134
 11
705.78415605680732
 21
738.78724722947231
  0
LINE
  8
_0-0_0
  6
CONTINUOUS
 62
    7
 10
705.78415605680732
 20
738.78724722947231
 11
697.97288423364023
 21
742.89879474119539
  0
LINE
  8
_0-0_0
  6
CONTINUOUS
 62
    7
 10
697.97288423364023
 20
742.89879474119539
 11
692.68132400101774
 21
746.0051509298919
  0
LINE
  8
_0-0_0
  6
CONTINUOUS
 62
    7
 10
692.68132400101774
 20
746.0051509298919
 11
687.39313040988372
 21
749.19891293833325
  0
LINE
  8
_0-0_0
  6
CONTINUOUS
 62
    7
 10
687.39313040988372
 20
749.19891293833325
 11
682.27133673371009
 21
752.63808847371297
  0
LINE
  8
_0-0_0
  6
CONTINUOUS
 62
    7
 10
682.27133673371009
 20
752.63808847371297
 11
677.14787437436394
 21
756.25208540696485
  0
LINE
  8
_0-0_0
  6
CONTINUOUS
 62
    7
 10
677.14787437436394
 20
756.25208540696485
 11
675.30053476016349
 21
757.59346271816389
  0
LINE
  8
_0-0_0
  6
CONTINUOUS
 62
    7
 10
675.30053476016349
 20
757.59346271816389
 11
675.54762672865479
 21
757.67751165480172
  0
LINE
  8
_0-0_0
  6
CONTINUOUS
 62
    7
 10
675.54762672865479
 20
757.67751165480172
 11
675.71572460193124
 21
757.76156059144
  0
LINE
  8
_0-0_0
  6
CONTINUOUS
 62
    7
 10
675.71572460193124
 20
757.76156059144
 11
677.48238192098245
 21
757.76156059144
  0
LINE
  8
_0-0_0
  6
CONTINUOUS
 62
    7
 10
677.48238192098245
 20
757.76156059144
 11
678.06733831919928
 21
757.67751165480172
  0
LINE
  8
_0-0_0
  6
CONTINUOUS
 62
    7
 10
678.06733831919928
 20
757.67751165480172
 11
679.57849194522839
 21
757.67751165480172
  0
LINE
  8
_0-0_0
  6
CONTINUOUS
 62
    7
 10
679.57849194522839
 20
757.67751165480172
 11
680.50468917304033
 21
757.59346271816389
  0
LINE
  8
_0-0_0
  6
CONTINUOUS
 62
    7
 10
680.50468917304033
 20
757.59346271816389
 11
681.68301369400479
 21
757.50942353990672
  0
LINE
  8
_0-0_0
  6
CONTINUOUS
 62
    7
 10
681.68301369400479
 20
757.50942353990672
 11
683.10676150028826
 21
757.42537460326844
  0
LINE
  8
_0-0_0
  6
CONTINUOUS
 62
    7
 10
683.10676150028826
 20
757.42537460326844
 11
684.61959356787088
 21
757.26064337148046
  0
LINE
  8
_0-0_0
  6
CONTINUOUS
 62
    7
 10
684.61959356787088
 20
757.26064337148046
 11
686.21647457209178
 21
757.1732375517347
  0
LINE
  8
_0-0_0
  6
CONTINUOUS
 62
    7
 10
686.21647457209178
 20
757.1732375517347
 11
687.80999869320544
 21
757.09254549820366
  0
LINE
  8
_0-0_0
  6
CONTINUOUS
 62
    7
 10
687.80999869320544
 20
757.09254549820366
 11
689.40687969742623
 21
757.00513967845836
  0
LINE
  8
_0-0_0
  6
CONTINUOUS
 62
    7
 10
689.40687969742623
 20
757.00513967845836
 11
690.83230594526322
 21
756.92445738330866
  0
LINE
  8
_0-0_0
  6
CONTINUOUS
 62
    7
 10
690.83230594526322
 20
756.92445738330866
 11
692.26109883458889
 21
756.75635951003187
  0
LINE
  8
_0-0_0
  6
CONTINUOUS
 62
    7
 10
692.26109883458889
 20
756.75635951003187
 11
693.60415458734133
 21
756.66895369028657
  0
LINE
  8
_0-0_0
  6
CONTINUOUS
 62
    7
 10
693.60415458734133
 20
756.66895369028657
 11
694.95394362307081
 21
756.58490475364829
  0
LINE
  8
_0-0_0
  6
CONTINUOUS
 62
    7
 10
694.95394362307081
 20
756.58490475364829
 11
696.29532093426963
 21
756.50086557539112
  0
LINE
  8
_0-0_0
  6
CONTINUOUS
 62
    7
 10
696.29532093426963
 20
756.50086557539112
 11
697.72074718210661
 21
756.41681663875283
  0
LINE
  8
_0-0_0
  6
CONTINUOUS
 62
    7
 10
697.72074718210661
 20
756.41681663875283
 11
698.98144219815572
 21
756.33276770211455
  0
LINE
  8
_0-0_0
  6
CONTINUOUS
 62
    7
 10
698.98144219815572
 20
756.33276770211455
 11
700.32282926773576
 21
756.25208540696485
  0
LINE
  8
_0-0_0
  6
CONTINUOUS
 62
    7
 10
700.32282926773576
 20
756.25208540696485
 11
701.75161239867998
 21
756.16467958721933
  0
LINE
  8
_0-0_0
  6
CONTINUOUS
 62
    7
 10
701.75161239867998
 20
756.16467958721933
 11
703.17703864651719
 21
755.99994835543134
  0
LINE
  8
_0-0_0
  6
CONTINUOUS
 62
    7
 10
703.17703864651719
 20
755.99994835543134
 11
704.60583153584275
 21
755.91926606028142
  0
LINE
  8
_0-0_0
  6
CONTINUOUS
 62
    7
 10
704.60583153584275
 20
755.91926606028142
 11
705.86652655189187
 21
755.83185048215478
  0
LINE
  8
_0-0_0
  6
CONTINUOUS
 62
    7
 10
705.86652655189187
 20
755.83185048215478
 11
707.20790386309068
 21
755.74444466240925
  0
LINE
  8
_0-0_0
  6
CONTINUOUS
 62
    7
 10
707.20790386309068
 20
755.74444466240925
 11
708.38287150094789
 21
755.66376236725932
  0
LINE
  8
_0-0_0
  6
CONTINUOUS
 62
    7
 10
708.38287150094789
 20
755.66376236725932
 11
710.48571480817054
 21
755.66376236725932
  0
LINE
  8
_0-0_0
  6
CONTINUOUS
 62
    7
 10
867.60371135958076
 20
704.01557858167939
 11
865.00162927395172
 21
704.09961775993622
  0
LINE
  8
_0-0_0
  6
CONTINUOUS
 62
    7
 10
865.00162927395172
 20
704.09961775993622
 11
860.05130011254323
 21
704.35512145295831
  0
LINE
  8
_0-0_0
  6
CONTINUOUS
 62
    7
 10
860.05130011254323
 20
704.35512145295831
 11
855.1799748047307
 21
704.68795055802275
  0
LINE
  8
_0-0_0
  6
CONTINUOUS
 62
    7
 10
855.1799748047307
 20
704.68795055802275
 11
845.09945000099924
 21
705.36032253436645
  0
LINE
  8
_0-0_0
  6
CONTINUOUS
 62
    7
 10
845.09945000099924
 20
705.36032253436645
 11
840.14575419810228
 21
705.69649876415724
  0
LINE
  8
_0-0_0
  6
CONTINUOUS
 62
    7
 10
840.14575419810228
 20
705.69649876415724
 11
835.02397028030987
 21
706.11673368896732
  0
LINE
  8
_0-0_0
  6
CONTINUOUS
 62
    7
 10
835.02397028030987
 20
706.11673368896732
 11
829.8147707843907
 21
706.62101755041567
  0
LINE
  8
_0-0_0
  6
CONTINUOUS
 62
    7
 10
829.8147707843907
 20
706.62101755041567
 11
824.5265771932568
 21
707.12193477037545
  0
LINE
  8
_0-0_0
  6
CONTINUOUS
 62
    7
 10
824.5265771932568
 20
707.12193477037545
 11
819.15264646554965
 21
707.71361469318822
  0
LINE
  8
_0-0_0
  6
CONTINUOUS
 62
    7
 10
819.15264646554965
 20
707.71361469318822
 11
807.89884222389583
 21
709.05499200438703
  0
LINE
  8
_0-0_0
  6
CONTINUOUS
 62
    7
 10
957.71151949675982
 20
755.41498219883329
 11
956.95846522526631
 21
750.70838812280863
  0
LINE
  8
_0-0_0
  6
CONTINUOUS
 62
    7
 10
956.95846522526631
 20
750.70838812280863
 11
956.12136201713474
 21
745.8370530566151
  0
LINE
  8
_0-0_0
  6
CONTINUOUS
 62
    7
 10
956.12136201713474
 20
745.8370530566151
 11
955.19180790621533
 21
740.96909439029127
  0
LINE
  8
_0-0_0
  6
CONTINUOUS
 62
    7
 10
955.19180790621533
 20
740.96909439029127
 11
954.26898707827286
 21
736.09440244099028
  0
LINE
  8
_0-0_0
  6
CONTINUOUS
 62
    7
 10
954.26898707827286
 20
736.09440244099028
 11
953.4335623116948
 21
731.73070811935236
  0
LINE
  8
_0-0_0
  6
CONTINUOUS
 62
    7
 10
953.4335623116948
 20
731.73070811935236
 11
952.25522803234924
 21
726.8627494530283
  0
LINE
  8
_0-0_0
  6
CONTINUOUS
 62
    7
 10
952.25522803234924
 20
726.8627494530283
 11
951.74927548772848
 21
724.42204171608
  0
LINE
  8
_0-0_0
  6
CONTINUOUS
 62
    7
 10
951.74927548772848
 20
724.42204171608
 11
950.49361579634035
 21
719.64147911112059
  0
LINE
  8
_0-0_0
  6
CONTINUOUS
 62
    7
 10
950.49361579634035
 20
719.64147911112059
 11
950.40620997659494
 21
719.21788730320304
  0
LINE
  8
_0-0_0
  6
CONTINUOUS
 62
    7
 10
950.40620997659494
 20
719.21788730320304
 11
948.89505635056582
 21
714.42724429054033
  0
LINE
  8
_0-0_0
  6
CONTINUOUS
 62
    7
 10
948.89505635056582
 20
714.42724429054033
 11
947.55367903936701
 21
710.8199708818845
  0
LINE
  8
_0-0_0
  6
CONTINUOUS
 62
    7
 10
947.55367903936701
 20
710.8199708818845
 11
946.37534476002133
 21
708.38262978642456
  0
LINE
  8
_0-0_0
  6
CONTINUOUS
 62
    7
 10
946.37534476002133
 20
708.38262978642456
 11
945.79037860342328
 21
707.37742870501643
  0
LINE
  8
_0-0_0
  6
CONTINUOUS
 62
    7
 10
923.11467224683906
 20
665.80472464012564
 11
923.53489741326803
 21
665.80472464012564
  0
LINE
  8
_0-0_0
  6
CONTINUOUS
 62
    7
 10
923.53489741326803
 20
665.80472464012564
 11
924.04085971627001
 21
666.06022833314773
  0
LINE
  8
_0-0_0
  6
CONTINUOUS
 62
    7
 10
924.04085971627001
 20
666.06022833314773
 11
924.12322045297344
 21
666.22831644804296
  0
LINE
  8
_0-0_0
  6
CONTINUOUS
 62
    7
 10
924.12322045297344
 20
666.22831644804296
 11
924.54345537778352
 21
666.56450243621498
  0
LINE
  8
_0-0_0
  6
CONTINUOUS
 62
    7
 10
924.54345537778352
 20
666.56450243621498
 11
924.79391398776329
 21
666.98473736102471
  0
LINE
  8
_0-0_0
  6
CONTINUOUS
 62
    7
 10
924.79391398776329
 20
666.98473736102471
 11
925.04605103929691
 21
667.32092334919662
  0
LINE
  8
_0-0_0
  6
CONTINUOUS
 62
    7
 10
925.04605103929691
 20
667.32092334919662
 11
925.21750579568084
 21
667.82519745226386
  0
LINE
  8
_0-0_0
  6
CONTINUOUS
 62
    7
 10
925.21750579568084
 20
667.82519745226386
 11
925.46628596410699
 21
668.33283819681947
  0
LINE
  8
_0-0_0
  6
CONTINUOUS
 62
    7
 10
925.46628596410699
 20
668.33283819681947
 11
925.55201334229901
 21
668.830398533672
  0
LINE
  8
_0-0_0
  6
CONTINUOUS
 62
    7
 10
925.55201334229901
 20
668.830398533672
 11
925.63437407900233
 21
669.33467263673924
  0
LINE
  8
_0-0_0
  6
CONTINUOUS
 62
    7
 10
925.63437407900233
 20
669.33467263673924
 11
925.71674457408699
 21
669.92299567644454
  0
LINE
  8
_0-0_0
  6
CONTINUOUS
 62
    7
 10
1027.3305037628345
 20
712.1647148345719
 11
1029.5997567433992
 21
712.58158311789316
  0
LINE
  8
_0-0_0
  6
CONTINUOUS
 62
    7
 10
1029.5997567433992
 20
712.58158311789316
 11
1040.683794428604
 21
714.85083609845788
  0
LINE
  8
_0-0_0
  6
CONTINUOUS
 62
    7
 10
1041.1863900901176
 20
714.93488503509616
 11
1051.7661536722551
 21
717.45290842570557
  0
LINE
  8
_0-0_0
  6
CONTINUOUS
 62
    7
 10
1051.7661536722551
 20
717.45290842570557
 11
1052.4402040901525
 21
717.62100629898214
  0
LINE
  8
_0-0_0
  6
CONTINUOUS
 62
    7
 10
1052.4402040901525
 20
717.62100629898214
 11
1062.7678208623754
 21
720.4819392023594
  0
LINE
  8
_0-0_0
  6
CONTINUOUS
 62
    7
 10
1062.7678208623754
 20
720.4819392023594
 11
1063.946155141721
 21
720.81812519053119
  0
LINE
  8
_0-0_0
  6
CONTINUOUS
 62
    7
 10
1063.946155141721
 20
720.81812519053119
 11
1073.7711762524305
 21
723.92448137922747
  0
LINE
  8
_0-0_0
  6
CONTINUOUS
 62
    7
 10
1073.7711762524305
 20
723.92448137922747
 11
1075.3647003735441
 21
724.42204171608
  0
LINE
  8
_0-0_0
  6
CONTINUOUS
 62
    7
 10
1075.3647003735441
 20
724.42204171608
 11
1084.7694865594435
 21
727.78053495630979
  0
LINE
  8
_0-0_0
  6
CONTINUOUS
 62
    7
 10
1084.7694865594435
 20
727.78053495630979
 11
1086.8689632251778
 21
728.62436168903741
  0
LINE
  8
_0-0_0
  6
CONTINUOUS
 62
    7
 10
1086.8689632251778
 20
728.62436168903741
 11
1095.7711635079449
 21
732.31567427595041
  0
LINE
  8
_0-0_0
  6
CONTINUOUS
 62
    7
 10
1095.7711635079449
 20
732.31567427595041
 11
1098.2908750984893
 21
733.32423224046579
  0
LINE
  8
_0-0_0
  6
CONTINUOUS
 62
    7
 10
1098.2908750984893
 20
733.32423224046579
 11
1106.6047425831698
 21
737.27104852040134
  0
LINE
  8
_0-0_0
  6
CONTINUOUS
 62
    7
 10
1106.6047425831698
 20
737.27104852040134
 11
1109.4623186034396
 21
738.78724722947231
  0
LINE
  8
_0-0_0
  6
CONTINUOUS
 62
    7
 10
1109.4623186034396
 20
738.78724722947231
 11
1117.2702237851183
 21
742.89879474119539
  0
LINE
  8
_0-0_0
  6
CONTINUOUS
 62
    7
 10
1117.2702237851183
 20
742.89879474119539
 11
1122.5617840177406
 21
746.0051509298919
  0
LINE
  8
_0-0_0
  6
CONTINUOUS
 62
    7
 10
1122.5617840177406
 20
746.0051509298919
 11
1127.7659384306178
 21
749.19891293833325
  0
LINE
  8
_0-0_0
  6
CONTINUOUS
 62
    7
 10
1127.7659384306178
 20
749.19891293833325
 11
1132.9751379265367
 21
752.63808847371297
  0
LINE
  8
_0-0_0
  6
CONTINUOUS
 62
    7
 10
1132.9751379265367
 20
752.63808847371297
 11
1138.096921844329
 21
756.25208540696485
  0
LINE
  8
_0-0_0
  6
CONTINUOUS
 62
    7
 10
1138.096921844329
 20
756.25208540696485
 11
1139.9425830169762
 21
757.59346271816389
  0
LINE
  8
_0-0_0
  6
CONTINUOUS
 62
    7
 10
867.60371135958076
 20
704.01557858167939
 11
866.34301634353164
 21
704.01557858167939
  0
LINE
  8
_0-0_0
  6
CONTINUOUS
 62
    7
 10
1139.8602125218918
 20
757.59346271816389
 11
1139.6921244069963
 21
757.67751165480172
  0
LINE
  8
_0-0_0
  6
CONTINUOUS
 62
    7
 10
1139.6921244069963
 20
757.67751165480172
 11
1139.5257049752736
 21
757.76156059144
  0
LINE
  8
_0-0_0
  6
CONTINUOUS
 62
    7
 10
1139.5257049752736
 20
757.76156059144
 11
1137.7607358561572
 21
757.76156059144
  0
LINE
  8
_0-0_0
  6
CONTINUOUS
 62
    7
 10
1137.7607358561572
 20
757.76156059144
 11
1137.1724128164519
 21
757.67751165480172
  0
LINE
  8
_0-0_0
  6
CONTINUOUS
 62
    7
 10
1137.1724128164519
 20
757.67751165480172
 11
1135.659570990488
 21
757.67751165480172
  0
LINE
  8
_0-0_0
  6
CONTINUOUS
 62
    7
 10
1135.659570990488
 20
757.67751165480172
 11
1134.6510227843537
 21
757.59346271816389
  0
LINE
  8
_0-0_0
  6
CONTINUOUS
 62
    7
 10
1134.6510227843537
 20
757.59346271816389
 11
1133.5600943247537
 21
757.50942353990672
  0
LINE
  8
_0-0_0
  6
CONTINUOUS
 62
    7
 10
1133.5600943247537
 20
757.50942353990672
 11
1132.1313111938091
 21
757.42537460326844
  0
LINE
  8
_0-0_0
  6
CONTINUOUS
 62
    7
 10
1132.1313111938091
 20
757.42537460326844
 11
1130.6201575677803
 21
757.26064337148046
  0
LINE
  8
_0-0_0
  6
CONTINUOUS
 62
    7
 10
1130.6201575677803
 20
757.26064337148046
 11
1129.0266334466667
 21
757.1732375517347
  0
LINE
  8
_0-0_0
  6
CONTINUOUS
 62
    7
 10
1129.0266334466667
 20
757.1732375517347
 11
1127.3507485888499
 21
757.09254549820366
  0
LINE
  8
_0-0_0
  6
CONTINUOUS
 62
    7
 10
1127.3507485888499
 20
757.09254549820366
 11
1125.8362380797134
 21
757.00513967845836
  0
LINE
  8
_0-0_0
  6
CONTINUOUS
 62
    7
 10
1125.8362380797134
 20
757.00513967845836
 11
1124.407445190388
 21
756.92445738330866
  0
LINE
  8
_0-0_0
  6
CONTINUOUS
 62
    7
 10
1124.407445190388
 20
756.92445738330866
 11
1122.9820189425507
 21
756.75635951003187
  0
LINE
  8
_0-0_0
  6
CONTINUOUS
 62
    7
 10
1122.9820189425507
 20
756.75635951003187
 11
1121.6355965483099
 21
756.66895369028657
  0
LINE
  8
_0-0_0
  6
CONTINUOUS
 62
    7
 10
1121.6355965483099
 20
756.66895369028657
 11
1120.2101703004728
 21
756.58490475364829
  0
LINE
  8
_0-0_0
  6
CONTINUOUS
 62
    7
 10
1120.2101703004728
 20
756.58490475364829
 11
1118.867104789339
 21
756.50086557539112
  0
LINE
  8
_0-0_0
  6
CONTINUOUS
 62
    7
 10
1118.867104789339
 20
756.50086557539112
 11
1117.5223608366518
 21
756.41681663875283
  0
LINE
  8
_0-0_0
  6
CONTINUOUS
 62
    7
 10
1117.5223608366518
 20
756.41681663875283
 11
1116.1793050838994
 21
756.33276770211455
  0
LINE
  8
_0-0_0
  6
CONTINUOUS
 62
    7
 10
1116.1793050838994
 20
756.33276770211455
 11
1114.9186100678501
 21
756.25208540696485
  0
LINE
  8
_0-0_0
  6
CONTINUOUS
 62
    7
 10
1114.9186100678501
 20
756.25208540696485
 11
1113.4898171785246
 21
756.16467958721933
  0
LINE
  8
_0-0_0
  6
CONTINUOUS
 62
    7
 10
1113.4898171785246
 20
756.16467958721933
 11
1112.0660693722411
 21
755.99994835543134
  0
LINE
  8
_0-0_0
  6
CONTINUOUS
 62
    7
 10
1112.0660693722411
 20
755.99994835543134
 11
1110.6339195998085
 21
755.91926606028142
  0
LINE
  8
_0-0_0
  6
CONTINUOUS
 62
    7
 10
1110.6339195998085
 20
755.91926606028142
 11
1109.2908638470558
 21
755.83185048215478
  0
LINE
  8
_0-0_0
  6
CONTINUOUS
 62
    7
 10
1109.2908638470558
 20
755.83185048215478
 11
1108.0301688310069
 21
755.74444466240925
  0
LINE
  8
_0-0_0
  6
CONTINUOUS
 62
    7
 10
1108.0301688310069
 20
755.74444466240925
 11
1106.853512993215
 21
755.66376236725932
  0
LINE
  8
_0-0_0
  6
CONTINUOUS
 62
    7
 10
1106.853512993215
 20
755.66376236725932
 11
1104.6733540323307
 21
755.66376236725932
  0
LINE
  8
_0-0_0
  6
CONTINUOUS
 62
    7
 10
947.63603977607033
 20
704.01557858167939
 11
950.23812186169948
 21
704.09961775993622
  0
LINE
  8
_0-0_0
  6
CONTINUOUS
 62
    7
 10
950.23812186169948
 20
704.09961775993622
 11
955.19180790621533
 21
704.35512145295831
  0
LINE
  8
_0-0_0
  6
CONTINUOUS
 62
    7
 10
955.19180790621533
 20
704.35512145295831
 11
960.06649985551633
 21
704.68795055802275
  0
LINE
  8
_0-0_0
  6
CONTINUOUS
 62
    7
 10
960.06649985551633
 20
704.68795055802275
 11
965.10256615349795
 21
705.02413654619454
  0
LINE
  8
_0-0_0
  6
CONTINUOUS
 62
    7
 10
965.10256615349795
 20
705.02413654619454
 11
970.06129728105577
 21
705.36032253436645
  0
LINE
  8
_0-0_0
  6
CONTINUOUS
 62
    7
 10
970.06129728105577
 20
705.36032253436645
 11
975.09399693754881
 21
705.69649876415724
  0
LINE
  8
_0-0_0
  6
CONTINUOUS
 62
    7
 10
975.09399693754881
 20
705.69649876415724
 11
980.22250437993705
 21
706.11673368896732
  0
LINE
  8
_0-0_0
  6
CONTINUOUS
 62
    7
 10
980.22250437993705
 20
706.11673368896732
 11
985.33925297306837
 21
706.62101755041567
  0
LINE
  8
_0-0_0
  6
CONTINUOUS
 62
    7
 10
985.33925297306837
 20
706.62101755041567
 11
990.63249164724448
 21
707.12193477037545
  0
LINE
  8
_0-0_0
  6
CONTINUOUS
 62
    7
 10
996.08878311165518
 20
707.71361469318822
 11
1007.3425971116901
 21
709.05499200438703
  0
LINE
  8
_0-0_0
  6
CONTINUOUS
 62
    7
 10
944.69610301909711
 20
702.92969520512133
 11
944.86419113399234
 21
703.01374414175939
  0
LINE
  8
_0-0_0
  6
CONTINUOUS
 62
    7
 10
944.86419113399234
 20
703.01374414175939
 11
945.11632818552584
 21
703.1784753735476
  0
LINE
  8
_0-0_0
  6
CONTINUOUS
 62
    7
 10
945.11632818552584
 20
703.1784753735476
 11
945.36678679550596
 21
703.34656348844305
  0
LINE
  8
_0-0_0
  6
CONTINUOUS
 62
    7
 10
945.36678679550596
 20
703.34656348844305
 11
945.61892384703947
 21
703.51466136171939
  0
LINE
  8
_0-0_0
  6
CONTINUOUS
 62
    7
 10
945.61892384703947
 20
703.51466136171939
 11
945.87274909850771
 21
703.59871029835745
  0
LINE
  8
_0-0_0
  6
CONTINUOUS
 62
    7
 10
945.87274909850771
 20
703.59871029835745
 11
946.12488615004145
 21
703.67939259350737
  0
LINE
  8
_0-0_0
  6
CONTINUOUS
 62
    7
 10
946.12488615004145
 20
703.67939259350737
 11
946.37534476002133
 21
703.76679841325313
  0
LINE
  8
_0-0_0
  6
CONTINUOUS
 62
    7
 10
946.37534476002133
 20
703.76679841325313
 11
946.71320918974686
 21
703.85084734989141
  0
LINE
  8
_0-0_0
  6
CONTINUOUS
 62
    7
 10
946.71320918974686
 20
703.85084734989141
 11
946.96031091661939
 21
703.93152964504111
  0
LINE
  8
_0-0_0
  6
CONTINUOUS
 62
    7
 10
946.96031091661939
 20
703.93152964504111
 11
947.30154198783339
 21
704.01557858167939
  0
LINE
  8
_0-0_0
  6
CONTINUOUS
 62
    7
 10
947.30154198783339
 20
704.01557858167939
 11
947.63603977607033
 21
704.01557858167939
  0
LINE
  8
_0-0_0
  6
CONTINUOUS
 62
    7
 10
925.71674457408699
 20
669.92299567644454
 11
925.71674457408699
 21
670.00704461308283
  0
LINE
  8
_0-0_0
  6
CONTINUOUS
 62
    7
 10
925.71674457408699
 20
670.00704461308283
 11
925.80247195227889
 21
670.51132847453118
  0
LINE
  8
_0-0_0
  6
CONTINUOUS
 62
    7
 10
925.80247195227889
 20
670.51132847453118
 11
925.9688816256205
 21
671.01223593610962
  0
LINE
  8
_0-0_0
  6
CONTINUOUS
 62
    7
 10
925.9688816256205
 20
671.01223593610962
 11
926.0546090038124
 21
671.51651979755798
  0
LINE
  8
_0-0_0
  6
CONTINUOUS
 62
    7
 10
926.0546090038124
 20
671.51651979755798
 11
926.21934023560038
 21
671.85606266883724
  0
LINE
  8
_0-0_0
  6
CONTINUOUS
 62
    7
 10
926.21934023560038
 20
671.85606266883724
 11
926.38911655043057
 21
672.3603465302856
  0
LINE
  8
_0-0_0
  6
CONTINUOUS
 62
    7
 10
926.38911655043057
 20
672.3603465302856
 11
926.64293204351793
 21
672.77721481360709
  0
LINE
  8
_0-0_0
  6
CONTINUOUS
 62
    7
 10
926.64293204351793
 20
672.77721481360709
 11
926.72530253860248
 21
672.86462063335284
  0
LINE
  8
_0-0_0
  6
CONTINUOUS
 62
    7
 10
926.72530253860248
 20
672.86462063335284
 11
927.06316696832789
 21
673.27813203356698
  0
LINE
  8
_0-0_0
  6
CONTINUOUS
 62
    7
 10
927.06316696832789
 20
673.27813203356698
 11
927.48003525164961
 21
673.62104154633471
  0
LINE
  8
_0-0_0
  6
CONTINUOUS
 62
    7
 10
927.48003525164961
 20
673.62104154633471
 11
927.82126632286349
 21
673.87317859786822
  0
LINE
  8
_0-0_0
  6
CONTINUOUS
 62
    7
 10
927.82126632286349
 20
673.87317859786822
 11
928.323861984377
 21
674.0379098296562
  0
LINE
  8
_0-0_0
  6
CONTINUOUS
 62
    7
 10
929.74760979066048
 20
670.34323060125462
 11
929.49715118068048
 21
670.25582478150909
  0
LINE
  8
_0-0_0
  6
CONTINUOUS
 62
    7
 10
929.49715118068048
 20
670.25582478150909
 11
929.08028289735876
 21
670.17514248635939
  0
LINE
  8
_0-0_0
  6
CONTINUOUS
 62
    7
 10
929.08028289735876
 20
670.17514248635939
 11
928.73905182614499
 21
670.09109354972111
  0
LINE
  8
_0-0_0
  6
CONTINUOUS
 62
    7
 10
928.73905182614499
 20
670.09109354972111
 11
928.323861984377
 21
670.09109354972111
  0
LINE
  8
_0-0_0
  6
CONTINUOUS
 62
    7
 10
928.323861984377
 20
670.09109354972111
 11
927.90362705956693
 21
670.00704461308283
  0
LINE
  8
_0-0_0
  6
CONTINUOUS
 62
    7
 10
927.90362705956693
 20
670.00704461308283
 11
927.31530401986163
 21
670.00704461308283
  0
LINE
  8
_0-0_0
  6
CONTINUOUS
 62
    7
 10
927.31530401986163
 20
670.00704461308283
 11
926.97743959013587
 21
669.92299567644454
  0
LINE
  8
_0-0_0
  6
CONTINUOUS
 62
    7
 10
926.97743959013587
 20
669.92299567644454
 11
925.71674457408699
 21
669.92299567644454
  0
LINE
  8
_0-0_0
  6
CONTINUOUS
 62
    7
 10
925.71674457408699
 20
669.92299567644454
 11
925.46628596410699
 21
669.92299567644454
  0
LINE
  8
_0-0_0
  6
CONTINUOUS
 62
    7
 10
925.46628596410699
 20
669.92299567644454
 11
923.69962864505601
 21
670.00704461308283
  0
LINE
  8
_0-0_0
  6
CONTINUOUS
 62
    7
 10
923.69962864505601
 20
670.00704461308283
 11
919.41999301843737
 21
670.00704461308283
  0
LINE
  8
_0-0_0
  6
CONTINUOUS
 62
    7
 10
919.41999301843737
 20
670.00704461308283
 11
917.56928676274822
 21
670.09109354972111
  0
LINE
  8
_0-0_0
  6
CONTINUOUS
 62
    7
 10
917.56928676274822
 20
670.09109354972111
 11
907.57785597869713
 21
670.09109354972111
  0
LINE
  8
_0-0_0
  6
CONTINUOUS
 62
    7
 10
892.04608479359706
 20
665.80472464012564
 11
891.70821060549065
 21
665.80472464012564
  0
LINE
  8
_0-0_0
  6
CONTINUOUS
 62
    7
 10
891.70821060549065
 20
665.80472464012564
 11
891.20225806086967
 21
666.06022833314773
  0
LINE
  8
_0-0_0
  6
CONTINUOUS
 62
    7
 10
891.20225806086967
 20
666.06022833314773
 11
891.03752682908168
 21
666.22831644804296
  0
LINE
  8
_0-0_0
  6
CONTINUOUS
 62
    7
 10
891.03752682908168
 20
666.22831644804296
 11
890.70301928246352
 21
666.56450243621498
  0
LINE
  8
_0-0_0
  6
CONTINUOUS
 62
    7
 10
890.70301928246352
 20
666.56450243621498
 11
890.44751558944142
 21
666.98473736102471
  0
LINE
  8
_0-0_0
  6
CONTINUOUS
 62
    7
 10
890.44751558944142
 20
666.98473736102471
 11
890.19705697946154
 21
667.32092334919662
  0
LINE
  8
_0-0_0
  6
CONTINUOUS
 62
    7
 10
890.19705697946154
 20
667.32092334919662
 11
890.0289688645662
 21
667.82519745226386
  0
LINE
  8
_0-0_0
  6
CONTINUOUS
 62
    7
 10
890.0289688645662
 20
667.82519745226386
 11
889.77683181303269
 21
668.33283819681947
  0
LINE
  8
_0-0_0
  6
CONTINUOUS
 62
    7
 10
889.77683181303269
 20
668.33283819681947
 11
889.69110443484055
 21
668.830398533672
  0
LINE
  8
_0-0_0
  6
CONTINUOUS
 62
    7
 10
889.69110443484055
 20
668.830398533672
 11
889.52637320305269
 21
669.33467263673924
  0
LINE
  8
_0-0_0
  6
CONTINUOUS
 62
    7
 10
889.52637320305269
 20
669.33467263673924
 11
889.52637320305269
 21
669.92299567644454
  0
LINE
  8
_0-0_0
  6
CONTINUOUS
 62
    7
 10
889.52637320305269
 20
669.92299567644454
 11
889.77683181303269
 21
669.92299567644454
  0
LINE
  8
_0-0_0
  6
CONTINUOUS
 62
    7
 10
889.77683181303269
 20
669.92299567644454
 11
891.54012249059519
 21
670.00704461308283
  0
LINE
  8
_0-0_0
  6
CONTINUOUS
 62
    7
 10
891.54012249059519
 20
670.00704461308283
 11
895.82480320025581
 21
670.00704461308283
  0
LINE
  8
_0-0_0
  6
CONTINUOUS
 62
    7
 10
895.82480320025581
 20
670.00704461308283
 11
897.6704643729031
 21
670.09109354972111
  0
LINE
  8
_0-0_0
  6
CONTINUOUS
 62
    7
 10
897.6704643729031
 20
670.09109354972111
 11
907.57785597869713
 21
670.09109354972111
  0
LINE
  8
_0-0_0
  6
CONTINUOUS
 62
    7
 10
889.52637320305269
 20
669.92299567644454
 11
889.52637320305269
 21
670.00704461308283
  0
LINE
  8
_0-0_0
  6
CONTINUOUS
 62
    7
 10
889.52637320305269
 20
670.00704461308283
 11
889.44232426641429
 21
670.51132847453118
  0
LINE
  8
_0-0_0
  6
CONTINUOUS
 62
    7
 10
889.44232426641429
 20
670.51132847453118
 11
889.27086951003059
 21
671.01223593610962
  0
LINE
  8
_0-0_0
  6
CONTINUOUS
 62
    7
 10
889.27086951003059
 20
671.01223593610962
 11
889.18849901494605
 21
671.51651979755798
  0
LINE
  8
_0-0_0
  6
CONTINUOUS
 62
    7
 10
889.18849901494605
 20
671.51651979755798
 11
889.02041090005071
 21
671.85606266883724
  0
LINE
  8
_0-0_0
  6
CONTINUOUS
 62
    7
 10
889.02041090005071
 20
671.85606266883724
 11
888.85063458522052
 21
672.3603465302856
  0
LINE
  8
_0-0_0
  6
CONTINUOUS
 62
    7
 10
888.85063458522052
 20
672.3603465302856
 11
888.6035426167291
 21
672.77721481360709
  0
LINE
  8
_0-0_0
  6
CONTINUOUS
 62
    7
 10
888.6035426167291
 20
672.77721481360709
 11
888.5178152385372
 21
672.86462063335284
  0
LINE
  8
_0-0_0
  6
CONTINUOUS
 62
    7
 10
888.5178152385372
 20
672.86462063335284
 11
888.18330769191903
 21
673.27813203356698
  0
LINE
  8
_0-0_0
  6
CONTINUOUS
 62
    7
 10
888.18330769191903
 20
673.27813203356698
 11
887.75971588400171
 21
673.62104154633471
  0
LINE
  8
_0-0_0
  6
CONTINUOUS
 62
    7
 10
887.75971588400171
 20
673.62104154633471
 11
887.42520833738354
 21
673.87317859786822
  0
LINE
  8
_0-0_0
  6
CONTINUOUS
 62
    7
 10
887.42520833738354
 20
673.87317859786822
 11
886.91588915127431
 21
674.0379098296562
  0
LINE
  8
_0-0_0
  6
CONTINUOUS
 62
    7
 10
885.40809240835256
 20
670.34323060125462
 11
885.66359610137454
 21
670.25582478150909
  0
LINE
  8
_0-0_0
  6
CONTINUOUS
 62
    7
 10
885.66359610137454
 20
670.25582478150909
 11
886.08383102618461
 21
670.17514248635939
  0
LINE
  8
_0-0_0
  6
CONTINUOUS
 62
    7
 10
886.08383102618461
 20
670.17514248635939
 11
886.49902086795248
 21
670.09109354972111
  0
LINE
  8
_0-0_0
  6
CONTINUOUS
 62
    7
 10
886.49902086795248
 20
670.09109354972111
 11
886.91588915127431
 21
670.09109354972111
  0
LINE
  8
_0-0_0
  6
CONTINUOUS
 62
    7
 10
886.91588915127431
 20
670.09109354972111
 11
887.25712022248808
 21
670.00704461308283
  0
LINE
  8
_0-0_0
  6
CONTINUOUS
 62
    7
 10
887.25712022248808
 20
670.00704461308283
 11
887.92780399889693
 21
670.00704461308283
  0
LINE
  8
_0-0_0
  6
CONTINUOUS
 62
    7
 10
887.92780399889693
 20
670.00704461308283
 11
888.26567818700369
 21
669.92299567644454
  0
LINE
  8
_0-0_0
  6
CONTINUOUS
 62
    7
 10
888.26567818700369
 20
669.92299567644454
 11
889.52637320305269
 21
669.92299567644454
  0
LINE
  8
_0-0_0
  6
CONTINUOUS
 62
    7
 10
868.78035743899159
 20
756.50086557539112
 11
864.66713148571466
 21
756.50086557539112
  0
LINE
  8
_0-0_0
  6
CONTINUOUS
 62
    7
 10
864.66713148571466
 20
756.50086557539112
 11
863.82330475298716
 21
756.41681663875283
  0
LINE
  8
_0-0_0
  6
CONTINUOUS
 62
    7
 10
863.82330475298716
 20
756.41681663875283
 11
863.49047564792272
 21
756.41681663875283
  0
LINE
  8
_0-0_0
  6
CONTINUOUS
 62
    7
 10
863.49047564792272
 20
756.41681663875283
 11
862.65338219817227
 21
756.25208540696485
  0
LINE
  8
_0-0_0
  6
CONTINUOUS
 62
    7
 10
862.65338219817227
 20
756.25208540696485
 11
862.57101170308761
 21
756.16467958721933
  0
LINE
  8
_0-0_0
  6
CONTINUOUS
 62
    7
 10
862.57101170308761
 20
756.16467958721933
 11
861.81291234855212
 21
755.91926606028142
  0
LINE
  8
_0-0_0
  6
CONTINUOUS
 62
    7
 10
861.81291234855212
 20
755.91926606028142
 11
861.64482423365666
 21
755.83185048215478
  0
LINE
  8
_0-0_0
  6
CONTINUOUS
 62
    7
 10
861.64482423365666
 20
755.83185048215478
 11
861.31031668703849
 21
755.49903113547134
  0
LINE
  8
_0-0_0
  6
CONTINUOUS
 62
    7
 10
861.31031668703849
 20
755.49903113547134
 11
861.31031668703849
 21
755.24352744244925
  0
LINE
  8
_0-0_0
  6
CONTINUOUS
 62
    7
 10
886.91588915127431
 20
674.0379098296562
 11
885.66359610137454
 21
674.0379098296562
  0
LINE
  8
_0-0_0
  6
CONTINUOUS
 62
    7
 10
885.66359610137454
 20
674.0379098296562
 11
885.40809240835256
 21
674.12195876629448
  0
LINE
  8
_0-0_0
  6
CONTINUOUS
 62
    7
 10
885.40809240835256
 20
674.12195876629448
 11
885.07527306166912
 21
674.12195876629448
  0
LINE
  8
_0-0_0
  6
CONTINUOUS
 62
    7
 10
885.07527306166912
 20
674.12195876629448
 11
884.90549674683905
 21
674.20600770293277
  0
LINE
  8
_0-0_0
  6
CONTINUOUS
 62
    7
 10
884.90549674683905
 20
674.20600770293277
 11
884.65503813685905
 21
674.29004688118994
  0
LINE
  8
_0-0_0
  6
CONTINUOUS
 62
    7
 10
884.65503813685905
 20
674.29004688118994
 11
884.40290108532554
 21
674.37409581782822
  0
LINE
  8
_0-0_0
  6
CONTINUOUS
 62
    7
 10
884.40290108532554
 20
674.37409581782822
 11
884.06167001411154
 21
674.5388270496162
  0
LINE
  8
_0-0_0
  6
CONTINUOUS
 62
    7
 10
928.323861984377
 20
674.0379098296562
 11
929.57951191738391
 21
674.0379098296562
  0
LINE
  8
_0-0_0
  6
CONTINUOUS
 62
    7
 10
929.57951191738391
 20
674.0379098296562
 11
929.835015610406
 21
674.12195876629448
  0
LINE
  8
_0-0_0
  6
CONTINUOUS
 62
    7
 10
929.835015610406
 20
674.12195876629448
 11
930.16784471547055
 21
674.12195876629448
  0
LINE
  8
_0-0_0
  6
CONTINUOUS
 62
    7
 10
930.16784471547055
 20
674.12195876629448
 11
930.33425438881227
 21
674.20600770293277
  0
LINE
  8
_0-0_0
  6
CONTINUOUS
 62
    7
 10
930.33425438881227
 20
674.20600770293277
 11
930.5880698818994
 21
674.29004688118994
  0
LINE
  8
_0-0_0
  6
CONTINUOUS
 62
    7
 10
930.5880698818994
 20
674.29004688118994
 11
930.84357357492138
 21
674.37409581782822
  0
LINE
  8
_0-0_0
  6
CONTINUOUS
 62
    7
 10
930.84357357492138
 20
674.37409581782822
 11
931.09066554341302
 21
674.5388270496162
  0
LINE
  8
_0-0_0
  6
CONTINUOUS
 62
    7
 10
946.46107213821324
 20
756.50086557539112
 11
950.57261964993643
 21
756.50086557539112
  0
LINE
  8
_0-0_0
  6
CONTINUOUS
 62
    7
 10
950.57261964993643
 20
756.50086557539112
 11
951.41644638266382
 21
756.41681663875283
  0
LINE
  8
_0-0_0
  6
CONTINUOUS
 62
    7
 10
951.41644638266382
 20
756.41681663875283
 11
951.74927548772848
 21
756.41681663875283
  0
LINE
  8
_0-0_0
  6
CONTINUOUS
 62
    7
 10
951.74927548772848
 20
756.41681663875283
 11
952.50737484226397
 21
756.25208540696485
  0
LINE
  8
_0-0_0
  6
CONTINUOUS
 62
    7
 10
952.50737484226397
 20
756.25208540696485
 11
952.67546295715931
 21
756.16467958721933
  0
LINE
  8
_0-0_0
  6
CONTINUOUS
 62
    7
 10
952.67546295715931
 20
756.16467958721933
 11
953.4335623116948
 21
755.91926606028142
  0
LINE
  8
_0-0_0
  6
CONTINUOUS
 62
    7
 10
953.4335623116948
 20
755.91926606028142
 11
953.60165042659014
 21
755.83185048215478
  0
LINE
  8
_0-0_0
  6
CONTINUOUS
 62
    7
 10
953.60165042659014
 20
755.83185048215478
 11
953.93615797320854
 21
755.49903113547134
  0
LINE
  8
_0-0_0
  6
CONTINUOUS
 62
    7
 10
953.93615797320854
 20
755.49903113547134
 11
953.93615797320854
 21
755.24352744244925
  0
LINE
  8
_0-0_0
  6
CONTINUOUS
 62
    7
 10
947.63603977607033
 20
704.01557858167939
 11
948.89505635056582
 21
704.01557858167939
  0
LINE
  8
_0-0_0
  6
CONTINUOUS
 62
    7
 10
1140.4485355615971
 20
757.50942353990672
 11
1140.2804474467016
 21
757.50942353990672
  0
LINE
  8
_0-0_0
  6
CONTINUOUS
 62
    7
 10
1140.2804474467016
 20
757.50942353990672
 11
1140.1980769516172
 21
757.59346271816389
  0
LINE
  8
_0-0_0
  6
CONTINUOUS
 62
    7
 10
1140.1980769516172
 20
757.59346271816389
 11
1139.9425830169762
 21
757.59346271816389
  0
LINE
  8
_0-0_0
  6
CONTINUOUS
 62
    7
 10
907.57785597869713
 20
674.45814475446628
 11
902.54178968071551
 21
674.45814475446628
  0
LINE
  8
_0-0_0
  6
CONTINUOUS
 62
    7
 10
902.54178968071551
 20
674.45814475446628
 11
900.44231301498121
 21
674.37409581782822
  0
LINE
  8
_0-0_0
  6
CONTINUOUS
 62
    7
 10
900.44231301498121
 20
674.37409581782822
 11
897.58810363619955
 21
674.37409581782822
  0
LINE
  8
_0-0_0
  6
CONTINUOUS
 62
    7
 10
897.58810363619955
 20
674.37409581782822
 11
895.56762106568021
 21
674.29004688118994
  0
LINE
  8
_0-0_0
  6
CONTINUOUS
 62
    7
 10
895.56762106568021
 20
674.29004688118994
 11
893.47486792454163
 21
674.29004688118994
  0
LINE
  8
_0-0_0
  6
CONTINUOUS
 62
    7
 10
893.47486792454163
 20
674.29004688118994
 11
893.13363685332763
 21
674.20600770293277
  0
LINE
  8
_0-0_0
  6
CONTINUOUS
 62
    7
 10
893.13363685332763
 20
674.20600770293277
 11
891.03752682908168
 21
674.12195876629448
  0
LINE
  8
_0-0_0
  6
CONTINUOUS
 62
    7
 10
891.03752682908168
 20
674.12195876629448
 11
889.02041090005071
 21
674.12195876629448
  0
LINE
  8
_0-0_0
  6
CONTINUOUS
 62
    7
 10
889.02041090005071
 20
674.12195876629448
 11
886.91588915127431
 21
674.0379098296562
  0
LINE
  8
_0-0_0
  6
CONTINUOUS
 62
    7
 10
907.57785597869713
 20
674.45814475446628
 11
912.70468497953152
 21
674.45814475446628
  0
LINE
  8
_0-0_0
  6
CONTINUOUS
 62
    7
 10
912.70468497953152
 20
674.45814475446628
 11
914.80079500377747
 21
674.37409581782822
  0
LINE
  8
_0-0_0
  6
CONTINUOUS
 62
    7
 10
914.80079500377747
 20
674.37409581782822
 11
917.65838078242859
 21
674.37409581782822
  0
LINE
  8
_0-0_0
  6
CONTINUOUS
 62
    7
 10
917.65838078242859
 20
674.37409581782822
 11
919.67213006997099
 21
674.29004688118994
  0
LINE
  8
_0-0_0
  6
CONTINUOUS
 62
    7
 10
919.67213006997099
 20
674.29004688118994
 11
921.7716067357054
 21
674.29004688118994
  0
LINE
  8
_0-0_0
  6
CONTINUOUS
 62
    7
 10
921.7716067357054
 20
674.29004688118994
 11
922.10611428232369
 21
674.20600770293277
  0
LINE
  8
_0-0_0
  6
CONTINUOUS
 62
    7
 10
922.10611428232369
 20
674.20600770293277
 11
924.20894783116523
 21
674.12195876629448
  0
LINE
  8
_0-0_0
  6
CONTINUOUS
 62
    7
 10
924.20894783116523
 20
674.12195876629448
 11
926.21934023560038
 21
674.12195876629448
  0
LINE
  8
_0-0_0
  6
CONTINUOUS
 62
    7
 10
926.21934023560038
 20
674.12195876629448
 11
928.323861984377
 21
674.0379098296562
  0
LINE
  8
_0-0_0
  6
CONTINUOUS
 62
    7
 10
933.3599185239774
 20
673.19744973841716
 11
933.6103771339574
 21
673.5302690851006
  0
LINE
  8
_0-0_0
  6
CONTINUOUS
 62
    7
 10
933.6103771339574
 20
673.5302690851006
 11
933.94825132206392
 21
674.0379098296562
  0
LINE
  8
_0-0_0
  6
CONTINUOUS
 62
    7
 10
933.94825132206392
 20
674.0379098296562
 11
934.28611575178934
 21
674.5388270496162
  0
LINE
  8
_0-0_0
  6
CONTINUOUS
 62
    7
 10
934.28611575178934
 20
674.5388270496162
 11
934.53657436176945
 21
675.04982467727928
  0
LINE
  8
_0-0_0
  6
CONTINUOUS
 62
    7
 10
934.53657436176945
 20
675.04982467727928
 11
934.7063409182183
 21
675.38601066545107
  0
LINE
  8
_0-0_0
  6
CONTINUOUS
 62
    7
 10
934.7063409182183
 20
675.38601066545107
 11
934.95344264509095
 21
675.8835710023036
  0
LINE
  8
_0-0_0
  6
CONTINUOUS
 62
    7
 10
934.95344264509095
 20
675.8835710023036
 11
935.20894633811304
 21
676.3878451053705
  0
LINE
  8
_0-0_0
  6
CONTINUOUS
 62
    7
 10
935.20894633811304
 20
676.3878451053705
 11
935.37367756990102
 21
676.97616814507592
  0
LINE
  8
_0-0_0
  6
CONTINUOUS
 62
    7
 10
935.37367756990102
 20
676.97616814507592
 11
935.45603830660434
 21
677.1408993768639
  0
LINE
  8
_0-0_0
  6
CONTINUOUS
 62
    7
 10
935.45603830660434
 20
677.1408993768639
 11
935.62749306298826
 21
677.73258905805778
  0
LINE
  8
_0-0_0
  6
CONTINUOUS
 62
    7
 10
935.62749306298826
 20
677.73258905805778
 11
935.79726937781857
 21
678.32427873925189
  0
LINE
  8
_0-0_0
  6
CONTINUOUS
 62
    7
 10
929.74760979066048
 20
670.34323060125462
 11
929.835015610406
 21
670.34323060125462
  0
LINE
  8
_0-0_0
  6
CONTINUOUS
 62
    7
 10
929.835015610406
 20
670.34323060125462
 11
930.25020545217387
 21
670.59536765278835
  0
LINE
  8
_0-0_0
  6
CONTINUOUS
 62
    7
 10
930.25020545217387
 20
670.59536765278835
 11
930.5880698818994
 21
670.76009888457634
  0
LINE
  8
_0-0_0
  6
CONTINUOUS
 62
    7
 10
930.5880698818994
 20
670.76009888457634
 11
931.00830480670936
 21
671.01223593610962
  0
LINE
  8
_0-0_0
  6
CONTINUOUS
 62
    7
 10
931.00830480670936
 20
671.01223593610962
 11
931.42853973151944
 21
671.35178856576999
  0
LINE
  8
_0-0_0
  6
CONTINUOUS
 62
    7
 10
931.42853973151944
 20
671.35178856576999
 11
931.76640416124519
 21
671.60729225879209
  0
LINE
  8
_0-0_0
  6
CONTINUOUS
 62
    7
 10
931.76640416124519
 20
671.60729225879209
 11
932.0992235079284
 21
671.85606266883724
  0
LINE
  8
_0-0_0
  6
CONTINUOUS
 62
    7
 10
932.0992235079284
 20
671.85606266883724
 11
932.35137031784325
 21
672.18889177390201
  0
LINE
  8
_0-0_0
  6
CONTINUOUS
 62
    7
 10
932.35137031784325
 20
672.18889177390201
 11
932.77159548427198
 21
672.52507776207381
  0
LINE
  8
_0-0_0
  6
CONTINUOUS
 62
    7
 10
932.77159548427198
 20
672.52507776207381
 11
933.02542073574045
 21
672.86462063335284
  0
LINE
  8
_0-0_0
  6
CONTINUOUS
 62
    7
 10
933.02542073574045
 20
672.86462063335284
 11
933.3599185239774
 21
673.19744973841716
  0
LINE
  8
_0-0_0
  6
CONTINUOUS
 62
    7
 10
881.88318949478105
 20
673.19744973841716
 11
881.62768580175907
 21
673.5302690851006
  0
LINE
  8
_0-0_0
  6
CONTINUOUS
 62
    7
 10
881.62768580175907
 20
673.5302690851006
 11
881.29486645507563
 21
674.0379098296562
  0
LINE
  8
_0-0_0
  6
CONTINUOUS
 62
    7
 10
881.29486645507563
 20
674.0379098296562
 11
880.95700202535011
 21
674.5388270496162
  0
LINE
  8
_0-0_0
  6
CONTINUOUS
 62
    7
 10
880.95700202535011
 20
674.5388270496162
 11
880.70654341537022
 21
675.04982467727928
  0
LINE
  8
_0-0_0
  6
CONTINUOUS
 62
    7
 10
880.70654341537022
 20
675.04982467727928
 11
880.45776324694407
 21
675.38601066545107
  0
LINE
  8
_0-0_0
  6
CONTINUOUS
 62
    7
 10
880.45776324694407
 20
675.38601066545107
 11
880.20394775385671
 21
675.8835710023036
  0
LINE
  8
_0-0_0
  6
CONTINUOUS
 62
    7
 10
880.20394775385671
 20
675.8835710023036
 11
880.03417143902652
 21
676.3878451053705
  0
LINE
  8
_0-0_0
  6
CONTINUOUS
 62
    7
 10
880.03417143902652
 20
676.3878451053705
 11
879.86607356575007
 21
676.97616814507592
  0
LINE
  8
_0-0_0
  6
CONTINUOUS
 62
    7
 10
879.86607356575007
 20
676.97616814507592
 11
879.70135209234331
 21
677.1408993768639
  0
LINE
  8
_0-0_0
  6
CONTINUOUS
 62
    7
 10
879.70135209234331
 20
677.1408993768639
 11
879.61393651421645
 21
677.73258905805778
  0
LINE
  8
_0-0_0
  6
CONTINUOUS
 62
    7
 10
879.61393651421645
 20
677.73258905805778
 11
879.44920528242847
 21
678.32427873925189
  0
LINE
  8
_0-0_0
  6
CONTINUOUS
 62
    7
 10
885.40809240835256
 20
670.34323060125462
 11
884.9878672419236
 21
670.59536765278835
  0
LINE
  8
_0-0_0
  6
CONTINUOUS
 62
    7
 10
884.9878672419236
 20
670.59536765278835
 11
884.57267740015573
 21
670.76009888457634
  0
LINE
  8
_0-0_0
  6
CONTINUOUS
 62
    7
 10
884.57267740015573
 20
670.76009888457634
 11
884.23144632894173
 21
671.01223593610962
  0
LINE
  8
_0-0_0
  6
CONTINUOUS
 62
    7
 10
884.23144632894173
 20
671.01223593610962
 11
883.81457804562024
 21
671.35178856576999
  0
LINE
  8
_0-0_0
  6
CONTINUOUS
 62
    7
 10
883.81457804562024
 20
671.35178856576999
 11
883.47671361589448
 21
671.60729225879209
  0
LINE
  8
_0-0_0
  6
CONTINUOUS
 62
    7
 10
883.47671361589448
 20
671.60729225879209
 11
883.14388451083005
 21
671.85606266883724
  0
LINE
  8
_0-0_0
  6
CONTINUOUS
 62
    7
 10
883.14388451083005
 20
671.85606266883724
 11
882.80602008110463
 21
672.18889177390201
  0
LINE
  8
_0-0_0
  6
CONTINUOUS
 62
    7
 10
882.80602008110463
 20
672.18889177390201
 11
882.46815565137922
 21
672.52507776207381
  0
LINE
  8
_0-0_0
  6
CONTINUOUS
 62
    7
 10
882.46815565137922
 20
672.52507776207381
 11
882.21769704139911
 21
672.86462063335284
  0
LINE
  8
_0-0_0
  6
CONTINUOUS
 62
    7
 10
882.21769704139911
 20
672.86462063335284
 11
881.88318949478105
 21
673.19744973841716
  0
LINE
  8
_0-0_0
  6
CONTINUOUS
 62
    7
 10
749.11511547459963
 20
720.55926461440185
 11
748.94533915976945
 21
720.55926461440185
  0
LINE
  8
_0-0_0
  6
CONTINUOUS
 62
    7
 10
748.94533915976945
 20
720.55926461440185
 11
748.94533915976945
 21
720.64667043414738
  0
LINE
  8
_0-0_0
  6
CONTINUOUS
 62
    7
 10
624.65754229761023
 20
840.90360207973322
 11
626.00564313340499
 21
840.90360207973322
  0
LINE
  8
_0-0_0
  6
CONTINUOUS
 62
    7
 10
626.00564313340499
 20
840.90360207973322
 11
668.15658983029778
 21
840.90360207973322
  0
LINE
  8
_0-0_0
  6
CONTINUOUS
 62
    7
 10
860.05130011254323
 20
755.24352744244925
 11
859.54534756792236
 21
755.24352744244925
  0
LINE
  8
_0-0_0
  6
CONTINUOUS
 62
    7
 10
859.54534756792236
 20
755.24352744244925
 11
859.54534756792236
 21
755.32420973759918
  0
LINE
  8
_0-0_0
  6
CONTINUOUS
 62
    7
 10
859.54534756792236
 20
755.32420973759918
 11
859.46129863128408
 21
755.32420973759918
  0
LINE
  8
_0-0_0
  6
CONTINUOUS
 62
    7
 10
859.46129863128408
 20
755.32420973759918
 11
859.20747337981561
 21
755.32420973759918
  0
LINE
  8
_0-0_0
  6
CONTINUOUS
 62
    7
 10
859.20747337981561
 20
755.32420973759918
 11
859.04274214802763
 21
755.41498219883329
  0
LINE
  8
_0-0_0
  6
CONTINUOUS
 62
    7
 10
859.04274214802763
 20
755.41498219883329
 11
857.52991008044501
 21
755.41498219883329
  0
LINE
  8
_0-0_0
  6
CONTINUOUS
 62
    7
 10
861.39267742374204
 20
754.65520440274395
 11
861.31031668703849
 21
754.74261022248947
  0
LINE
  8
_0-0_0
  6
CONTINUOUS
 62
    7
 10
861.31031668703849
 20
754.74261022248947
 11
861.22123242573934
 21
754.74261022248947
  0
LINE
  8
_0-0_0
  6
CONTINUOUS
 62
    7
 10
861.22123242573934
 20
754.74261022248947
 11
861.05313455246289
 21
754.91070809576604
  0
LINE
  8
_0-0_0
  6
CONTINUOUS
 62
    7
 10
861.05313455246289
 20
754.91070809576604
 11
860.80435438403674
 21
754.91070809576604
  0
LINE
  8
_0-0_0
  6
CONTINUOUS
 62
    7
 10
860.80435438403674
 20
754.91070809576604
 11
860.71862700584461
 21
754.99139039091574
  0
LINE
  8
_0-0_0
  6
CONTINUOUS
 62
    7
 10
860.71862700584461
 20
754.99139039091574
 11
860.55389577405674
 21
754.99139039091574
  0
LINE
  8
_0-0_0
  6
CONTINUOUS
 62
    7
 10
860.55389577405674
 20
754.99139039091574
 11
860.46648995431099
 21
755.07879621066127
  0
LINE
  8
_0-0_0
  6
CONTINUOUS
 62
    7
 10
860.46648995431099
 20
755.07879621066127
 11
860.30175872252312
 21
755.15612162270372
  0
LINE
  8
_0-0_0
  6
CONTINUOUS
 62
    7
 10
860.30175872252312
 20
755.15612162270372
 11
860.13367060762778
 21
755.15612162270372
  0
LINE
  8
_0-0_0
  6
CONTINUOUS
 62
    7
 10
860.13367060762778
 20
755.15612162270372
 11
860.05130011254323
 21
755.24352744244925
  0
LINE
  8
_0-0_0
  6
CONTINUOUS
 62
    7
 10
674.79457245716151
 20
757.50942353990672
 11
674.96267033043796
 21
757.50942353990672
  0
LINE
  8
_0-0_0
  6
CONTINUOUS
 62
    7
 10
674.96267033043796
 20
757.50942353990672
 11
675.04503106714139
 21
757.59346271816389
  0
LINE
  8
_0-0_0
  6
CONTINUOUS
 62
    7
 10
675.04503106714139
 20
757.59346271816389
 11
675.30053476016349
 21
757.59346271816389
  0
LINE
  8
_0-0_0
  6
CONTINUOUS
 62
    7
 10
955.19180790621533
 20
755.24352744244925
 11
955.61204283102541
 21
755.24352744244925
  0
LINE
  8
_0-0_0
  6
CONTINUOUS
 62
    7
 10
955.61204283102541
 20
755.24352744244925
 11
955.6977702092172
 21
755.32420973759918
  0
LINE
  8
_0-0_0
  6
CONTINUOUS
 62
    7
 10
955.6977702092172
 20
755.32420973759918
 11
955.78014070430186
 21
755.32420973759918
  0
LINE
  8
_0-0_0
  6
CONTINUOUS
 62
    7
 10
955.78014070430186
 20
755.32420973759918
 11
955.95327390223929
 21
755.32420973759918
  0
LINE
  8
_0-0_0
  6
CONTINUOUS
 62
    7
 10
955.95327390223929
 20
755.32420973759918
 11
956.20036587073082
 21
755.41498219883329
  0
LINE
  8
_0-0_0
  6
CONTINUOUS
 62
    7
 10
956.20036587073082
 20
755.41498219883329
 11
957.71151949675982
 21
755.41498219883329
  0
LINE
  8
_0-0_0
  6
CONTINUOUS
 62
    7
 10
953.84875215346267
 20
754.65520440274395
 11
953.93615797320854
 21
754.74261022248947
  0
LINE
  8
_0-0_0
  6
CONTINUOUS
 62
    7
 10
953.93615797320854
 20
754.74261022248947
 11
954.01852846829286
 21
754.74261022248947
  0
LINE
  8
_0-0_0
  6
CONTINUOUS
 62
    7
 10
954.01852846829286
 20
754.74261022248947
 11
954.1866165831882
 21
754.91070809576604
  0
LINE
  8
_0-0_0
  6
CONTINUOUS
 62
    7
 10
954.1866165831882
 20
754.91070809576604
 11
954.35134781497618
 21
754.91070809576604
  0
LINE
  8
_0-0_0
  6
CONTINUOUS
 62
    7
 10
954.35134781497618
 20
754.91070809576604
 11
954.52112412980659
 21
754.99139039091574
  0
LINE
  8
_0-0_0
  6
CONTINUOUS
 62
    7
 10
954.52112412980659
 20
754.99139039091574
 11
954.69257888619029
 21
754.99139039091574
  0
LINE
  8
_0-0_0
  6
CONTINUOUS
 62
    7
 10
954.69257888619029
 20
754.99139039091574
 11
954.77493962289373
 21
755.07879621066127
  0
LINE
  8
_0-0_0
  6
CONTINUOUS
 62
    7
 10
954.77493962289373
 20
755.07879621066127
 11
954.94471593772391
 21
755.15612162270372
  0
LINE
  8
_0-0_0
  6
CONTINUOUS
 62
    7
 10
954.94471593772391
 20
755.15612162270372
 11
955.02707667442724
 21
755.15612162270372
  0
LINE
  8
_0-0_0
  6
CONTINUOUS
 62
    7
 10
955.02707667442724
 20
755.15612162270372
 11
955.19180790621533
 21
755.24352744244925
  0
LINE
  8
_0-0_0
  6
CONTINUOUS
 62
    7
 10
619.62316419956335
 20
832.16278590402817
 11
619.62316419956335
 21
833.93112166463288
  0
LINE
  8
_0-0_0
  6
CONTINUOUS
 62
    7
 10
619.62316419956335
 20
833.93112166463288
 11
619.70553469464789
 21
834.85226405102162
  0
LINE
  8
_0-0_0
  6
CONTINUOUS
 62
    7
 10
619.70553469464789
 20
834.85226405102162
 11
619.70553469464789
 21
835.269132334343
  0
LINE
  8
_0-0_0
  6
CONTINUOUS
 62
    7
 10
619.70553469464789
 20
835.269132334343
 11
619.87530125109697
 21
836.19700800370902
  0
LINE
  8
_0-0_0
  6
CONTINUOUS
 62
    7
 10
619.87530125109697
 20
836.19700800370902
 11
619.95767174618152
 21
836.61724292851909
  0
LINE
  8
_0-0_0
  6
CONTINUOUS
 62
    7
 10
619.95767174618152
 20
836.61724292851909
 11
620.2081303561614
 21
837.54175195639618
  0
LINE
  8
_0-0_0
  6
CONTINUOUS
 62
    7
 10
620.2081303561614
 20
837.54175195639618
 11
620.37789691261059
 21
837.88129482767545
  0
LINE
  8
_0-0_0
  6
CONTINUOUS
 62
    7
 10
620.37789691261059
 20
837.88129482767545
 11
620.71072601767492
 21
838.79909008933794
  0
LINE
  8
_0-0_0
  6
CONTINUOUS
 62
    7
 10
620.71072601767492
 20
838.79909008933794
 11
620.96622971069701
 21
839.13526631912873
  0
LINE
  8
_0-0_0
  6
CONTINUOUS
 62
    7
 10
620.96622971069701
 20
839.13526631912873
 11
621.55118610891407
 21
839.89505387359884
  0
LINE
  8
_0-0_0
  6
CONTINUOUS
 62
    7
 10
621.55118610891407
 20
839.89505387359884
 11
621.72096242374425
 21
840.05641846389858
  0
LINE
  8
_0-0_0
  6
CONTINUOUS
 62
    7
 10
621.72096242374425
 20
840.05641846389858
 11
622.55974407342956
 21
840.64474150360388
  0
LINE
  8
_0-0_0
  6
CONTINUOUS
 62
    7
 10
1191.8429038540901
 20
840.90360207973322
 11
1191.257937697492
 21
840.90360207973322
  0
LINE
  8
_0-0_0
  6
CONTINUOUS
 62
    7
 10
1195.6182653776414
 20
832.24682508228511
 11
1195.6182653776414
 21
834.09920977952811
  0
LINE
  8
_0-0_0
  6
CONTINUOUS
 62
    7
 10
1195.6182653776414
 20
834.09920977952811
 11
1195.5359046409378
 21
834.34798994795437
  0
LINE
  8
_0-0_0
  6
CONTINUOUS
 62
    7
 10
1195.5359046409378
 20
834.34798994795437
 11
1195.5359046409378
 21
835.02371880740543
  0
LINE
  8
_0-0_0
  6
CONTINUOUS
 62
    7
 10
1195.5359046409378
 20
835.02371880740543
 11
1195.4535341458534
 21
835.35654791246998
  0
LINE
  8
_0-0_0
  6
CONTINUOUS
 62
    7
 10
667.31948662216621
 20
840.90360207973322
 11
666.81353407754546
 21
840.90360207973322
  0
LINE
  8
_0-0_0
  6
CONTINUOUS
 62
    7
 10
666.81353407754546
 20
840.90360207973322
 11
665.97810931096728
 21
840.90360207973322
  0
LINE
  8
_0-0_0
  6
CONTINUOUS
 62
    7
 10
665.97810931096728
 20
840.90360207973322
 11
663.20626066888951
 21
840.90360207973322
  0
LINE
  8
_0-0_0
  6
CONTINUOUS
 62
    7
 10
1192.6833639453291
 20
840.64474150360388
 11
1192.5102307473915
 21
840.64474150360388
  0
LINE
  8
_0-0_0
  6
CONTINUOUS
 62
    7
 10
1192.5102307473915
 20
840.64474150360388
 11
1192.4278700106881
 21
840.73214732334941
  0
LINE
  8
_0-0_0
  6
CONTINUOUS
 62
    7
 10
1192.4278700106881
 20
840.73214732334941
 11
1192.2597721374116
 21
840.81956290147616
  0
LINE
  8
_0-0_0
  6
CONTINUOUS
 62
    7
 10
1192.2597721374116
 20
840.81956290147616
 11
1192.0110017273666
 21
840.81956290147616
  0
LINE
  8
_0-0_0
  6
CONTINUOUS
 62
    7
 10
1192.0110017273666
 20
840.81956290147616
 11
1191.8429038540901
 21
840.90360207973322
  0
LINE
  8
_0-0_0
  6
CONTINUOUS
 62
    7
 10
1191.8429038540901
 20
840.90360207973322
 11
1191.3403081925765
 21
840.90360207973322
  0
LINE
  8
_0-0_0
  6
CONTINUOUS
 62
    7
 10
1191.3403081925765
 20
840.90360207973322
 11
1190.582208838041
 21
840.90360207973322
  0
LINE
  8
_0-0_0
  6
CONTINUOUS
 62
    7
 10
623.31448654485769
 20
840.90360207973322
 11
623.98853696275501
 21
840.90360207973322
  0
LINE
  8
_0-0_0
  6
CONTINUOUS
 62
    7
 10
619.62316419956335
 20
832.24682508228511
 11
619.62316419956335
 21
834.34798994795437
  0
LINE
  8
_0-0_0
  6
CONTINUOUS
 62
    7
 10
619.62316419956335
 20
834.34798994795437
 11
619.70553469464789
 21
834.77494839736028
  0
LINE
  8
_0-0_0
  6
CONTINUOUS
 62
    7
 10
619.70553469464789
 20
834.77494839736028
 11
619.70553469464789
 21
835.35654791246998
  0
LINE
  8
_0-0_0
  6
CONTINUOUS
 62
    7
 10
622.55974407342956
 20
840.64474150360388
 11
622.64211456851399
 21
840.64474150360388
  0
LINE
  8
_0-0_0
  6
CONTINUOUS
 62
    7
 10
622.64211456851399
 20
840.64474150360388
 11
622.81188112496307
 21
840.73214732334941
  0
LINE
  8
_0-0_0
  6
CONTINUOUS
 62
    7
 10
622.81188112496307
 20
840.73214732334941
 11
622.97997899823952
 21
840.81956290147616
  0
LINE
  8
_0-0_0
  6
CONTINUOUS
 62
    7
 10
622.97997899823952
 20
840.81956290147616
 11
623.23211604977303
 21
840.81956290147616
  0
LINE
  8
_0-0_0
  6
CONTINUOUS
 62
    7
 10
623.23211604977303
 20
840.81956290147616
 11
623.39684728156112
 21
840.90360207973322
  0
LINE
  8
_0-0_0
  6
CONTINUOUS
 62
    7
 10
623.39684728156112
 20
840.90360207973322
 11
623.9028095845631
 21
840.90360207973322
  0
LINE
  8
_0-0_0
  6
CONTINUOUS
 62
    7
 10
623.9028095845631
 20
840.90360207973322
 11
624.65754229761023
 21
840.90360207973322
  0
LINE
  8
_0-0_0
  6
CONTINUOUS
 62
    7
 10
1195.6182653776414
 20
832.16278590402817
 11
1195.6182653776414
 21
833.93112166463288
  0
LINE
  8
_0-0_0
  6
CONTINUOUS
 62
    7
 10
1195.6182653776414
 20
833.93112166463288
 11
1195.5359046409378
 21
834.85226405102162
  0
LINE
  8
_0-0_0
  6
CONTINUOUS
 62
    7
 10
1195.5359046409378
 20
834.85226405102162
 11
1195.5359046409378
 21
835.269132334343
  0
LINE
  8
_0-0_0
  6
CONTINUOUS
 62
    7
 10
1195.5359046409378
 20
835.269132334343
 11
1195.3711734091498
 21
836.19700800370902
  0
LINE
  8
_0-0_0
  6
CONTINUOUS
 62
    7
 10
1195.3711734091498
 20
836.19700800370902
 11
1195.2854460309582
 21
836.61724292851909
  0
LINE
  8
_0-0_0
  6
CONTINUOUS
 62
    7
 10
1195.2854460309582
 20
836.61724292851909
 11
1195.0299423379358
 21
837.54175195639618
  0
LINE
  8
_0-0_0
  6
CONTINUOUS
 62
    7
 10
1195.0299423379358
 20
837.54175195639618
 11
1194.8652111061481
 21
837.88129482767545
  0
LINE
  8
_0-0_0
  6
CONTINUOUS
 62
    7
 10
1194.8652111061481
 20
837.88129482767545
 11
1194.4449761813378
 21
838.79909008933794
  0
LINE
  8
_0-0_0
  6
CONTINUOUS
 62
    7
 10
1194.4449761813378
 20
838.79909008933794
 11
1194.2768880664426
 21
839.13526631912873
  0
LINE
  8
_0-0_0
  6
CONTINUOUS
 62
    7
 10
1194.2768880664426
 20
839.13526631912873
 11
1193.688565026737
 21
839.89505387359884
  0
LINE
  8
_0-0_0
  6
CONTINUOUS
 62
    7
 10
1193.688565026737
 20
839.89505387359884
 11
1193.4364279752035
 21
840.05641846389858
  0
LINE
  8
_0-0_0
  6
CONTINUOUS
 62
    7
 10
1193.4364279752035
 20
840.05641846389858
 11
1192.6833639453291
 21
840.64474150360388
  0
LINE
  8
_0-0_0
  6
CONTINUOUS
 62
    7
 10
1190.582208838041
 20
840.90360207973322
 11
1146.9974339271612
 21
840.90360207973322
  0
LINE
  8
_0-0_0
  6
CONTINUOUS
 62
    7
 10
1147.9236213965921
 20
840.90360207973322
 11
1148.3421778798486
 21
840.90360207973322
  0
LINE
  8
_0-0_0
  6
CONTINUOUS
 62
    7
 10
1148.3421778798486
 20
840.90360207973322
 11
1149.2650084661723
 21
840.90360207973322
  0
LINE
  8
_0-0_0
  6
CONTINUOUS
 62
    7
 10
1149.2650084661723
 20
840.90360207973322
 11
1152.0368571082502
 21
840.90360207973322
  0
LINE
  8
_0-0_0
  6
CONTINUOUS
 62
    7
 10
1192.0110017273666
 20
840.81956290147616
 11
1191.8429038540901
 21
840.90360207973322
  0
LINE
  8
_0-0_0
  6
CONTINUOUS
 62
    7
 10
1192.2597721374116
 20
840.81956290147616
 11
1192.1757329591546
 21
840.81956290147616
  0
LINE
  8
_0-0_0
  6
CONTINUOUS
 62
    7
 10
1192.1757329591546
 20
840.81956290147616
 11
1192.09336246407
 21
840.81956290147616
  0
LINE
  8
_0-0_0
  6
CONTINUOUS
 62
    7
 10
1192.09336246407
 20
840.81956290147616
 11
1192.0110017273666
 21
840.81956290147616
  0
LINE
  8
_0-0_0
  6
CONTINUOUS
 62
    7
 10
1192.3454995156035
 20
840.73214732334941
 11
1192.2597721374116
 21
840.81956290147616
  0
LINE
  8
_0-0_0
  6
CONTINUOUS
 62
    7
 10
1192.5102307473915
 20
840.64474150360388
 11
1192.3454995156035
 21
840.73214732334941
  0
LINE
  8
_0-0_0
  6
CONTINUOUS
 62
    7
 10
622.81188112496307
 20
840.73214732334941
 11
622.72952038825963
 21
840.64474150360388
  0
LINE
  8
_0-0_0
  6
CONTINUOUS
 62
    7
 10
622.89425162004761
 20
840.81956290147616
 11
622.81188112496307
 21
840.73214732334941
  0
LINE
  8
_0-0_0
  6
CONTINUOUS
 62
    7
 10
623.23211604977303
 20
840.81956290147616
 11
623.14806711313497
 21
840.81956290147616
  0
LINE
  8
_0-0_0
  6
CONTINUOUS
 62
    7
 10
623.14806711313497
 20
840.81956290147616
 11
622.97997899823952
 21
840.81956290147616
  0
LINE
  8
_0-0_0
  6
CONTINUOUS
 62
    7
 10
622.97997899823952
 20
840.81956290147616
 11
622.89425162004761
 21
840.81956290147616
  0
LINE
  8
_0-0_0
  6
CONTINUOUS
 62
    7
 10
623.31448654485769
 20
840.90360207973322
 11
623.23211604977303
 21
840.81956290147616
  0
LINE
  8
_0-0_0
  6
CONTINUOUS
 62
    7
 10
873.48359463190855
 20
670.4272795378929
 11
878.35491993972119
 21
665.8887735767637
  0
LINE
  8
_0-0_0
  6
CONTINUOUS
 62
    7
 10
936.71673332265357
 20
665.8887735767637
 11
941.58638018891224
 21
670.4272795378929
  0
LINE
  8
_0-0_0
  6
CONTINUOUS
 62
    7
 10
672.10845119327541
 20
759.1869868392771
 11
671.35203028029332
 21
759.36179847876838
  0
LINE
  8
_0-0_0
  6
CONTINUOUS
 62
    7
 10
672.77914472806526
 20
758.93820667085095
 11
672.10845119327541
 21
759.1869868392771
  0
LINE
  8
_0-0_0
  6
CONTINUOUS
 62
    7
 10
673.45151670440896
 20
758.68942650242479
 11
672.77914472806526
 21
758.93820667085095
  0
LINE
  8
_0-0_0
  6
CONTINUOUS
 62
    7
 10
674.12220048081758
 20
758.43393256778404
 11
673.45151670440896
 21
758.68942650242479
  0
LINE
  8
_0-0_0
  6
CONTINUOUS
 62
    7
 10
675.30053476016349
 20
757.59346271816389
 11
674.71053327890434
 21
758.02042116756957
  0
LINE
  8
_0-0_0
  6
CONTINUOUS
 62
    7
 10
674.71053327890434
 20
758.02042116756957
 11
674.12220048081758
 21
758.43393256778404
  0
LINE
  8
_0-0_0
  6
CONTINUOUS
 62
    7
 10
1140.4485355615971
 20
758.02042116756957
 11
1139.8602125218918
 21
757.59346271816389
  0
LINE
  8
_0-0_0
  6
CONTINUOUS
 62
    7
 10
1141.1175506548334
 20
758.43393256778404
 11
1140.4485355615971
 21
758.02042116756957
  0
LINE
  8
_0-0_0
  6
CONTINUOUS
 62
    7
 10
1141.7092305776462
 20
758.68942650242479
 11
1141.1175506548334
 21
758.43393256778404
  0
LINE
  8
_0-0_0
  6
CONTINUOUS
 62
    7
 10
1142.3765672293287
 20
758.93820667085095
 11
1141.7092305776462
 21
758.68942650242479
  0
LINE
  8
_0-0_0
  6
CONTINUOUS
 62
    7
 10
1143.1380234669716
 20
759.1869868392771
 11
1142.3765672293287
 21
758.93820667085095
  0
LINE
  8
_0-0_0
  6
CONTINUOUS
 62
    7
 10
1143.8053503602732
 20
759.36179847876838
 11
1143.1380234669716
 21
759.1869868392771
  0
LINE
  8
_0-0_0
  6
CONTINUOUS
 62
    7
 10
749.11511547459963
 20
720.55926461440185
 11
750.54389860554409
 21
720.14239633108036
  0
LINE
  8
_0-0_0
  6
CONTINUOUS
 62
    7
 10
749.95053048279658
 20
719.72216140627029
 11
748.94533915976945
 21
720.14239633108036
  0
LINE
  8
_0-0_0
  6
CONTINUOUS
 62
    7
 10
750.54389860554409
 20
720.14239633108036
 11
752.13742272665763
 21
719.64147911112059
  0
LINE
  8
_0-0_0
  6
CONTINUOUS
 62
    7
 10
752.13742272665763
 20
719.13383836656499
 11
749.95053048279658
 21
719.72216140627029
  0
LINE
  8
_0-0_0
  6
CONTINUOUS
 62
    7
 10
752.13742272665763
 20
719.64147911112059
 11
753.82003110907033
 21
719.21788730320304
  0
LINE
  8
_0-0_0
  6
CONTINUOUS
 62
    7
 10
754.40667570722212
 20
718.46146639022118
 11
752.13742272665763
 21
719.13383836656499
  0
LINE
  8
_0-0_0
  6
CONTINUOUS
 62
    7
 10
755.49759440844105
 20
718.71360344175491
 11
753.82003110907033
 21
719.21788730320304
  0
LINE
  8
_0-0_0
  6
CONTINUOUS
 62
    7
 10
773.30198521559396
 20
713.67419001904727
 11
774.22144916042896
 21
713.50945878725884
  0
LINE
  8
_0-0_0
  6
CONTINUOUS
 62
    7
 10
755.49759440844105
 20
718.20932933868767
 11
754.40667570722212
 21
718.46146639022118
  0
LINE
  8
_0-0_0
  6
CONTINUOUS
 62
    7
 10
757.1768459077465
 20
718.20932933868767
 11
755.49759440844105
 21
718.71360344175491
  0
LINE
  8
_0-0_0
  6
CONTINUOUS
 62
    7
 10
755.49759440844105
 20
718.20932933868767
 11
758.85440920711721
 21
717.28482031081035
  0
LINE
  8
_0-0_0
  6
CONTINUOUS
 62
    7
 10
758.85440920711721
 20
717.79246105536595
 11
757.1768459077465
 21
718.20932933868767
  0
LINE
  8
_0-0_0
  6
CONTINUOUS
 62
    7
 10
768.76515769601849
 20
715.35511020152512
 11
770.35868181713204
 21
715.01892421335333
  0
LINE
  8
_0-0_0
  6
CONTINUOUS
 62
    7
 10
769.85608615561864
 20
714.60205593003161
 11
768.76515769601849
 21
714.85083609845788
  0
LINE
  8
_0-0_0
  6
CONTINUOUS
 62
    7
 10
770.35868181713204
 20
715.01892421335333
 11
772.04129019954496
 21
714.60205593003161
  0
LINE
  8
_0-0_0
  6
CONTINUOUS
 62
    7
 10
772.04129019954496
 20
714.09441518547601
 11
769.85608615561864
 21
714.60205593003161
  0
LINE
  8
_0-0_0
  6
CONTINUOUS
 62
    7
 10
772.04129019954496
 20
714.60205593003161
 11
773.6364830038309
 21
714.25914641726399
  0
LINE
  8
_0-0_0
  6
CONTINUOUS
 62
    7
 10
774.22144916042896
 20
713.67419001904727
 11
772.04129019954496
 21
714.09441518547601
  0
LINE
  8
_0-0_0
  6
CONTINUOUS
 62
    7
 10
773.6364830038309
 20
714.25914641726399
 11
775.31237762002911
 21
713.92632707058056
  0
LINE
  8
_0-0_0
  6
CONTINUOUS
 62
    7
 10
775.31237762002911
 20
713.42540985062078
 11
774.22144916042896
 21
713.67419001904727
  0
LINE
  8
_0-0_0
  6
CONTINUOUS
 62
    7
 10
776.99666444399554
 20
713.59686460700459
 11
775.31237762002911
 21
713.92632707058056
  0
LINE
  8
_0-0_0
  6
CONTINUOUS
 62
    7
 10
775.31237762002911
 20
713.42540985062078
 11
778.67590618491988
 21
712.75303787427697
  0
LINE
  8
_0-0_0
  6
CONTINUOUS
 62
    7
 10
778.67590618491988
 20
713.2606786188328
 11
776.99666444399554
 21
713.59686460700459
  0
LINE
  8
_0-0_0
  6
CONTINUOUS
 62
    7
 10
1007.3425971116901
 20
709.05499200438703
 11
1027.3305037628345
 21
712.1647148345719
  0
LINE
  8
_0-0_0
  6
CONTINUOUS
 62
    7
 10
807.89884222389583
 20
709.05499200438703
 11
787.83024351922052
 21
712.1647148345719
  0
LINE
  8
_0-0_0
  6
CONTINUOUS
 62
    7
 10
870.21250721142451
 20
704.01557858167939
 11
867.60371135958076
 21
704.01557858167939
  0
LINE
  8
_0-0_0
  6
CONTINUOUS
 62
    7
 10
945.03396744882252
 20
704.01557858167939
 11
947.63603977607033
 21
704.01557858167939
  0
LINE
  8
_0-0_0
  6
CONTINUOUS
 62
    7
 10
1055.7180150352324
 20
755.49903113547134
 11
1080.2360256813565
 21
755.58308007210962
  0
LINE
  8
_0-0_0
  6
CONTINUOUS
 62
    7
 10
1080.2360256813565
 20
755.58308007210962
 11
1104.6733540323307
 21
755.66376236725932
  0
LINE
  8
_0-0_0
  6
CONTINUOUS
 62
    7
 10
1031.1932808645126
 20
755.49903113547134
 11
1055.7180150352324
 21
755.49903113547134
  0
LINE
  8
_0-0_0
  6
CONTINUOUS
 62
    7
 10
1006.6719035769001
 20
755.41498219883329
 11
1031.1932808645126
 21
755.49903113547134
  0
LINE
  8
_0-0_0
  6
CONTINUOUS
 62
    7
 10
957.71151949675982
 20
755.41498219883329
 11
982.23289678437231
 21
755.41498219883329
  0
LINE
  8
_0-0_0
  6
CONTINUOUS
 62
    7
 10
982.23289678437231
 20
755.41498219883329
 11
1006.6719035769001
 21
755.41498219883329
  0
LINE
  8
_0-0_0
  6
CONTINUOUS
 62
    7
 10
808.56784755875105
 20
755.41498219883329
 11
833.00685435127889
 21
755.41498219883329
  0
LINE
  8
_0-0_0
  6
CONTINUOUS
 62
    7
 10
833.00685435127889
 20
755.41498219883329
 11
857.52991008044501
 21
755.41498219883329
  0
LINE
  8
_0-0_0
  6
CONTINUOUS
 62
    7
 10
783.96410953443501
 20
755.49903113547134
 11
808.56784755875105
 21
755.41498219883329
  0
LINE
  8
_0-0_0
  6
CONTINUOUS
 62
    7
 10
759.52510274190695
 20
755.49903113547134
 11
783.96410953443501
 21
755.49903113547134
  0
LINE
  8
_0-0_0
  6
CONTINUOUS
 62
    7
 10
710.48571480817054
 20
755.66376236725932
 11
735.00709209578315
 21
755.58308007210962
  0
LINE
  8
_0-0_0
  6
CONTINUOUS
 62
    7
 10
735.00709209578315
 20
755.58308007210962
 11
759.52510274190695
 21
755.49903113547134
  0
LINE
  8
_0-0_0
  6
CONTINUOUS
 62
    7
 10
1193.8600197831211
 20
761.03600489503174
 11
1195.6182653776414
 21
832.16278590402817
  0
LINE
  8
_0-0_0
  6
CONTINUOUS
 62
    7
 10
1192.3454995156035
 20
759.52652971055636
 11
1192.3454995156035
 21
761.03600489503174
  0
LINE
  8
_0-0_0
  6
CONTINUOUS
 62
    7
 10
1146.242701214114
 20
759.52652971055636
 11
1146.242701214114
 21
761.03600489503174
  0
LINE
  8
_0-0_0
  6
CONTINUOUS
 62
    7
 10
1140.7830431082152
 20
757.50942353990672
 11
1141.4570935261124
 21
758.02042116756957
  0
LINE
  8
_0-0_0
  6
CONTINUOUS
 62
    7
 10
1141.4570935261124
 20
758.02042116756957
 11
1142.2941967342442
 21
758.43393256778404
  0
LINE
  8
_0-0_0
  6
CONTINUOUS
 62
    7
 10
1142.2941967342442
 20
758.43393256778404
 11
1143.1380234669716
 21
758.85752437570113
  0
LINE
  8
_0-0_0
  6
CONTINUOUS
 62
    7
 10
1143.1380234669716
 20
758.85752437570113
 11
1143.976805116657
 21
759.1869868392771
  0
LINE
  8
_0-0_0
  6
CONTINUOUS
 62
    7
 10
1135.2443909071012
 20
753.39450938669506
 11
1140.7830431082152
 21
757.50942353990672
  0
LINE
  8
_0-0_0
  6
CONTINUOUS
 62
    7
 10
1192.6833639453291
 20
840.64474150360388
 11
1192.5102307473915
 21
840.64474150360388
  0
LINE
  8
_0-0_0
  6
CONTINUOUS
 62
    7
 10
1192.5102307473915
 20
840.64474150360388
 11
1192.3454995156035
 21
840.73214732334941
  0
LINE
  8
_0-0_0
  6
CONTINUOUS
 62
    7
 10
1192.3454995156035
 20
840.73214732334941
 11
1192.2597721374116
 21
840.81956290147616
  0
LINE
  8
_0-0_0
  6
CONTINUOUS
 62
    7
 10
1192.2597721374116
 20
840.81956290147616
 11
1192.0110017273666
 21
840.81956290147616
  0
LINE
  8
_0-0_0
  6
CONTINUOUS
 62
    7
 10
1192.0110017273666
 20
840.81956290147616
 11
1191.8429038540901
 21
840.90360207973322
  0
LINE
  8
_0-0_0
  6
CONTINUOUS
 62
    7
 10
1191.8429038540901
 20
840.90360207973322
 11
1191.3403081925765
 21
840.90360207973322
  0
LINE
  8
_0-0_0
  6
CONTINUOUS
 62
    7
 10
931.09066554341302
 20
674.5388270496162
 11
931.1763929216047
 21
674.5388270496162
  0
LINE
  8
_0-0_0
  6
CONTINUOUS
 62
    7
 10
931.09066554341302
 20
674.5388270496162
 11
931.93449227614042
 21
674.88173656238382
  0
LINE
  8
_0-0_0
  6
CONTINUOUS
 62
    7
 10
931.93449227614042
 20
674.88173656238382
 11
933.02542073574045
 21
675.55074189723905
  0
LINE
  8
_0-0_0
  6
CONTINUOUS
 62
    7
 10
933.02542073574045
 20
675.55074189723905
 11
933.86252394387202
 21
676.22311387358241
  0
LINE
  8
_0-0_0
  6
CONTINUOUS
 62
    7
 10
933.86252394387202
 20
676.22311387358241
 11
934.7063409182183
 21
676.97616814507592
  0
LINE
  8
_0-0_0
  6
CONTINUOUS
 62
    7
 10
934.7063409182183
 20
676.97616814507592
 11
935.37367756990102
 21
677.73258905805778
  0
LINE
  8
_0-0_0
  6
CONTINUOUS
 62
    7
 10
935.37367756990102
 20
677.73258905805778
 11
936.04772798779834
 21
678.56969226618958
  0
LINE
  8
_0-0_0
  6
CONTINUOUS
 62
    7
 10
936.04772798779834
 20
678.56969226618958
 11
936.55032364931185
 21
679.32947006227869
  0
LINE
  8
_0-0_0
  6
CONTINUOUS
 62
    7
 10
936.55032364931185
 20
679.32947006227869
 11
937.05628595231383
 21
680.16657327041048
  0
LINE
  8
_0-0_0
  6
CONTINUOUS
 62
    7
 10
937.05628595231383
 20
680.16657327041048
 11
937.55888161382723
 21
681.09108229828757
  0
LINE
  8
_0-0_0
  6
CONTINUOUS
 62
    7
 10
937.55888161382723
 20
681.09108229828757
 11
938.06484391682943
 21
682.01559132616489
  0
LINE
  8
_0-0_0
  6
CONTINUOUS
 62
    7
 10
938.06484391682943
 20
682.01559132616489
 11
938.56743957834283
 21
682.94010035404222
  0
LINE
  8
_0-0_0
  6
CONTINUOUS
 62
    7
 10
938.56743957834283
 20
682.94010035404222
 11
938.98430786166443
 21
683.94865831855782
  0
LINE
  8
_0-0_0
  6
CONTINUOUS
 62
    7
 10
938.98430786166443
 20
683.94865831855782
 11
939.40789966958187
 21
685.12531415634953
  0
LINE
  8
_0-0_0
  6
CONTINUOUS
 62
    7
 10
939.40789966958187
 20
685.12531415634953
 11
939.91049533109526
 21
686.22127794061066
  0
LINE
  8
_0-0_0
  6
CONTINUOUS
 62
    7
 10
939.91049533109526
 20
686.22127794061066
 11
940.33073025590534
 21
687.47188279057559
  0
LINE
  8
_0-0_0
  6
CONTINUOUS
 62
    7
 10
940.33073025590534
 20
687.47188279057559
 11
940.83669255890743
 21
688.82335026785859
  0
LINE
  8
_0-0_0
  6
CONTINUOUS
 62
    7
 10
940.83669255890743
 20
688.82335026785859
 11
941.25356084222904
 21
690.24877651569568
  0
LINE
  8
_0-0_0
  6
CONTINUOUS
 62
    7
 10
941.25356084222904
 20
690.24877651569568
 11
941.75615650374255
 21
691.75488505868225
  0
LINE
  8
_0-0_0
  6
CONTINUOUS
 62
    7
 10
941.75615650374255
 20
691.75488505868225
 11
942.17974831165986
 21
693.27108376775357
  0
LINE
  8
_0-0_0
  6
CONTINUOUS
 62
    7
 10
942.17974831165986
 20
693.27108376775357
 11
942.68234397317337
 21
694.94529018401681
  0
LINE
  8
_0-0_0
  6
CONTINUOUS
 62
    7
 10
942.68234397317337
 20
694.94529018401681
 11
943.18830627617535
 21
696.71362594462153
  0
LINE
  8
_0-0_0
  6
CONTINUOUS
 62
    7
 10
943.18830627617535
 20
696.71362594462153
 11
943.69090193768898
 21
698.5592871172687
  0
LINE
  8
_0-0_0
  6
CONTINUOUS
 62
    7
 10
943.69090193768898
 20
698.5592871172687
 11
944.19349759920237
 21
700.49235410966162
  0
LINE
  8
_0-0_0
  6
CONTINUOUS
 62
    7
 10
944.19349759920237
 20
700.49235410966162
 11
944.69610301909711
 21
702.59350921694954
  0
LINE
  8
_0-0_0
  6
CONTINUOUS
 62
    7
 10
623.48594130124161
 20
840.90360207973322
 11
623.31448654485769
 21
840.90360207973322
  0
LINE
  8
_0-0_0
  6
CONTINUOUS
 62
    7
 10
623.31448654485769
 20
840.90360207973322
 11
623.23211604977303
 21
840.81956290147616
  0
LINE
  8
_0-0_0
  6
CONTINUOUS
 62
    7
 10
623.23211604977303
 20
840.81956290147616
 11
622.97997899823952
 21
840.81956290147616
  0
LINE
  8
_0-0_0
  6
CONTINUOUS
 62
    7
 10
622.97997899823952
 20
840.81956290147616
 11
622.81188112496307
 21
840.73214732334941
  0
LINE
  8
_0-0_0
  6
CONTINUOUS
 62
    7
 10
622.81188112496307
 20
840.73214732334941
 11
622.72952038825963
 21
840.64474150360388
  0
LINE
  8
_0-0_0
  6
CONTINUOUS
 62
    7
 10
622.72952038825963
 20
840.64474150360388
 11
622.55974407342956
 21
840.64474150360388
  0
LINE
  8
_0-0_0
  6
CONTINUOUS
 62
    7
 10
944.69610301909711
 20
702.59350921694954
 11
945.20205556371775
 21
704.68795055802275
  0
LINE
  8
_0-0_0
  6
CONTINUOUS
 62
    7
 10
945.20205556371775
 20
704.68795055802275
 11
945.7012943421239
 21
706.95720353858746
  0
LINE
  8
_0-0_0
  6
CONTINUOUS
 62
    7
 10
945.7012943421239
 20
706.95720353858746
 11
946.21061352823335
 21
709.31386233889748
  0
LINE
  8
_0-0_0
  6
CONTINUOUS
 62
    7
 10
946.21061352823335
 20
709.31386233889748
 11
946.71320918974686
 21
711.82516220491152
  0
LINE
  8
_0-0_0
  6
CONTINUOUS
 62
    7
 10
946.71320918974686
 20
711.82516220491152
 11
947.30154198783339
 21
714.34656199539063
  0
LINE
  8
_0-0_0
  6
CONTINUOUS
 62
    7
 10
947.30154198783339
 20
714.34656199539063
 11
947.88649838605033
 21
717.12008907902236
  0
LINE
  8
_0-0_0
  6
CONTINUOUS
 62
    7
 10
947.88649838605033
 20
717.12008907902236
 11
948.39246068905243
 21
719.97766509929238
  0
LINE
  8
_0-0_0
  6
CONTINUOUS
 62
    7
 10
948.39246068905243
 20
719.97766509929238
 11
948.97910528720399
 21
722.90919989011627
  0
LINE
  8
_0-0_0
  6
CONTINUOUS
 62
    7
 10
948.97910528720399
 20
722.90919989011627
 11
949.48842447331333
 21
726.01555607881232
  0
LINE
  8
_0-0_0
  6
CONTINUOUS
 62
    7
 10
949.48842447331333
 20
726.01555607881232
 11
950.07339062991139
 21
729.29336702389242
  0
LINE
  8
_0-0_0
  6
CONTINUOUS
 62
    7
 10
950.07339062991139
 20
729.29336702389242
 11
950.65834702812833
 21
732.73926608386773
  0
LINE
  8
_0-0_0
  6
CONTINUOUS
 62
    7
 10
950.65834702812833
 20
732.73926608386773
 11
951.24667006783375
 21
736.26249055588573
  0
LINE
  8
_0-0_0
  6
CONTINUOUS
 62
    7
 10
951.24667006783375
 20
736.26249055588573
 11
951.74927548772848
 21
740.0412187209256
  0
LINE
  8
_0-0_0
  6
CONTINUOUS
 62
    7
 10
951.74927548772848
 20
740.0412187209256
 11
952.42500434717931
 21
743.81994688596524
  0
LINE
  8
_0-0_0
  6
CONTINUOUS
 62
    7
 10
952.42500434717931
 20
743.81994688596524
 11
952.92760000869293
 21
747.85753562713467
  0
LINE
  8
_0-0_0
  6
CONTINUOUS
 62
    7
 10
952.92760000869293
 20
747.85753562713467
 11
953.51592304839846
 21
751.96908313885774
  0
LINE
  8
_0-0_0
  6
CONTINUOUS
 62
    7
 10
953.93615797320854
 20
755.24352744244925
 11
953.93615797320854
 21
755.49903113547134
  0
LINE
  8
_0-0_0
  6
CONTINUOUS
 62
    7
 10
953.93615797320854
 20
755.49903113547134
 11
954.1866165831882
 21
756.16467958721933
  0
LINE
  8
_0-0_0
  6
CONTINUOUS
 62
    7
 10
954.1866165831882
 20
756.16467958721933
 11
954.35134781497618
 21
756.75635951003187
  0
LINE
  8
_0-0_0
  6
CONTINUOUS
 62
    7
 10
954.35134781497618
 20
756.75635951003187
 11
954.69257888619029
 21
757.26064337148046
  0
LINE
  8
_0-0_0
  6
CONTINUOUS
 62
    7
 10
954.69257888619029
 20
757.26064337148046
 11
955.02707667442724
 21
757.76156059144
  0
LINE
  8
_0-0_0
  6
CONTINUOUS
 62
    7
 10
955.02707667442724
 20
757.76156059144
 11
955.44731159923731
 21
758.26583469450725
  0
LINE
  8
_0-0_0
  6
CONTINUOUS
 62
    7
 10
955.44731159923731
 20
758.26583469450725
 11
955.95327390223929
 21
758.68942650242479
  0
LINE
  8
_0-0_0
  6
CONTINUOUS
 62
    7
 10
955.95327390223929
 20
758.68942650242479
 11
956.45586956375269
 21
758.93820667085095
  0
LINE
  8
_0-0_0
  6
CONTINUOUS
 62
    7
 10
956.45586956375269
 20
758.93820667085095
 11
957.04083572035097
 21
759.1869868392771
  0
LINE
  8
_0-0_0
  6
CONTINUOUS
 62
    7
 10
957.04083572035097
 20
759.1869868392771
 11
957.62915876005638
 21
759.44249053229919
  0
LINE
  8
_0-0_0
  6
CONTINUOUS
 62
    7
 10
957.62915876005638
 20
759.44249053229919
 11
958.21748179976169
 21
759.52652971055636
  0
LINE
  8
_0-0_0
  6
CONTINUOUS
 62
    7
 10
958.21748179976169
 20
759.52652971055636
 11
958.30153073639985
 21
759.52652971055636
  0
LINE
  8
_0-0_0
  6
CONTINUOUS
 62
    7
 10
953.51592304839846
 20
751.96908313885774
 11
953.93615797320854
 21
755.24352744244925
  0
LINE
  8
_0-0_0
  6
CONTINUOUS
 62
    7
 10
944.27586809428703
 20
699.48715302825326
 11
944.27586809428703
 21
699.5678450817843
  0
LINE
  8
_0-0_0
  6
CONTINUOUS
 62
    7
 10
944.27586809428703
 20
699.5678450817843
 11
944.35822883099036
 21
699.73593319667975
  0
LINE
  8
_0-0_0
  6
CONTINUOUS
 62
    7
 10
944.35822883099036
 20
699.73593319667975
 11
944.35822883099036
 21
700.06875254336296
  0
LINE
  8
_0-0_0
  6
CONTINUOUS
 62
    7
 10
944.35822883099036
 20
700.06875254336296
 11
944.44732285067073
 21
700.2368504166393
  0
LINE
  8
_0-0_0
  6
CONTINUOUS
 62
    7
 10
944.44732285067073
 20
700.2368504166393
 11
944.44732285067073
 21
700.57639328791856
  0
LINE
  8
_0-0_0
  6
CONTINUOUS
 62
    7
 10
944.44732285067073
 20
700.57639328791856
 11
944.5313717873089
 21
700.74449116119513
  0
LINE
  8
_0-0_0
  6
CONTINUOUS
 62
    7
 10
944.5313717873089
 20
700.74449116119513
 11
944.61709916550092
 21
700.82854009783341
  0
LINE
  8
_0-0_0
  6
CONTINUOUS
 62
    7
 10
944.61709916550092
 20
700.82854009783341
 11
944.61709916550092
 21
700.99327132962117
  0
LINE
  8
_0-0_0
  6
CONTINUOUS
 62
    7
 10
944.61709916550092
 20
700.99327132962117
 11
944.69610301909711
 21
701.07731050787834
  0
LINE
  8
_0-0_0
  6
CONTINUOUS
 62
    7
 10
944.69610301909711
 20
701.07731050787834
 11
944.7818303972889
 21
701.24540838115468
  0
LINE
  8
_0-0_0
  6
CONTINUOUS
 62
    7
 10
944.7818303972889
 20
701.24540838115468
 11
944.86419113399234
 21
701.41349649605013
  0
LINE
  8
_0-0_0
  6
CONTINUOUS
 62
    7
 10
944.86419113399234
 20
701.41349649605013
 11
944.94991851218424
 21
701.49418854958117
  0
LINE
  8
_0-0_0
  6
CONTINUOUS
 62
    7
 10
944.94991851218424
 20
701.49418854958117
 11
944.94991851218424
 21
701.66227666447639
  0
LINE
  8
_0-0_0
  6
CONTINUOUS
 62
    7
 10
944.94991851218424
 20
701.66227666447639
 11
945.11632818552584
 21
701.7530491257105
  0
LINE
  8
_0-0_0
  6
CONTINUOUS
 62
    7
 10
945.11632818552584
 20
701.7530491257105
 11
945.11632818552584
 21
701.91778035749849
  0
LINE
  8
_0-0_0
  6
CONTINUOUS
 62
    7
 10
945.11632818552584
 20
701.91778035749849
 11
945.20205556371775
 21
702.00518617724401
  0
LINE
  8
_0-0_0
  6
CONTINUOUS
 62
    7
 10
945.20205556371775
 20
702.00518617724401
 11
945.36678679550596
 21
702.08586847239394
  0
LINE
  8
_0-0_0
  6
CONTINUOUS
 62
    7
 10
945.36678679550596
 20
702.08586847239394
 11
945.45251417369764
 21
702.25396634567028
  0
LINE
  8
_0-0_0
  6
CONTINUOUS
 62
    7
 10
945.45251417369764
 20
702.25396634567028
 11
945.53656311033592
 21
702.33800552392745
  0
LINE
  8
_0-0_0
  6
CONTINUOUS
 62
    7
 10
945.53656311033592
 20
702.33800552392745
 11
945.61892384703947
 21
702.50273675571543
  0
LINE
  8
_0-0_0
  6
CONTINUOUS
 62
    7
 10
945.61892384703947
 20
702.50273675571543
 11
945.7012943421239
 21
702.59350921694954
  0
LINE
  8
_0-0_0
  6
CONTINUOUS
 62
    7
 10
945.7012943421239
 20
702.59350921694954
 11
945.79037860342328
 21
702.670834628992
  0
LINE
  8
_0-0_0
  6
CONTINUOUS
 62
    7
 10
945.79037860342328
 20
702.670834628992
 11
945.87274909850771
 21
702.76496397333335
  0
LINE
  8
_0-0_0
  6
CONTINUOUS
 62
    7
 10
945.87274909850771
 20
702.76496397333335
 11
946.0425254133379
 21
702.84228938537581
  0
LINE
  8
_0-0_0
  6
CONTINUOUS
 62
    7
 10
946.0425254133379
 20
702.84228938537581
 11
946.12488615004145
 21
702.92969520512133
  0
LINE
  8
_0-0_0
  6
CONTINUOUS
 62
    7
 10
946.12488615004145
 20
702.92969520512133
 11
946.21061352823335
 21
703.01374414175939
  0
LINE
  8
_0-0_0
  6
CONTINUOUS
 62
    7
 10
946.21061352823335
 20
703.01374414175939
 11
946.37534476002133
 21
703.0977930783979
  0
LINE
  8
_0-0_0
  6
CONTINUOUS
 62
    7
 10
946.37534476002133
 20
703.0977930783979
 11
946.46107213821324
 21
703.1784753735476
  0
LINE
  8
_0-0_0
  6
CONTINUOUS
 62
    7
 10
946.46107213821324
 20
703.1784753735476
 11
946.54512107485152
 21
703.2591576686973
  0
LINE
  8
_0-0_0
  6
CONTINUOUS
 62
    7
 10
946.54512107485152
 20
703.2591576686973
 11
946.71320918974686
 21
703.34656348844305
  0
LINE
  8
_0-0_0
  6
CONTINUOUS
 62
    7
 10
946.71320918974686
 20
703.34656348844305
 11
946.79557968483141
 21
703.34656348844305
  0
LINE
  8
_0-0_0
  6
CONTINUOUS
 62
    7
 10
946.79557968483141
 20
703.34656348844305
 11
946.87794042153484
 21
703.43061242508134
  0
LINE
  8
_0-0_0
  6
CONTINUOUS
 62
    7
 10
946.87794042153484
 20
703.43061242508134
 11
946.96031091661939
 21
703.51466136171939
  0
LINE
  8
_0-0_0
  6
CONTINUOUS
 62
    7
 10
946.96031091661939
 20
703.51466136171939
 11
947.13344411455694
 21
703.59871029835745
  0
LINE
  8
_0-0_0
  6
CONTINUOUS
 62
    7
 10
947.13344411455694
 20
703.59871029835745
 11
947.21581460964148
 21
703.59871029835745
  0
LINE
  8
_0-0_0
  6
CONTINUOUS
 62
    7
 10
947.21581460964148
 20
703.59871029835745
 11
947.38390272453682
 21
703.67939259350737
  0
LINE
  8
_0-0_0
  6
CONTINUOUS
 62
    7
 10
947.38390272453682
 20
703.67939259350737
 11
947.46626346124026
 21
703.67939259350737
  0
LINE
  8
_0-0_0
  6
CONTINUOUS
 62
    7
 10
947.46626346124026
 20
703.67939259350737
 11
947.55367903936701
 21
703.76679841325313
  0
LINE
  8
_0-0_0
  6
CONTINUOUS
 62
    7
 10
947.55367903936701
 20
703.76679841325313
 11
947.72176715426235
 21
703.76679841325313
  0
LINE
  8
_0-0_0
  6
CONTINUOUS
 62
    7
 10
947.72176715426235
 20
703.76679841325313
 11
947.80413764934679
 21
703.85084734989141
  0
LINE
  8
_0-0_0
  6
CONTINUOUS
 62
    7
 10
947.80413764934679
 20
703.85084734989141
 11
948.13863543758384
 21
703.85084734989141
  0
LINE
  8
_0-0_0
  6
CONTINUOUS
 62
    7
 10
948.13863543758384
 20
703.85084734989141
 11
948.22100593266839
 21
703.93152964504111
  0
LINE
  8
_0-0_0
  6
CONTINUOUS
 62
    7
 10
948.22100593266839
 20
703.93152964504111
 11
948.31009019396777
 21
703.93152964504111
  0
LINE
  8
_0-0_0
  6
CONTINUOUS
 62
    7
 10
948.31009019396777
 20
703.93152964504111
 11
948.39246068905243
 21
704.01557858167939
  0
LINE
  8
_0-0_0
  6
CONTINUOUS
 62
    7
 10
948.39246068905243
 20
704.01557858167939
 11
948.97910528720399
 21
704.01557858167939
  0
LINE
  8
_0-0_0
  6
CONTINUOUS
 62
    7
 10
944.27586809428703
 20
699.48715302825326
 11
941.67379576703911
 21
670.34323060125462
  0
LINE
  8
_0-0_0
  6
CONTINUOUS
 62
    7
 10
946.46107213821324
 20
756.50086557539112
 11
946.46107213821324
 21
759.52652971055636
  0
LINE
  8
_0-0_0
  6
CONTINUOUS
 62
    7
 10
1195.6182653776414
 20
832.16278590402817
 11
619.62316419956335
 21
832.16278590402817
  0
LINE
  8
_0-0_0
  6
CONTINUOUS
 62
    7
 10
1147.0831613053533
 20
840.90360207973322
 11
624.74663631729061
 21
840.90360207973322
  0
LINE
  8
_0-0_0
  6
CONTINUOUS
 62
    7
 10
623.98853696275501
 20
840.90360207973322
 11
624.15662507765035
 21
840.90360207973322
  0
LINE
  8
_0-0_0
  6
CONTINUOUS
 62
    7
 10
623.9028095845631
 20
840.90360207973322
 11
623.48594130124161
 21
840.90360207973322
  0
LINE
  8
_0-0_0
  6
CONTINUOUS
 62
    7
 10
861.31031668703849
 20
755.24352744244925
 11
861.72718497036021
 21
751.96908313885774
  0
LINE
  8
_0-0_0
  6
CONTINUOUS
 62
    7
 10
861.72718497036021
 20
751.96908313885774
 11
862.31550801006563
 21
747.85753562713467
  0
LINE
  8
_0-0_0
  6
CONTINUOUS
 62
    7
 10
862.31550801006563
 20
747.85753562713467
 11
862.81811342996025
 21
743.91070958881846
  0
LINE
  8
_0-0_0
  6
CONTINUOUS
 62
    7
 10
862.81811342996025
 20
743.91070958881846
 11
863.40643646966555
 21
740.0412187209256
  0
LINE
  8
_0-0_0
  6
CONTINUOUS
 62
    7
 10
863.40643646966555
 20
740.0412187209256
 11
863.9964379509247
 21
736.34990613401214
  0
LINE
  8
_0-0_0
  6
CONTINUOUS
 62
    7
 10
863.9964379509247
 20
736.34990613401214
 11
864.58476099063023
 21
732.73926608386773
  0
LINE
  8
_0-0_0
  6
CONTINUOUS
 62
    7
 10
864.58476099063023
 20
732.73926608386773
 11
865.08399976903638
 21
729.37741596053058
  0
LINE
  8
_0-0_0
  6
CONTINUOUS
 62
    7
 10
865.08399976903638
 20
729.37741596053058
 11
865.67568945023015
 21
726.10632854004643
  0
LINE
  8
_0-0_0
  6
CONTINUOUS
 62
    7
 10
865.67568945023015
 20
726.10632854004643
 11
866.2606458484471
 21
722.99661546824291
  0
LINE
  8
_0-0_0
  6
CONTINUOUS
 62
    7
 10
866.2606458484471
 20
722.99661546824291
 11
866.76660815144919
 21
719.97766509929238
  0
LINE
  8
_0-0_0
  6
CONTINUOUS
 62
    7
 10
866.76660815144919
 20
719.97766509929238
 11
867.35157430804725
 21
717.20413801566053
  0
LINE
  8
_0-0_0
  6
CONTINUOUS
 62
    7
 10
867.35157430804725
 20
717.20413801566053
 11
867.857526852668
 21
714.42724429054033
  0
LINE
  8
_0-0_0
  6
CONTINUOUS
 62
    7
 10
867.857526852668
 20
714.42724429054033
 11
868.44417145081957
 21
711.9159346661454
  0
LINE
  8
_0-0_0
  6
CONTINUOUS
 62
    7
 10
868.44417145081957
 20
711.9159346661454
 11
868.95349063692902
 21
709.39454463404729
  0
LINE
  8
_0-0_0
  6
CONTINUOUS
 62
    7
 10
868.95349063692902
 20
709.39454463404729
 11
869.53845679352708
 21
707.04124271684464
  0
LINE
  8
_0-0_0
  6
CONTINUOUS
 62
    7
 10
621.38645487712608
 20
761.03600489503174
 11
1193.8600197831211
 21
761.03600489503174
  0
LINE
  8
_0-0_0
  6
CONTINUOUS
 62
    7
 10
870.96388304136428
 20
699.48715302825326
 11
873.48359463190855
 21
670.34323060125462
  0
LINE
  8
_0-0_0
  6
CONTINUOUS
 62
    7
 10
869.53845679352708
 20
707.04124271684464
 11
870.0410524550407
 21
704.77198973627992
  0
LINE
  8
_0-0_0
  6
CONTINUOUS
 62
    7
 10
870.0410524550407
 20
704.77198973627992
 11
870.54701475804268
 21
702.59350921694954
  0
LINE
  8
_0-0_0
  6
CONTINUOUS
 62
    7
 10
870.54701475804268
 20
702.59350921694954
 11
871.04961041955619
 21
700.57639328791856
  0
LINE
  8
_0-0_0
  6
CONTINUOUS
 62
    7
 10
871.04961041955619
 20
700.57639328791856
 11
871.54884919796234
 21
698.6399694124184
  0
LINE
  8
_0-0_0
  6
CONTINUOUS
 62
    7
 10
871.54884919796234
 20
698.6399694124184
 11
872.05816838407156
 21
696.79430823977123
  0
LINE
  8
_0-0_0
  6
CONTINUOUS
 62
    7
 10
872.05816838407156
 20
696.79430823977123
 11
872.55740716247772
 21
695.0293391206551
  0
LINE
  8
_0-0_0
  6
CONTINUOUS
 62
    7
 10
872.55740716247772
 20
695.0293391206551
 11
872.98099897039515
 21
693.43581499954155
  0
LINE
  8
_0-0_0
  6
CONTINUOUS
 62
    7
 10
872.98099897039515
 20
693.43581499954155
 11
873.40123389520522
 21
691.75488505868225
  0
LINE
  8
_0-0_0
  6
CONTINUOUS
 62
    7
 10
873.40123389520522
 20
691.75488505868225
 11
873.90382955671885
 21
690.32945881084538
  0
LINE
  8
_0-0_0
  6
CONTINUOUS
 62
    7
 10
873.90382955671885
 20
690.32945881084538
 11
874.4097821013396
 21
688.89730903841246
  0
LINE
  8
_0-0_0
  6
CONTINUOUS
 62
    7
 10
874.4097821013396
 20
688.89730903841246
 11
874.83001702614956
 21
687.64670418844753
  0
LINE
  8
_0-0_0
  6
CONTINUOUS
 62
    7
 10
874.83001702614956
 20
687.64670418844753
 11
875.32925580455583
 21
686.37928564780282
  0
LINE
  8
_0-0_0
  6
CONTINUOUS
 62
    7
 10
875.32925580455583
 20
686.37928564780282
 11
875.75284761247315
 21
685.21271997609506
  0
LINE
  8
_0-0_0
  6
CONTINUOUS
 62
    7
 10
875.75284761247315
 20
685.21271997609506
 11
876.17139433734849
 21
684.11675619183393
  0
LINE
  8
_0-0_0
  6
CONTINUOUS
 62
    7
 10
876.17139433734849
 20
684.11675619183393
 11
876.67735664035035
 21
683.02079240757303
  0
LINE
  8
_0-0_0
  6
CONTINUOUS
 62
    7
 10
876.67735664035035
 20
683.02079240757303
 11
877.17995230186398
 21
682.01559132616489
  0
LINE
  8
_0-0_0
  6
CONTINUOUS
 62
    7
 10
877.17995230186398
 20
682.01559132616489
 11
877.59683034356669
 21
681.09108229828757
  0
LINE
  8
_0-0_0
  6
CONTINUOUS
 62
    7
 10
877.59683034356669
 20
681.09108229828757
 11
878.10278288818745
 21
680.16657327041048
  0
LINE
  8
_0-0_0
  6
CONTINUOUS
 62
    7
 10
878.10278288818745
 20
680.16657327041048
 11
878.60537854970107
 21
679.41015235742839
  0
LINE
  8
_0-0_0
  6
CONTINUOUS
 62
    7
 10
878.60537854970107
 20
679.41015235742839
 11
879.19874667244858
 21
678.56969226618958
  0
LINE
  8
_0-0_0
  6
CONTINUOUS
 62
    7
 10
879.19874667244858
 20
678.56969226618958
 11
879.86607356575007
 21
677.73258905805778
  0
LINE
  8
_0-0_0
  6
CONTINUOUS
 62
    7
 10
879.86607356575007
 20
677.73258905805778
 11
880.5401337420285
 21
676.97616814507592
  0
LINE
  8
_0-0_0
  6
CONTINUOUS
 62
    7
 10
880.5401337420285
 20
676.97616814507592
 11
881.29486645507563
 21
676.22311387358241
  0
LINE
  8
_0-0_0
  6
CONTINUOUS
 62
    7
 10
881.29486645507563
 20
676.22311387358241
 11
882.21769704139911
 21
675.55074189723905
  0
LINE
  8
_0-0_0
  6
CONTINUOUS
 62
    7
 10
882.21769704139911
 20
675.55074189723905
 11
883.22625500591471
 21
674.88173656238382
  0
LINE
  8
_0-0_0
  6
CONTINUOUS
 62
    7
 10
883.22625500591471
 20
674.88173656238382
 11
884.06167001411154
 21
674.5388270496162
  0
LINE
  8
_0-0_0
  6
CONTINUOUS
 62
    7
 10
858.19891541530023
 20
759.27103577591538
 11
858.7082443597908
 21
759.02897913208494
  0
LINE
  8
_0-0_0
  6
CONTINUOUS
 62
    7
 10
858.7082443597908
 20
759.02897913208494
 11
859.20747337981561
 21
758.68942650242479
  0
LINE
  8
_0-0_0
  6
CONTINUOUS
 62
    7
 10
859.20747337981561
 20
758.68942650242479
 11
859.71006904132923
 21
758.26583469450725
  0
LINE
  8
_0-0_0
  6
CONTINUOUS
 62
    7
 10
859.71006904132923
 20
758.26583469450725
 11
860.13367060762778
 21
757.85233305267411
  0
LINE
  8
_0-0_0
  6
CONTINUOUS
 62
    7
 10
860.13367060762778
 20
757.85233305267411
 11
860.55389577405674
 21
757.34132566662993
  0
LINE
  8
_0-0_0
  6
CONTINUOUS
 62
    7
 10
860.55389577405674
 20
757.34132566662993
 11
860.80435438403674
 21
756.84040844667038
  0
LINE
  8
_0-0_0
  6
CONTINUOUS
 62
    7
 10
860.80435438403674
 20
756.84040844667038
 11
861.05313455246289
 21
756.25208540696485
  0
LINE
  8
_0-0_0
  6
CONTINUOUS
 62
    7
 10
861.05313455246289
 20
756.25208540696485
 11
861.22123242573934
 21
755.66376236725932
  0
LINE
  8
_0-0_0
  6
CONTINUOUS
 62
    7
 10
861.22123242573934
 20
755.66376236725932
 11
861.31031668703849
 21
755.24352744244925
  0
LINE
  8
_0-0_0
  6
CONTINUOUS
 62
    7
 10
622.89425162004761
 20
759.52652971055636
 11
1192.3454995156035
 21
759.52652971055636
  0
LINE
  8
_0-0_0
  6
CONTINUOUS
 62
    7
 10
946.46107213821324
 20
756.50086557539112
 11
868.78035743899159
 21
756.50086557539112
  0
LINE
  8
_0-0_0
  6
CONTINUOUS
 62
    7
 10
868.86272793407613
 20
703.0977930783979
 11
869.03586113201357
 21
703.01374414175939
  0
LINE
  8
_0-0_0
  6
CONTINUOUS
 62
    7
 10
869.03586113201357
 20
703.01374414175939
 11
869.118221868717
 21
702.92969520512133
  0
LINE
  8
_0-0_0
  6
CONTINUOUS
 62
    7
 10
869.118221868717
 20
702.92969520512133
 11
869.118221868717
 21
702.84228938537581
  0
LINE
  8
_0-0_0
  6
CONTINUOUS
 62
    7
 10
869.118221868717
 20
702.84228938537581
 11
869.28631974199345
 21
702.84228938537581
  0
LINE
  8
_0-0_0
  6
CONTINUOUS
 62
    7
 10
869.28631974199345
 20
702.84228938537581
 11
869.37036867863185
 21
702.76496397333335
  0
LINE
  8
_0-0_0
  6
CONTINUOUS
 62
    7
 10
869.37036867863185
 20
702.76496397333335
 11
869.37036867863185
 21
702.670834628992
  0
LINE
  8
_0-0_0
  6
CONTINUOUS
 62
    7
 10
869.37036867863185
 20
702.670834628992
 11
869.53845679352708
 21
702.59350921694954
  0
LINE
  8
_0-0_0
  6
CONTINUOUS
 62
    7
 10
869.53845679352708
 20
702.59350921694954
 11
869.53845679352708
 21
702.50273675571543
  0
LINE
  8
_0-0_0
  6
CONTINUOUS
 62
    7
 10
869.53845679352708
 20
702.50273675571543
 11
869.62082728861174
 21
702.42542110205409
  0
LINE
  8
_0-0_0
  6
CONTINUOUS
 62
    7
 10
869.62082728861174
 20
702.42542110205409
 11
869.78891540350696
 21
702.33800552392745
  0
LINE
  8
_0-0_0
  6
CONTINUOUS
 62
    7
 10
869.78891540350696
 20
702.33800552392745
 11
869.78891540350696
 21
702.25396634567028
  0
LINE
  8
_0-0_0
  6
CONTINUOUS
 62
    7
 10
869.78891540350696
 20
702.25396634567028
 11
869.87296434014524
 21
702.169917409032
  0
LINE
  8
_0-0_0
  6
CONTINUOUS
 62
    7
 10
869.87296434014524
 20
702.169917409032
 11
869.95869171833715
 21
702.08586847239394
  0
LINE
  8
_0-0_0
  6
CONTINUOUS
 62
    7
 10
869.95869171833715
 20
702.08586847239394
 11
870.0410524550407
 21
702.00518617724401
  0
LINE
  8
_0-0_0
  6
CONTINUOUS
 62
    7
 10
870.0410524550407
 20
702.00518617724401
 11
870.12342295012513
 21
701.83708830396768
  0
LINE
  8
_0-0_0
  6
CONTINUOUS
 62
    7
 10
870.12342295012513
 20
701.83708830396768
 11
870.12342295012513
 21
701.7530491257105
  0
LINE
  8
_0-0_0
  6
CONTINUOUS
 62
    7
 10
870.12342295012513
 20
701.7530491257105
 11
870.21250721142451
 21
701.66227666447639
  0
LINE
  8
_0-0_0
  6
CONTINUOUS
 62
    7
 10
870.21250721142451
 20
701.66227666447639
 11
870.29487770650906
 21
701.58159436932669
  0
LINE
  8
_0-0_0
  6
CONTINUOUS
 62
    7
 10
870.29487770650906
 20
701.58159436932669
 11
870.37892664314745
 21
701.49418854958117
  0
LINE
  8
_0-0_0
  6
CONTINUOUS
 62
    7
 10
870.37892664314745
 20
701.49418854958117
 11
870.37892664314745
 21
701.32945731779296
  0
LINE
  8
_0-0_0
  6
CONTINUOUS
 62
    7
 10
870.37892664314745
 20
701.32945731779296
 11
870.46128737985077
 21
701.24540838115468
  0
LINE
  8
_0-0_0
  6
CONTINUOUS
 62
    7
 10
870.46128737985077
 20
701.24540838115468
 11
870.54701475804268
 21
701.16135944451662
  0
LINE
  8
_0-0_0
  6
CONTINUOUS
 62
    7
 10
870.54701475804268
 20
701.16135944451662
 11
870.54701475804268
 21
700.99327132962117
  0
LINE
  8
_0-0_0
  6
CONTINUOUS
 62
    7
 10
870.54701475804268
 20
700.99327132962117
 11
870.62937549474611
 21
700.90922239298311
  0
LINE
  8
_0-0_0
  6
CONTINUOUS
 62
    7
 10
870.62937549474611
 20
700.90922239298311
 11
870.62937549474611
 21
700.82854009783341
  0
LINE
  8
_0-0_0
  6
CONTINUOUS
 62
    7
 10
870.62937549474611
 20
700.82854009783341
 11
870.71174598983066
 21
700.65708534144937
  0
LINE
  8
_0-0_0
  6
CONTINUOUS
 62
    7
 10
870.71174598983066
 20
700.65708534144937
 11
870.71174598983066
 21
700.57639328791856
  0
LINE
  8
_0-0_0
  6
CONTINUOUS
 62
    7
 10
870.71174598983066
 20
700.57639328791856
 11
870.7941067265341
 21
700.49235410966162
  0
LINE
  8
_0-0_0
  6
CONTINUOUS
 62
    7
 10
870.7941067265341
 20
700.49235410966162
 11
870.7941067265341
 21
700.2368504166393
  0
LINE
  8
_0-0_0
  6
CONTINUOUS
 62
    7
 10
870.7941067265341
 20
700.2368504166393
 11
870.88152230466085
 21
700.06875254336296
  0
LINE
  8
_0-0_0
  6
CONTINUOUS
 62
    7
 10
870.88152230466085
 20
700.06875254336296
 11
870.88152230466085
 21
699.5678450817843
  0
LINE
  8
_0-0_0
  6
CONTINUOUS
 62
    7
 10
870.88152230466085
 20
699.5678450817843
 11
870.96388304136428
 21
699.48715302825326
  0
LINE
  8
_0-0_0
  6
CONTINUOUS
 62
    7
 10
670.34179387422432
 20
759.36179847876838
 11
671.26462446054779
 21
759.1869868392771
  0
LINE
  8
_0-0_0
  6
CONTINUOUS
 62
    7
 10
866.2606458484471
 20
704.01557858167939
 11
866.76660815144919
 21
704.01557858167939
  0
LINE
  8
_0-0_0
  6
CONTINUOUS
 62
    7
 10
866.76660815144919
 20
704.01557858167939
 11
866.8523355296411
 21
703.93152964504111
  0
LINE
  8
_0-0_0
  6
CONTINUOUS
 62
    7
 10
866.8523355296411
 20
703.93152964504111
 11
867.10111569806725
 21
703.93152964504111
  0
LINE
  8
_0-0_0
  6
CONTINUOUS
 62
    7
 10
867.10111569806725
 20
703.93152964504111
 11
867.10111569806725
 21
703.85084734989141
  0
LINE
  8
_0-0_0
  6
CONTINUOUS
 62
    7
 10
867.10111569806725
 20
703.85084734989141
 11
867.43898012779277
 21
703.85084734989141
  0
LINE
  8
_0-0_0
  6
CONTINUOUS
 62
    7
 10
867.43898012779277
 20
703.85084734989141
 11
867.5213408644961
 21
703.76679841325313
  0
LINE
  8
_0-0_0
  6
CONTINUOUS
 62
    7
 10
867.5213408644961
 20
703.76679841325313
 11
867.68607209628408
 21
703.76679841325313
  0
LINE
  8
_0-0_0
  6
CONTINUOUS
 62
    7
 10
867.68607209628408
 20
703.76679841325313
 11
867.77516611596457
 21
703.67939259350737
  0
LINE
  8
_0-0_0
  6
CONTINUOUS
 62
    7
 10
867.77516611596457
 20
703.67939259350737
 11
867.857526852668
 21
703.67939259350737
  0
LINE
  8
_0-0_0
  6
CONTINUOUS
 62
    7
 10
867.857526852668
 20
703.67939259350737
 11
867.94157578930617
 21
703.59871029835745
  0
LINE
  8
_0-0_0
  6
CONTINUOUS
 62
    7
 10
867.94157578930617
 20
703.59871029835745
 11
868.02730316749819
 21
703.59871029835745
  0
LINE
  8
_0-0_0
  6
CONTINUOUS
 62
    7
 10
868.02730316749819
 20
703.59871029835745
 11
868.10967366258274
 21
703.51466136171939
  0
LINE
  8
_0-0_0
  6
CONTINUOUS
 62
    7
 10
868.10967366258274
 20
703.51466136171939
 11
868.27776177747808
 21
703.51466136171939
  0
LINE
  8
_0-0_0
  6
CONTINUOUS
 62
    7
 10
868.27776177747808
 20
703.51466136171939
 11
868.36181071411625
 21
703.43061242508134
  0
LINE
  8
_0-0_0
  6
CONTINUOUS
 62
    7
 10
868.36181071411625
 20
703.43061242508134
 11
868.5298988290117
 21
703.34656348844305
  0
LINE
  8
_0-0_0
  6
CONTINUOUS
 62
    7
 10
868.5298988290117
 20
703.34656348844305
 11
868.61226932409625
 21
703.2591576686973
  0
LINE
  8
_0-0_0
  6
CONTINUOUS
 62
    7
 10
868.61226932409625
 20
703.2591576686973
 11
868.78035743899159
 21
703.1784753735476
  0
LINE
  8
_0-0_0
  6
CONTINUOUS
 62
    7
 10
868.78035743899159
 20
703.1784753735476
 11
868.86272793407613
 21
703.0977930783979
  0
LINE
  8
_0-0_0
  6
CONTINUOUS
 62
    7
 10
871.30006902953596
 20
699.48715302825326
 11
870.96388304136428
 21
699.48715302825326
  0
LINE
  8
_0-0_0
  6
CONTINUOUS
 62
    7
 10
943.94136054766875
 20
699.48715302825326
 11
944.27586809428703
 21
699.48715302825326
  0
LINE
  8
_0-0_0
  6
CONTINUOUS
 62
    7
 10
948.97910528720399
 20
704.01557858167939
 11
960.73382674881771
 21
704.60725850449194
  0
LINE
  8
_0-0_0
  6
CONTINUOUS
 62
    7
 10
960.73382674881771
 20
704.60725850449194
 11
974.34262110760926
 21
705.36032253436645
  0
LINE
  8
_0-0_0
  6
CONTINUOUS
 62
    7
 10
974.34262110760926
 20
705.36032253436645
 11
987.69254513189014
 21
706.36887074050082
  0
LINE
  8
_0-0_0
  6
CONTINUOUS
 62
    7
 10
987.69254513189014
 20
706.36887074050082
 11
1000.6306459558916
 21
707.62956575654982
  0
LINE
  8
_0-0_0
  6
CONTINUOUS
 62
    7
 10
1000.6306459558916
 20
707.62956575654982
 11
1013.3048411207216
 21
709.22308987766337
  0
LINE
  8
_0-0_0
  6
CONTINUOUS
 62
    7
 10
1013.3048411207216
 20
709.22308987766337
 11
1025.5672130852718
 21
711.07210793341801
  0
LINE
  8
_0-0_0
  6
CONTINUOUS
 62
    7
 10
1025.5672130852718
 20
711.07210793341801
 11
1037.4076716834586
 21
713.16990615759869
  0
LINE
  8
_0-0_0
  6
CONTINUOUS
 62
    7
 10
1037.4076716834586
 20
713.16990615759869
 11
1048.9119345350925
 21
715.68793930658944
  0
LINE
  8
_0-0_0
  6
CONTINUOUS
 62
    7
 10
1048.9119345350925
 20
715.68793930658944
 11
1059.997660420232
 21
718.63292114660499
  0
LINE
  8
_0-0_0
  6
CONTINUOUS
 62
    7
 10
1059.997660420232
 20
718.63292114660499
 11
1070.6614631806269
 21
721.81995963045097
  0
LINE
  8
_0-0_0
  6
CONTINUOUS
 62
    7
 10
1070.6614631806269
 20
721.81995963045097
 11
1081.0748073310419
 21
725.3465507439571
  0
LINE
  8
_0-0_0
  6
CONTINUOUS
 62
    7
 10
1081.0748073310419
 20
725.3465507439571
 11
1091.0696047565812
 21
729.20931808725436
  0
LINE
  8
_0-0_0
  6
CONTINUOUS
 62
    7
 10
1091.0696047565812
 20
729.20931808725436
 11
1100.6424888157571
 21
733.32423224046579
  0
LINE
  8
_0-0_0
  6
CONTINUOUS
 62
    7
 10
1100.6424888157571
 20
733.32423224046579
 11
1109.8791868867613
 21
737.86609508470235
  0
LINE
  8
_0-0_0
  6
CONTINUOUS
 62
    7
 10
1109.8791868867613
 20
737.86609508470235
 11
1118.6990166744438
 21
742.65001457276912
  0
LINE
  8
_0-0_0
  6
CONTINUOUS
 62
    7
 10
1118.6990166744438
 20
742.65001457276912
 11
1127.1843389155081
 21
747.85753562713467
  0
LINE
  8
_0-0_0
  6
CONTINUOUS
 62
    7
 10
1127.1843389155081
 20
747.85753562713467
 11
1135.2443909071012
 21
753.39450938669506
  0
LINE
  8
_0-0_0
  6
CONTINUOUS
 62
    7
 10
1143.976805116657
 20
759.1869868392771
 11
1144.8962690614921
 21
759.44249053229919
  0
LINE
  8
_0-0_0
  6
CONTINUOUS
 62
    7
 10
671.26462446054779
 20
759.1869868392771
 11
672.10845119327541
 21
758.85752437570113
  0
LINE
  8
_0-0_0
  6
CONTINUOUS
 62
    7
 10
672.10845119327541
 20
758.85752437570113
 11
673.02791513811042
 21
758.43393256778404
  0
LINE
  8
_0-0_0
  6
CONTINUOUS
 62
    7
 10
673.02791513811042
 20
758.43393256778404
 11
673.87174187083792
 21
757.92964870633568
  0
LINE
  8
_0-0_0
  6
CONTINUOUS
 62
    7
 10
673.87174187083792
 20
757.92964870633568
 11
674.45670802743598
 21
757.50942353990672
  0
LINE
  8
_0-0_0
  6
CONTINUOUS
 62
    7
 10
758.93676994382065
 20
717.62100629898214
 11
766.33117348366591
 21
715.68793930658944
  0
LINE
  8
_0-0_0
  6
CONTINUOUS
 62
    7
 10
766.33117348366591
 20
715.68793930658944
 11
768.76515769601849
 21
715.18702208662967
  0
LINE
  8
_0-0_0
  6
CONTINUOUS
 62
    7
 10
778.67590618491988
 20
713.09258074555623
 11
789.67085960882559
 21
711.07210793341801
  0
LINE
  8
_0-0_0
  6
CONTINUOUS
 62
    7
 10
789.67085960882559
 20
711.07210793341801
 11
801.93322181499479
 21
709.22308987766337
  0
LINE
  8
_0-0_0
  6
CONTINUOUS
 62
    7
 10
801.93322181499479
 20
709.22308987766337
 11
814.61582870435541
 21
707.62956575654982
  0
LINE
  8
_0-0_0
  6
CONTINUOUS
 62
    7
 10
814.61582870435541
 20
707.62956575654982
 11
827.5488844453148
 21
706.36887074050082
  0
LINE
  8
_0-0_0
  6
CONTINUOUS
 62
    7
 10
827.5488844453148
 20
706.36887074050082
 11
840.90385355263777
 21
705.36032253436645
  0
LINE
  8
_0-0_0
  6
CONTINUOUS
 62
    7
 10
840.90385355263777
 20
705.36032253436645
 11
854.50423618689854
 21
704.60725850449194
  0
LINE
  8
_0-0_0
  6
CONTINUOUS
 62
    7
 10
854.50423618689854
 20
704.60725850449194
 11
866.2606458484471
 21
704.01557858167939
  0
LINE
  8
_0-0_0
  6
CONTINUOUS
 62
    7
 10
778.67590618491988
 20
712.75303787427697
 11
778.67590618491988
 21
713.2606786188328
  0
LINE
  8
_0-0_0
  6
CONTINUOUS
 62
    7
 10
768.76515769601849
 20
714.85083609845788
 11
768.76515769601849
 21
715.35511020152512
  0
LINE
  8
_0-0_0
  6
CONTINUOUS
 62
    7
 10
758.85440920711721
 20
717.28482031081035
 11
758.85440920711721
 21
717.79246105536595
  0
LINE
  8
_0-0_0
  6
CONTINUOUS
 62
    7
 10
929.74760979066048
 20
670.34323060125462
 11
941.67379576703911
 21
670.34323060125462
  0
LINE
  8
_0-0_0
  6
CONTINUOUS
 62
    7
 10
873.48359463190855
 20
670.34323060125462
 11
885.40809240835256
 21
670.34323060125462
  0
LINE
  8
_0-0_0
  6
CONTINUOUS
 62
    7
 10
878.43729043480585
 20
665.80472464012564
 11
936.80582734233394
 21
665.80472464012564
  0
LINE
  8
_0-0_0
  6
CONTINUOUS
 62
    7
 10
748.94533915976945
 20
720.14239633108036
 11
748.94533915976945
 21
720.64667043414738
  0
LINE
  8
_0-0_0
  6
CONTINUOUS
 62
    7
 10
674.45670802743598
 20
757.50942353990672
 11
680.00209351152694
 21
753.39450938669506
  0
LINE
  8
_0-0_0
  6
CONTINUOUS
 62
    7
 10
680.00209351152694
 20
753.39450938669506
 11
688.06213574473895
 21
747.85753562713467
  0
LINE
  8
_0-0_0
  6
CONTINUOUS
 62
    7
 10
688.06213574473895
 20
747.85753562713467
 11
696.54410110269578
 21
742.65001457276912
  0
LINE
  8
_0-0_0
  6
CONTINUOUS
 62
    7
 10
696.54410110269578
 20
742.65001457276912
 11
705.36393089037824
 21
737.86609508470235
  0
LINE
  8
_0-0_0
  6
CONTINUOUS
 62
    7
 10
705.36393089037824
 20
737.86609508470235
 11
714.6006289613822
 21
733.32423224046579
  0
LINE
  8
_0-0_0
  6
CONTINUOUS
 62
    7
 10
714.6006289613822
 20
733.32423224046579
 11
724.17014637906971
 21
729.20931808725436
  0
LINE
  8
_0-0_0
  6
CONTINUOUS
 62
    7
 10
724.17014637906971
 20
729.20931808725436
 11
734.166622246163
 21
725.3465507439571
  0
LINE
  8
_0-0_0
  6
CONTINUOUS
 62
    7
 10
734.166622246163
 20
725.3465507439571
 11
744.494239018386
 21
721.81995963045097
  0
LINE
  8
_0-0_0
  6
CONTINUOUS
 62
    7
 10
744.494239018386
 20
721.81995963045097
 11
748.94533915976945
 21
720.4819392023594
  0
LINE
  8
_0-0_0
  6
CONTINUOUS
 62
    7
 10
669.00041656302551
 20
759.52652971055636
 11
669.00041656302551
 21
761.03600489503174
  0
LINE
  8
_0-0_0
  6
CONTINUOUS
 62
    7
 10
622.89425162004761
 20
759.52652971055636
 11
622.89425162004761
 21
761.03600489503174
  0
LINE
  8
_0-0_0
  6
CONTINUOUS
 62
    7
 10
621.38645487712608
 20
761.03600489503174
 11
619.62316419956335
 21
832.16278590402817
  0
LINE
  8
_0-0_0
  6
CONTINUOUS
 62
    7
 10
957.88129581158978
 20
757.1732375517347
 11
957.79893507488646
 21
756.92109074182008
  0
LINE
  8
_0-0_0
  6
CONTINUOUS
 62
    7
 10
957.79893507488646
 20
756.92109074182008
 11
957.79893507488646
 21
756.0839972920694
  0
LINE
  8
_0-0_0
  6
CONTINUOUS
 62
    7
 10
957.79893507488646
 20
756.0839972920694
 11
957.71151949675982
 21
755.91926606028142
  0
LINE
  8
_0-0_0
  6
CONTINUOUS
 62
    7
 10
957.71151949675982
 20
755.91926606028142
 11
957.71151949675982
 21
755.40825867423735
  0
LINE
  8
_0-0_0
  6
CONTINUOUS
 62
    7
 10
958.04939368486646
 20
758.43393256778404
 11
957.96702318978191
 21
758.34988363114576
  0
LINE
  8
_0-0_0
  6
CONTINUOUS
 62
    7
 10
957.96702318978191
 20
758.34988363114576
 11
957.96702318978191
 21
757.67751165480172
  0
LINE
  8
_0-0_0
  6
CONTINUOUS
 62
    7
 10
957.96702318978191
 20
757.67751165480172
 11
957.88129581158978
 21
757.50942353990672
  0
LINE
  8
_0-0_0
  6
CONTINUOUS
 62
    7
 10
957.88129581158978
 20
757.50942353990672
 11
957.88129581158978
 21
757.1732375517347
  0
LINE
  8
_0-0_0
  6
CONTINUOUS
 62
    7
 10
958.21748179976169
 20
759.523172827449
 11
958.21748179976169
 21
759.27103577591538
  0
LINE
  8
_0-0_0
  6
CONTINUOUS
 62
    7
 10
958.21748179976169
 20
759.27103577591538
 11
958.13175442156989
 21
759.1869868392771
  0
LINE
  8
_0-0_0
  6
CONTINUOUS
 62
    7
 10
958.13175442156989
 20
759.1869868392771
 11
958.13175442156989
 21
758.93820667085095
  0
LINE
  8
_0-0_0
  6
CONTINUOUS
 62
    7
 10
958.13175442156989
 20
758.93820667085095
 11
958.04939368486646
 21
758.85415773421278
  0
LINE
  8
_0-0_0
  6
CONTINUOUS
 62
    7
 10
958.04939368486646
 20
758.85415773421278
 11
958.04939368486646
 21
758.43393256778404
  0
LINE
  8
_0-0_0
  6
CONTINUOUS
 62
    7
 10
888.68254647032518
 20
665.80472464012564
 11
888.01185293553522
 21
665.8887735767637
  0
LINE
  8
_0-0_0
  6
CONTINUOUS
 62
    7
 10
888.01185293553522
 20
665.8887735767637
 11
887.50757883246808
 21
666.14427726978579
  0
LINE
  8
_0-0_0
  6
CONTINUOUS
 62
    7
 10
887.50757883246808
 20
666.14427726978579
 11
887.33948095919163
 21
666.22831644804296
  0
LINE
  8
_0-0_0
  6
CONTINUOUS
 62
    7
 10
887.33948095919163
 20
666.22831644804296
 11
886.91588915127431
 21
666.64855137285303
  0
LINE
  8
_0-0_0
  6
CONTINUOUS
 62
    7
 10
886.91588915127431
 20
666.64855137285303
 11
886.49902086795248
 21
667.06541965617475
  0
LINE
  8
_0-0_0
  6
CONTINUOUS
 62
    7
 10
886.49902086795248
 20
667.06541965617475
 11
886.24856225797259
 21
667.4856545809846
  0
LINE
  8
_0-0_0
  6
CONTINUOUS
 62
    7
 10
886.24856225797259
 20
667.4856545809846
 11
885.99642520643897
 21
667.99329532554043
  0
LINE
  8
_0-0_0
  6
CONTINUOUS
 62
    7
 10
885.99642520643897
 20
667.99329532554043
 11
885.7459665964592
 21
668.58161836524573
  0
LINE
  8
_0-0_0
  6
CONTINUOUS
 62
    7
 10
885.7459665964592
 20
668.58161836524573
 11
885.66359610137454
 21
669.08253558520551
  0
LINE
  8
_0-0_0
  6
CONTINUOUS
 62
    7
 10
885.66359610137454
 20
669.08253558520551
 11
885.49046290343711
 21
669.75826444465656
  0
LINE
  8
_0-0_0
  6
CONTINUOUS
 62
    7
 10
885.49046290343711
 20
669.75826444465656
 11
885.40809240835256
 21
670.34323060125462
  0
LINE
  8
_0-2_躯体
  6
CONTINUOUS
 62
    7
 10
1285.9705813242845
 20
665.80472464012564
 11
1285.9705813242845
 21
840.90360207973322
  0
LINE
  8
_0-2_躯体
  6
CONTINUOUS
 62
    7
 10
1285.9705813242845
 20
665.80472464012564
 11
1284.2340995476152
 21
675.6528021702477
  0
LINE
  8
_0-2_躯体
  6
CONTINUOUS
 62
    7
 10
1285.9705813242845
 20
665.80472464012564
 11
1287.7070631009537
 21
675.6528021702477
  0
LINE
  8
_0-2_躯体
  6
CONTINUOUS
 62
    7
 10
1285.9705813242845
 20
840.90360207973322
 11
1287.7070631009537
 21
831.05552454961116
  0
LINE
  8
_0-2_躯体
  6
CONTINUOUS
 62
    7
 10
1285.9705813242845
 20
840.90360207973322
 11
1284.2340995476152
 21
831.05552454961116
  0
LINE
  8
_0-2_躯体
  6
CONTINUOUS
 62
    7
 10
1285.9705813242845
 20
665.80472464012564
 11
1249.369274134742
 21
665.80472464012564
  0
LINE
  8
_0-2_躯体
  6
CONTINUOUS
 62
    7
 10
1244.5113402204356
 20
759.523172827449
 11
1244.5113402204356
 21
840.90360207973322
  0
LINE
  8
_0-2_躯体
  6
CONTINUOUS
 62
    7
 10
1244.5113402204356
 20
759.523172827449
 11
1242.7748584437663
 21
769.37125035757106
  0
LINE
  8
_0-2_躯体
  6
CONTINUOUS
 62
    7
 10
1244.5113402204356
 20
759.523172827449
 11
1246.2478219971049
 21
769.37125035757106
  0
LINE
  8
_0-2_躯体
  6
CONTINUOUS
 62
    7
 10
1244.5113402204356
 20
840.90360207973322
 11
1246.2478219971049
 21
831.05552454961116
  0
LINE
  8
_0-2_躯体
  6
CONTINUOUS
 62
    7
 10
1244.5113402204356
 20
840.90360207973322
 11
1242.7748584437663
 21
831.05552454961116
  0
TEXT
  8
_0-2_躯体
 62
    7
 10
1239.5113402204356
 20
787.71338745359117
 40
25
 41
1
 50
90
  1
82
  0
TEXT
  8
_0-2_躯体
 62
    7
 10
1280.9705813242845
 20
734.60416335992954
 40
25
 41
1
 50
90
  1
175
  0
LINE
  8
_0-2_躯体
  6
CONTINUOUS
 62
    7
 10
1244.5113402204356
 20
840.90360207973322
 11
1191.8429038540901
 21
840.90360207973322
  0
LINE
  8
_0-2_躯体
  6
CONTINUOUS
 62
    7
 10
1244.5113402204356
 20
759.523172827449
 11
1192.3454995156035
 21
759.523172827449
  0
LINE
  8
_0-2_躯体
  6
CONTINUOUS
 62
    7
 10
1285.9705813242845
 20
840.90360207973322
 11
1244.5113402204356
 21
840.90360207973322
  0
LINE
  8
_0-2_躯体
  6
CONTINUOUS
 62
    7
 10
939.91049533109526
 20
665.80472464012564
 11
1263.4756374077072
 21
665.80472464012564
  0
LINE
  8
_0-2_躯体
  6
CONTINUOUS
 62
    7
 10
2254.7358203627614
 20
665.80472464012564
 11
2254.7358203627614
 21
840.90360207973322
  0
LINE
  8
_0-2_躯体
  6
CONTINUOUS
 62
    7
 10
2254.7358203627614
 20
665.80472464012564
 11
2252.9993385860921
 21
675.6528021702477
  0
LINE
  8
_0-2_躯体
  6
CONTINUOUS
 62
    7
 10
2254.7358203627614
 20
665.80472464012564
 11
2256.4723021394302
 21
675.6528021702477
  0
LINE
  8
_0-2_躯体
  6
CONTINUOUS
 62
    7
 10
2254.7358203627614
 20
840.90360207973322
 11
2256.4723021394302
 21
831.05552454961116
  0
LINE
  8
_0-2_躯体
  6
CONTINUOUS
 62
    7
 10
2254.7358203627614
 20
840.90360207973322
 11
2252.9993385860921
 21
831.05552454961116
  0
LINE
  8
_0-2_躯体
  6
CONTINUOUS
 62
    7
 10
2213.2765792589125
 20
759.523172827449
 11
2213.2765792589125
 21
840.90360207973322
  0
LINE
  8
_0-2_躯体
  6
CONTINUOUS
 62
    7
 10
2213.2765792589125
 20
759.523172827449
 11
2211.5400974822428
 21
769.37125035757106
  0
LINE
  8
_0-2_躯体
  6
CONTINUOUS
 62
    7
 10
2213.2765792589125
 20
759.523172827449
 11
2215.0130610355818
 21
769.37125035757106
  0
LINE
  8
_0-2_躯体
  6
CONTINUOUS
 62
    7
 10
2213.2765792589125
 20
840.90360207973322
 11
2215.0130610355818
 21
831.05552454961116
  0
LINE
  8
_0-2_躯体
  6
CONTINUOUS
 62
    7
 10
2213.2765792589125
 20
840.90360207973322
 11
2211.5400974822428
 21
831.05552454961116
  0
TEXT
  8
_0-2_躯体
 62
    7
 10
2208.2765792589125
 20
787.71338745359117
 40
25
 41
1
 50
90
  1
82
  0
TEXT
  8
_0-2_躯体
 62
    7
 10
2249.7358203627614
 20
734.60416335992954
 40
25
 41
1
 50
90
  1
175
  0
LINE
  8
_0-2_躯体
  6
CONTINUOUS
 62
    7
 10
2254.7358203627614
 20
840.90360207973322
 11
2213.2765792589125
 21
840.90360207973322
  0
LINE
  8
_0-2_躯体
  6
CONTINUOUS
 62
    7
 10
2213.2765792589125
 20
759.523172827449
 11
2161.1107385540799
 21
759.523172827449
  0
LINE
  8
_0-2_躯体
  6
CONTINUOUS
 62
    7
 10
2213.2765792589125
 20
840.90360207973322
 11
2160.6081428925663
 21
840.90360207973322
  0
LINE
  8
_0-2_躯体
  6
CONTINUOUS
 62
    7
 10
2254.7358203627614
 20
665.80472464012564
 11
1989.7855344380891
 21
665.80472464012564
  0
LINE
  8
_0-0_0
  6
CONTINUOUS
 62
    7
 10
990.63249164724448
 20
707.12193477037545
 11
996.08878311165518
 21
707.71361469318822
  0
LINE
  8
_0-0_0
  6
CONTINUOUS
 62
    7
 10
1757.2167679565666
 20
840.68034115760611
 11
1754.92789705973
 21
838.35507298908374
  0
LINE
  8
_0-0_0
  6
CONTINUOUS
 62
    7
 10
1754.92789705973
 20
838.35507298908374
 11
1754.0712218400026
 21
834.08989072580653
  0
LINE
  8
_0-0_0
  6
CONTINUOUS
 62
    7
 10
1758.4405938137347
 20
840.90360207973322
 11
1757.7889952817445
 21
840.84241510731067
  0
LINE
  8
_0-0_0
  6
CONTINUOUS
 62
    7
 10
1757.7889952817445
 20
840.84241510731067
 11
1757.2167679565666
 21
840.68034115760611
  0
LINE
  8
_0-0_0
  6
CONTINUOUS
 62
    7
 10
1757.5243829881717
 20
758.70745429248223
 11
1757.5243829881717
 21
759.70967059411009
  0
LINE
  8
_0-0_0
  6
CONTINUOUS
 62
    7
 10
1757.5243829881717
 20
759.70967059411009
 11
1757.5243829881717
 21
760.71187729476969
  0
LINE
  8
_0-0_0
  6
CONTINUOUS
 62
    7
 10
1804.151976288942
 20
840.90360207973322
 11
1781.2962850513386
 21
840.90360207973322
  0
LINE
  8
_0-0_0
  6
CONTINUOUS
 62
    7
 10
1781.2962850513386
 20
840.90360207973322
 11
1758.4405938137347
 21
840.90360207973322
  0
LINE
  8
_0-0_0
  6
CONTINUOUS
 62
    7
 10
1795.3139967307829
 20
840.90360207973322
 11
1877.4191849422091
 21
840.90360207973322
  0
LINE
  8
_0-0_0
  6
CONTINUOUS
 62
    7
 10
1877.4191849422091
 20
840.90360207973322
 11
1959.5243635526663
 21
840.90360207973322
  0
LINE
  8
_0-0_0
  6
CONTINUOUS
 62
    7
 10
1755.440579178103
 20
760.71187729476969
 11
1857.4841275324557
 21
760.71187729476969
  0
LINE
  8
_0-0_0
  6
CONTINUOUS
 62
    7
 10
1857.4841275324557
 20
760.71187729476969
 11
1959.5276758868085
 21
760.71187729476969
  0
LINE
  8
_0-0_0
  6
CONTINUOUS
 62
    7
 10
1959.5243635526663
 20
758.70745429248223
 11
1858.5227219038325
 21
758.70745429248223
  0
LINE
  8
_0-0_0
  6
CONTINUOUS
 62
    7
 10
1858.5227219038325
 20
758.70745429248223
 11
1757.5243829881717
 21
758.70745429248223
  0
LINE
  8
_0-0_0
  6
CONTINUOUS
 62
    7
 10
1754.0712218400026
 20
834.09320305994822
 11
1754.0513766380577
 21
832.08381635693263
  0
LINE
  8
_0-0_0
  6
CONTINUOUS
 62
    7
 10
1754.0513766380577
 20
832.08381635693263
 11
1754.0712218400026
 21
830.07443925488496
  0
LINE
  8
_0-0_0
  6
CONTINUOUS
 62
    7
 10
1754.0712218400026
 20
830.07443925488496
 11
1754.7558957085687
 21
796.39619065878037
  0
LINE
  8
_0-0_0
  6
CONTINUOUS
 62
    7
 10
1754.7558957085687
 20
796.39619065878037
 11
1755.4372668439614
 21
762.71630029705705
  0
LINE
  8
_0-0_0
  6
CONTINUOUS
 62
    7
 10
1755.4372668439614
 20
762.71630029705705
 11
1755.4571120459063
 21
761.71409359639767
  0
LINE
  8
_0-0_0
  6
CONTINUOUS
 62
    7
 10
1755.4571120459063
 20
761.71409359639767
 11
1755.4769572478519
 21
760.71187729476969
  0
LINE
  8
_0-0_0
  6
CONTINUOUS
 62
    7
 10
2161.8319687497346
 20
840.68034115760611
 11
2161.2167482874929
 21
840.85068154121223
  0
LINE
  8
_0-0_0
  6
CONTINUOUS
 62
    7
 10
2161.2167482874929
 20
840.85068154121223
 11
2160.6114552267081
 21
840.90360207973322
  0
LINE
  8
_0-0_0
  6
CONTINUOUS
 62
    7
 10
2164.9808272004402
 20
834.08989072580653
 11
2164.0712218412236
 21
838.45926269953861
  0
LINE
  8
_0-0_0
  6
CONTINUOUS
 62
    7
 10
2164.0712218412236
 20
838.45926269953861
 11
2161.8319687497346
 21
840.68034115760611
  0
LINE
  8
_0-0_0
  6
CONTINUOUS
 62
    7
 10
2100.7235898555255
 20
734.32364410121579
 11
2099.9661406455248
 21
733.66376953435497
  0
LINE
  8
_0-0_0
  6
CONTINUOUS
 62
    7
 10
2099.9661406455248
 20
733.66376953435497
 11
2099.2053887023512
 21
733.0022436009076
  0
LINE
  8
_0-0_0
  6
CONTINUOUS
 62
    7
 10
2161.5276660522713
 20
758.70745429248223
 11
2161.5276660522713
 21
759.70967059411009
  0
LINE
  8
_0-0_0
  6
CONTINUOUS
 62
    7
 10
2161.5276660522713
 20
759.70967059411009
 11
2161.5276660522713
 21
760.71187729476969
  0
LINE
  8
_0-0_0
  6
CONTINUOUS
 62
    7
 10
2114.9000727515013
 20
840.90360207973322
 11
2137.7524516549624
 21
840.90360207973322
  0
LINE
  8
_0-0_0
  6
CONTINUOUS
 62
    7
 10
2137.7524516549624
 20
840.90360207973322
 11
2160.6081428925663
 21
840.90360207973322
  0
LINE
  8
_0-0_0
  6
CONTINUOUS
 62
    7
 10
2123.7347399755186
 20
840.90360207973322
 11
2041.6328640982342
 21
840.90360207973322
  0
LINE
  8
_0-0_0
  6
CONTINUOUS
 62
    7
 10
2041.6328640982342
 20
840.90360207973322
 11
1959.5276758868085
 21
840.90360207973322
  0
LINE
  8
_0-0_0
  6
CONTINUOUS
 62
    7
 10
2163.6081575281978
 20
760.71187729476969
 11
2061.5646091738454
 21
760.71187729476969
  0
LINE
  8
_0-0_0
  6
CONTINUOUS
 62
    7
 10
2061.5646091738454
 20
760.71187729476969
 11
1959.5243635526663
 21
760.71187729476969
  0
LINE
  8
_0-0_0
  6
CONTINUOUS
 62
    7
 10
1959.5276758868085
 20
758.70745429248223
 11
2060.526014802469
 21
758.70745429248223
  0
LINE
  8
_0-0_0
  6
CONTINUOUS
 62
    7
 10
2060.526014802469
 20
758.70745429248223
 11
2161.5276660522713
 21
758.70745429248223
  0
LINE
  8
_0-0_0
  6
CONTINUOUS
 62
    7
 10
2099.2053887023512
 20
733.0022436009076
 11
2093.2516649022932
 21
728.17642238146504
  0
LINE
  8
_0-0_0
  6
CONTINUOUS
 62
    7
 10
2093.2516649022932
 20
728.17642238146504
 11
2087.0531740106085
 21
723.66812439314697
  0
LINE
  8
_0-0_0
  6
CONTINUOUS
 62
    7
 10
2087.0531740106085
 20
723.66812439314697
 11
2081.1589858163866
 21
719.89412767971146
  0
LINE
  8
_0-0_0
  6
CONTINUOUS
 62
    7
 10
2081.1589858163866
 20
719.89412767971146
 11
2075.1192565402644
 21
716.35827338961928
  0
LINE
  8
_0-0_0
  6
CONTINUOUS
 62
    7
 10
2104.0113647198486
 20
737.38815804341186
 11
2107.1073026320337
 21
740.45267198560794
  0
LINE
  8
_0-0_0
  6
CONTINUOUS
 62
    7
 10
2107.1073026320337
 20
740.45267198560794
 11
2110.3719295612377
 21
742.93505040310652
  0
LINE
  8
_0-0_0
  6
CONTINUOUS
 62
    7
 10
2110.3719295612377
 20
742.93505040310652
 11
2111.8735882456403
 21
744.25478993585955
  0
LINE
  8
_0-0_0
  6
CONTINUOUS
 62
    7
 10
2111.8735882456403
 20
744.25478993585955
 11
2113.3785592641843
 21
745.57287810202547
  0
LINE
  8
_0-0_0
  6
CONTINUOUS
 62
    7
 10
2113.3785592641843
 20
745.57287810202547
 11
2114.1293934068703
 21
746.23440403547306
  0
LINE
  8
_0-0_0
  6
CONTINUOUS
 62
    7
 10
2114.1293934068703
 20
746.23440403547306
 11
2114.8835302827288
 21
746.89592996891997
  0
LINE
  8
_0-0_0
  6
CONTINUOUS
 62
    7
 10
2114.8835302827288
 20
746.89592996891997
 11
2115.578131552752
 21
747.61864287479
  0
LINE
  8
_0-0_0
  6
CONTINUOUS
 62
    7
 10
2115.578131552752
 20
747.61864287479
 11
2116.2727328227747
 21
748.34301674821518
  0
LINE
  8
_0-0_0
  6
CONTINUOUS
 62
    7
 10
2116.2727328227747
 20
748.34301674821518
 11
2119.5572049539242
 21
751.76971762712401
  0
LINE
  8
_0-0_0
  6
CONTINUOUS
 62
    7
 10
2119.5572049539242
 20
751.76971762712401
 11
2122.841677085074
 21
755.19475753847723
  0
LINE
  8
_0-0_0
  6
CONTINUOUS
 62
    7
 10
2122.841677085074
 20
755.19475753847723
 11
2124.6509508010813
 21
757.04207029178906
  0
LINE
  8
_0-0_0
  6
CONTINUOUS
 62
    7
 10
2124.6509508010813
 20
757.04207029178906
 11
2126.8339806208764
 21
758.38827009380225
  0
LINE
  8
_0-0_0
  6
CONTINUOUS
 62
    7
 10
2126.8339806208764
 20
758.38827009380225
 11
2127.5682722947899
 21
758.53381117570302
  0
LINE
  8
_0-0_0
  6
CONTINUOUS
 62
    7
 10
2127.5682722947899
 20
758.53381117570302
 11
2128.3025639687039
 21
758.67934265663507
  0
LINE
  8
_0-0_0
  6
CONTINUOUS
 62
    7
 10
2164.9808272004402
 20
834.09320305994822
 11
2165.0006724023856
 21
832.08381635693263
  0
LINE
  8
_0-0_0
  6
CONTINUOUS
 62
    7
 10
2165.0006724023856
 20
832.08381635693263
 11
2164.9775148662984
 21
830.07443925488496
  0
LINE
  8
_0-0_0
  6
CONTINUOUS
 62
    7
 10
2164.9775148662984
 20
830.07443925488496
 11
2164.2928409977326
 21
796.39619065878037
  0
LINE
  8
_0-0_0
  6
CONTINUOUS
 62
    7
 10
2164.2928409977326
 20
796.39619065878037
 11
2163.6114698623396
 21
762.71630029705705
  0
LINE
  8
_0-0_0
  6
CONTINUOUS
 62
    7
 10
2163.6114698623396
 20
762.71630029705705
 11
2163.5916246603947
 21
761.71409359639767
  0
LINE
  8
_0-0_0
  6
CONTINUOUS
 62
    7
 10
2163.5916246603947
 20
761.71409359639767
 11
2163.5717794584489
 21
760.71187729476969
  0
LINE
  8
_0-0_0
  6
CONTINUOUS
 62
    7
 10
2104.0113647198486
 20
737.38815804341186
 11
2100.7235898555255
 21
734.32364410121579
  0
LINE
  8
_0-0_0
  6
CONTINUOUS
 62
    7
 10
1992.1309424408191
 20
699.80526275415571
 11
2005.9634322354407
 21
700.44197978492912
  0
LINE
  8
_0-0_0
  6
CONTINUOUS
 62
    7
 10
2005.9634322354407
 20
700.44197978492912
 11
2017.6988784843945
 21
701.44749881973041
  0
LINE
  8
_0-0_0
  6
CONTINUOUS
 62
    7
 10
2017.6988784843945
 20
701.44749881973041
 11
2022.4387134297099
 21
702.06106791538537
  0
LINE
  8
_0-0_0
  6
CONTINUOUS
 62
    7
 10
2022.4387134297099
 20
702.06106791538537
 11
2027.1818415072294
 21
702.59359523570424
  0
LINE
  8
_0-0_0
  6
CONTINUOUS
 62
    7
 10
2063.8237170682487
 20
708.54236493600206
 11
2061.2106982720034
 21
707.174658964488
  0
LINE
  8
_0-0_0
  6
CONTINUOUS
 62
    7
 10
2061.2106982720034
 20
707.174658964488
 11
2058.5976698747895
 21
705.80530162638763
  0
LINE
  8
_0-0_0
  6
CONTINUOUS
 62
    7
 10
2069.0729217977951
 20
711.81690966569477
 11
2066.446663265951
 21
710.1796373008483
  0
LINE
  8
_0-0_0
  6
CONTINUOUS
 62
    7
 10
2066.446663265951
 20
710.1796373008483
 11
2063.8237170682487
 21
708.54236493600206
  0
LINE
  8
_0-0_0
  6
CONTINUOUS
 62
    7
 10
2050.7122888129106
 20
703.38908348300856
 11
2048.6913329428194
 21
702.99050887557905
  0
LINE
  8
_0-0_0
  6
CONTINUOUS
 62
    7
 10
2048.6913329428194
 20
702.99050887557905
 11
2046.6703770727286
 21
702.59359523570424
  0
LINE
  8
_0-0_0
  6
CONTINUOUS
 62
    7
 10
2050.7122888129106
 20
703.38908348300856
 11
2052.7299419498281
 21
703.91829846918563
  0
LINE
  8
_0-0_0
  6
CONTINUOUS
 62
    7
 10
2052.7299419498281
 20
703.91829846918563
 11
2054.7376676852891
 21
704.47398332559123
  0
LINE
  8
_0-0_0
  6
CONTINUOUS
 62
    7
 10
2054.7376676852891
 20
704.47398332559123
 11
2056.6726276802833
 21
705.13054555831013
  0
LINE
  8
_0-0_0
  6
CONTINUOUS
 62
    7
 10
2056.6726276802833
 20
705.13054555831013
 11
2058.5976698747895
 21
705.80530162638763
  0
LINE
  8
_0-0_0
  6
CONTINUOUS
 62
    7
 10
2069.0729217977951
 20
711.81690966569477
 11
2069.8799792121745
 21
712.41062395843585
  0
LINE
  8
_0-0_0
  6
CONTINUOUS
 62
    7
 10
2069.8799792121745
 20
712.41062395843585
 11
2070.6903489606962
 21
713.00269648555877
  0
LINE
  8
_0-0_0
  6
CONTINUOUS
 62
    7
 10
2070.6903489606962
 20
713.00269648555877
 11
2071.692555661356
 21
713.74029089264559
  0
LINE
  8
_0-0_0
  6
CONTINUOUS
 62
    7
 10
2071.692555661356
 20
713.74029089264559
 11
2072.6980746961567
 21
714.47624353411413
  0
LINE
  8
_0-0_0
  6
CONTINUOUS
 62
    7
 10
2072.6980746961567
 20
714.47624353411413
 11
2073.8888252167494
 21
715.36599409041685
  0
LINE
  8
_0-0_0
  6
CONTINUOUS
 62
    7
 10
2073.8888252167494
 20
715.36599409041685
 11
2075.1192565402644
 21
716.20116314064376
  0
LINE
  8
_0-0_0
  6
CONTINUOUS
 62
    7
 10
2027.1818415072294
 20
702.59359523570424
 11
2046.6703770727286
 21
702.59359523570424
  0
LINE
  8
_0-0_0
  6
CONTINUOUS
 62
    7
 10
1931.4035700240352
 20
699.80526275415571
 11
1992.1309424408191
 21
699.80526275415571
  0
LINE
  8
_0-0_0
  6
CONTINUOUS
 62
    7
 10
1921.4035700240352
 20
702.48475467846697
 11
1824.787514770283
 21
758.26606018726034
  0
ARC
  8
_0-0_0
  6
CONTINUOUS
 62
    7
 10
1931.4035700240352
 20
719.80526275415571
 40
20
 50
240
 51
270
  0
LINE
  8
_0-0_0
  6
CONTINUOUS
 62
    7
 10
1778.2430929746288
 20
742.4900313475523
 11
1778.2430929746288
 21
758.70745429248223
  0
ARC
  8
_0-0_0
  6
CONTINUOUS
 62
    7
 10
1786.2430929746288
 20
742.4900313475523
 40
8
 50
180
 51
248.80751850449369
  0
ARC
  8
_0-0_0
  6
CONTINUOUS
 62
    7
 10
1983.8100826600025
 20
669.73616985238664
 40
5
 50
270
 51
0
  0
LINE
  8
_0-0_0
  6
CONTINUOUS
 62
    7
 10
1935.2419664200024
 20
664.73616985238664
 11
1983.8100826600025
 21
664.73616985238664
  0
ARC
  8
_0-0_0
  6
CONTINUOUS
 62
    7
 10
1935.2419664200024
 20
669.73616985238664
 40
5
 50
180
 51
270
  0
LINE
  8
_0-0_0
  6
CONTINUOUS
 62
    7
 10
1930.2419664200024
 20
674.27701609068254
 11
1930.2419664200024
 21
669.73616985238664
  0
ARC
  8
_0-0_0
  6
CONTINUOUS
 62
    7
 10
1922.2419664200027
 20
674.27701609068254
 40
8
 50
0
 51
75.000000000000014
  0
LINE
  8
_0-0_0
  6
CONTINUOUS
 62
    7
 10
1783.3510751749373
 20
735.03106137534644
 11
1924.3125187808228
 21
682.00442270099506
  0
LINE
  8
_0-0_0
  6
CONTINUOUS
 62
    7
 10
1988.8100826600025
 20
669.73616985238664
 11
1988.8100826600025
 21
696.03164696619785
  0
ARC
  8
_0-0_0
  6
CONTINUOUS
 62
    7
 10
1995.5607143581365
 20
691.95841437019158
 40
7.884304161117754
 50
84.412887270816711
 51
148.89383217073981
  0
ENDSEC
  0
EOF
