  0
SECTION
  2
HEADER
  9
$ACADVER
  1
AC1009
  9
$INSBASE
 10
0
 20
0
 30
0
  9
$EXTMIN
 10
0
 20
0
  9
$EXTMAX
 10
2970
 20
2100
  9
$LIMMIN
 10
0
 20
0
  9
$LIMMAX
 10
2970
 20
2100
  9
$LTSCALE
 40
10
  0
ENDSEC
  0
SECTION
  2
TABLES
  0
TABLE
  2
LTYPE
 70
     9
  0
LTYPE
  2
CONTINUOUS
 70
    64
  3
実線
 72
    65
 73
     0
 40
0.0
  0
LTYPE
  2
DASHED1
 70
    64
  3
--  --  --  --  --  --  --  --  
 72
    65
 73
     2
 40
2.5
 49
1.25
 49
-1.25
  0
LTYPE
  2
DASHED2
 70
    64
  3
----    ----    ----    ----    
 72
    65
 73
     2
 40
5.0
 49
2.5
 49
-2.5
  0
LTYPE
  2
DASHED3
 70
    64
  3
------  ------  ------  ------  
 72
    65
 73
     2
 40
5.0
 49
3.75
 49
-1.25
  0
LTYPE
  2
CENTER1
 70
    64
  3
----- - ----- - ----- - ----- - 
 72
    65
 73
     4
 40
10.0
 49
6.25
 49
-1.25
 49
1.25
 49
-1.25
  0
LTYPE
  2
CENTER2
 70
    64
  3
----------  --  ----------  --  
 72
    65
 73
     4
 40
20.0
 49
12.5
 49
-2.5
 49
2.5
 49
-2.5
  0
LTYPE
  2
PHANTOM1
 70
    64
  3
--- - - --- - - --- - - --- - - 
 72
    65
 73
     6
 40
10.0
 49
3.25
 49
-1.25
 49
1.25
 49
-1.25
 49
1.25
 49
-1.25
  0
LTYPE
  2
PHANTOM2
 70
    64
  3
--------  -  -  --------  -  -  
 72
    65
 73
     6
 40
20.0
 49
10.0
 49
-2.5
 49
1.25
 49
-2.5
 49
1.25
 49
-2.5
  0
LTYPE
  2
DOT
 70
    64
  3
-   -   -   -   -   -   -   -   
 72
    65
 73
     2
 40
2.5
 49
0.625
 49
-1.875
  0
LTYPE
  2
DUMMY
 70
    64
  3
ダミー
 72
    65
 73
     0
 40
0.0
  0
LTYPE
  2
RAND1
 70
    64
  3
ランダム線1
 72
    65
 73
     4
 40
10.0
 49
1.0
 49
-2.0
 49
3.0
 49
-4.0
  0
LTYPE
  2
RAND2
 70
    64
  3
ランダム線2
 72
    65
 73
     4
 40
14.0
 49
2.0
 49
-3.0
 49
4.0
 49
-5.0
  0
LTYPE
  2
RAND3
 70
    64
  3
ランダム線3
 72
    65
 73
     4
 40
18.0
 49
3.0
 49
-4.0
 49
5.0
 49
-6.0
  0
LTYPE
  2
RAND4
 70
    64
  3
ランダム線4
 72
    65
 73
     4
 40
22.0
 49
4.0
 49
-5.0
 49
6.0
 49
-7.0
  0
LTYPE
  2
RAND5
 70
    64
  3
ランダム線5
 72
    65
 73
     4
 40
26.0
 49
5.0
 49
-6.0
 49
7.0
 49
-8.0
  0
LTYPE
  2
LONG1
 70
    64
  3
----------  --  ----------  --  
 72
    65
 73
     4
 40
40.0
 49
32.5
 49
-2.5
 49
2.5
 49
-2.5
  0
LTYPE
  2
LONG2
 70
    64
  3
--------  -  -  --------  -  -  
 72
    65
 73
     6
 40
40.0
 49
30.0
 49
-2.5
 49
1.25
 49
-2.5
 49
1.25
 49
-2.5
  0
LTYPE
  2
LONG3
 70
    64
  3
+++++++++++++++..+++++++++++++++
 72
    65
 73
     2
 40
40.0
 49
37.5
 49
-2.5
  0
LTYPE
  2
LONG4
 70
    64
  3
+++++++++++++++..+++++++++++++++
 72
    65
 73
     2
 40
80.0
 49
75.0
 49
-5.0
  0
LTYPE
  2
LONG5
 70
    64
  3
----------  --  ----------  --  
 72
    65
 73
     4
 40
60.0
 49
37.5
 49
-7.5
 49
7.5
 49
-7.5
  0
LTYPE
  2
dashed
 70
   64
  3
-------   -------------   ------
 72
   65
 73
    2
 40
7.5
 49
6
 49
-1.5
  0
LTYPE
  2
dashed_spaced
 70
   64
  3
----        --------        ----
 72
   65
 73
    2
 40
12
 49
6
 49
-6
  0
LTYPE
  2
long_dashed_dotted
 70
   64
  3
------------- --- --------------
 72
   65
 73
    4
 40
15.25
 49
12
 49
-1.5
 49
0.25
 49
-1.5
  0
LTYPE
  2
long_dashed_double-dotted
 70
   64
  3
----------- --- --- ------------
 72
   65
 73
    6
 40
17
 49
12
 49
-1.5
 49
0.25
 49
-1.5
 49
0.25
 49
-1.5
  0
LTYPE
  2
long_dashed_triplicate-dotted
 70
   64
  3
--------- --- --- --- ----------
 72
   65
 73
    8
 40
18.75
 49
12
 49
-1.5
 49
0.25
 49
-1.5
 49
0.25
 49
-1.5
 49
0.25
 49
-1.5
  0
LTYPE
  2
dotted
 70
   64
  3
   -       -       -       -    
 72
   65
 73
    2
 40
1.75
 49
0.25
 49
-1.5
  0
LTYPE
  2
chain
 70
   64
  3
-------------- -- --------------
 72
   65
 73
    4
 40
18.5
 49
12
 49
-1.5
 49
3.5
 49
-1.5
  0
LTYPE
  2
chain_double_dash
 70
   64
  3
------------ -- -- -------------
 72
   65
 73
    6
 40
23.5
 49
12
 49
-1.5
 49
3.5
 49
-1.5
 49
3.5
 49
-1.5
  0
LTYPE
  2
dashed_dotted
 70
   64
  3
-----------     -     ----------
 72
   65
 73
    4
 40
9.25
 49
6
 49
-1.5
 49
0.25
 49
-1.5
  0
LTYPE
  2
double-dashed_dotted
 70
   64
  3
------   -----------   -   -----
 72
   65
 73
    6
 40
16.75
 49
6
 49
-1.5
 49
6
 49
-1.5
 49
0.25
 49
-1.5
  0
LTYPE
  2
dashed_double-dotted
 70
   64
  3
---------    -    -    ---------
 72
   65
 73
    6
 40
11
 49
6
 49
-1.5
 49
0.25
 49
-1.5
 49
0.25
 49
-1.5
  0
LTYPE
  2
double-dashed_double-dotted
 70
   64
  3
-----   ---------   -   -   ----
 72
   65
 73
    8
 40
18.5
 49
6
 49
-1.5
 49
6
 49
-1.5
 49
0.25
 49
-1.5
 49
0.25
 49
-1.5
  0
LTYPE
  2
dashed_triplicate-dotted
 70
   64
  3
-------    -    -    -    ------
 72
   65
 73
    8
 40
12.75
 49
6
 49
-1.5
 49
0.25
 49
-1.5
 49
0.25
 49
-1.5
 49
0.25
 49
-1.5
  0
LTYPE
  2
double-dashed_triplicate-dotted
 70
   64
  3
-----  ---------  -  -  -  -----
 72
   65
 73
   10
 40
20.25
 49
6
 49
-1.5
 49
6
 49
-1.5
 49
0.25
 49
-1.5
 49
0.25
 49
-1.5
 49
0.25
 49
-1.5
  0
LTYPE
  2
undefined
 70
   64
  3
--------------------------------
 72
   65
 73
    0
 40
0
  0
LTYPE
  2
_
 70
   64
  3
                                
 72
   65
 73
    0
 40
0
  0
LTYPE
  2
__18
 70
   64
  3
                                
 72
   65
 73
    0
 40
0
  0
LTYPE
  2
__19
 70
   64
  3
                                
 72
   65
 73
    0
 40
0
  0
LTYPE
  2
__20
 70
   64
  3
                                
 72
   65
 73
    0
 40
0
  0
LTYPE
  2
__21
 70
   64
  3
                                
 72
   65
 73
    0
 40
0
  0
LTYPE
  2
__22
 70
   64
  3
                                
 72
   65
 73
    0
 40
0
  0
LTYPE
  2
__23
 70
   64
  3
                                
 72
   65
 73
    0
 40
0
  0
LTYPE
  2
__24
 70
   64
  3
                                
 72
   65
 73
    0
 40
0
  0
LTYPE
  2
__25
 70
   64
  3
                                
 72
   65
 73
    0
 40
0
  0
LTYPE
  2
__26
 70
   64
  3
                                
 72
   65
 73
    0
 40
0
  0
LTYPE
  2
__27
 70
   64
  3
                                
 72
   65
 73
    0
 40
0
  0
LTYPE
  2
__28
 70
   64
  3
                                
 72
   65
 73
    0
 40
0
  0
LTYPE
  2
__29
 70
   64
  3
                                
 72
   65
 73
    0
 40
0
  0
LTYPE
  2
__30
 70
   64
  3
                                
 72
   65
 73
    0
 40
0
  0
LTYPE
  2
__31
 70
   64
  3
                                
 72
   65
 73
    0
 40
0
  0
LTYPE
  2
__32
 70
   64
  3
                                
 72
   65
 73
    0
 40
0
  0
ENDTAB
  0
TABLE
  2
STYLE
  5
3
100
AcDbSymbolTable
 70
     1
  0
STYLE
  5
10
100
AcDbSymbolTableRecord
100
AcDbTextStyleTableRecord
  2
STANDARD
 70
     0
 40
0.0
 41
1.0
 50
0.0
 71
     0
 42
0.2
  3
txt
  4
bigfont.shx
  0
STYLE
  5
26
100
AcDbSymbolTableRecord
100
AcDbTextStyleTableRecord
  2
TATEGAKI
 70
    68
 40
0.0
 41
1.0
 50
0.0
 71
     0
 42
1.0
  3
txt
  4
bigfont.shx
  0
ENDTAB
  0
TABLE
  2
LAYER
 70
    4
  0
LAYER
  2
_0-1_レイヤ___1
 70
   64
 62
    7
  6
CONTINUOUS
  0
LAYER
  2
_0-7_
 70
   64
 62
    7
  6
CONTINUOUS
  0
LAYER
  2
_f-0_
 70
   64
 62
    7
  6
CONTINUOUS
  0
LAYER
  2
ADD_LINE
 70
   64
 62
    7
  6
CONTINUOUS
  0
ENDTAB
  0
ENDSEC
  0
SECTION
  2
BLOCKS
  0
ENDSEC
  0
SECTION
  2
ENTITIES
  0
LINE
  8
_0-1_レイヤ___1
  6
CONTINUOUS
 62
    7
 10
1350.5930450000003
 20
1300.7185449999999
 11
1348.4760350000001
 21
1295.6387549999999
  0
LINE
  8
_0-1_レイヤ___1
  6
CONTINUOUS
 62
    7
 10
1348.4760350000001
 20
1295.6387549999999
 11
1345.5115250000003
 21
1290.9827050000001
  0
LINE
  8
_0-1_レイヤ___1
  6
CONTINUOUS
 62
    7
 10
1345.5115250000003
 20
1290.9827050000001
 11
1342.1249950000001
 21
1286.748685
  0
LINE
  8
_0-1_レイヤ___1
  6
CONTINUOUS
 62
    7
 10
1342.1249950000001
 20
1286.748685
 11
1338.3164450000002
 21
1282.5163850000001
  0
LINE
  8
_0-1_レイヤ___1
  6
CONTINUOUS
 62
    7
 10
1338.3164450000002
 20
1282.5163850000001
 11
1334.5061650000002
 21
1278.706105
  0
LINE
  8
_0-1_レイヤ___1
  6
CONTINUOUS
 62
    7
 10
602.98492500000009
 20
1513.6547350000001
 11
602.98492500000009
 21
1743.9490249999999
  0
LINE
  8
_0-1_レイヤ___1
  6
CONTINUOUS
 62
    7
 10
602.98492500000009
 20
1743.9490249999999
 11
602.98492500000009
 21
1749.0288250000001
  0
LINE
  8
_0-1_レイヤ___1
  6
CONTINUOUS
 62
    7
 10
602.98492500000009
 20
1749.0288250000001
 11
603.83242500000028
 21
1753.6848649999999
  0
LINE
  8
_0-1_レイヤ___1
  6
CONTINUOUS
 62
    7
 10
603.83242500000028
 20
1753.6848649999999
 11
605.10194500000011
 21
1758.342635
  0
LINE
  8
_0-1_レイヤ___1
  6
CONTINUOUS
 62
    7
 10
605.10194500000011
 20
1758.342635
 11
606.79520500000024
 21
1762.998685
  0
LINE
  8
_0-1_レイヤ___1
  6
CONTINUOUS
 62
    7
 10
606.79520500000024
 20
1762.998685
 11
608.48846500000013
 21
1767.2327050000001
  0
LINE
  8
_0-1_レイヤ___1
  6
CONTINUOUS
 62
    7
 10
608.48846500000013
 20
1767.2327050000001
 11
611.029225
 21
1771.465005
  0
LINE
  8
_0-1_レイヤ___1
  6
CONTINUOUS
 62
    7
 10
611.029225
 20
1771.465005
 11
613.99200500000006
 21
1775.2752850000002
  0
LINE
  8
_0-1_レイヤ___1
  6
CONTINUOUS
 62
    7
 10
613.99200500000006
 20
1775.2752850000002
 11
617.37853500000017
 21
1778.6618150000002
  0
LINE
  8
_0-1_レイヤ___1
  6
CONTINUOUS
 62
    7
 10
617.37853500000017
 20
1778.6618150000002
 11
620.76506500000028
 21
1782.0483450000002
  0
LINE
  8
_0-1_レイヤ___1
  6
CONTINUOUS
 62
    7
 10
620.76506500000028
 20
1782.0483450000002
 11
624.57534500000008
 21
1785.012845
  0
LINE
  8
_0-1_レイヤ___1
  6
CONTINUOUS
 62
    7
 10
624.57534500000008
 20
1785.012845
 11
628.80936500000018
 21
1787.5518850000001
  0
LINE
  8
_0-1_レイヤ___1
  6
CONTINUOUS
 62
    7
 10
628.80936500000018
 20
1787.5518850000001
 11
633.04166500000008
 21
1789.2451450000001
  0
LINE
  8
_0-1_レイヤ___1
  6
CONTINUOUS
 62
    7
 10
633.04166500000008
 20
1789.2451450000001
 11
637.69943500000011
 21
1790.9384049999999
  0
LINE
  8
_0-1_レイヤ___1
  6
CONTINUOUS
 62
    7
 10
637.69943500000011
 20
1790.9384049999999
 11
642.35548500000027
 21
1792.2096450000001
  0
LINE
  8
_0-1_レイヤ___1
  6
CONTINUOUS
 62
    7
 10
642.35548500000027
 20
1792.2096450000001
 11
647.01152500000012
 21
1793.055425
  0
LINE
  8
_0-1_レイヤ___1
  6
CONTINUOUS
 62
    7
 10
647.01152500000012
 20
1793.055425
 11
652.09304500000019
 21
1793.055425
  0
LINE
  8
_0-1_レイヤ___1
  6
CONTINUOUS
 62
    7
 10
652.09304500000019
 20
1793.055425
 11
996.26152500000012
 21
1793.055425
  0
LINE
  8
_0-1_レイヤ___1
  6
CONTINUOUS
 62
    7
 10
996.26152500000012
 20
1793.055425
 11
1340.855485
 21
1793.055425
  0
LINE
  8
_0-1_レイヤ___1
  6
CONTINUOUS
 62
    7
 10
1340.855485
 20
1793.055425
 11
1345.5115250000003
 21
1793.055425
  0
LINE
  8
_0-1_レイヤ___1
  6
CONTINUOUS
 62
    7
 10
1345.5115250000003
 20
1793.055425
 11
1350.5930450000003
 21
1792.2096450000001
  0
LINE
  8
_0-1_レイヤ___1
  6
CONTINUOUS
 62
    7
 10
1350.5930450000003
 20
1792.2096450000001
 11
1355.2490850000002
 21
1790.9384049999999
  0
LINE
  8
_0-1_レイヤ___1
  6
CONTINUOUS
 62
    7
 10
1355.2490850000002
 20
1790.9384049999999
 11
1359.4831150000002
 21
1789.2451450000001
  0
LINE
  8
_0-1_レイヤ___1
  6
CONTINUOUS
 62
    7
 10
1359.4831150000002
 20
1789.2451450000001
 11
1364.1391550000001
 21
1787.5518850000001
  0
LINE
  8
_0-1_レイヤ___1
  6
CONTINUOUS
 62
    7
 10
1364.1391550000001
 20
1787.5518850000001
 11
1367.9494350000002
 21
1785.012845
  0
LINE
  8
_0-1_レイヤ___1
  6
CONTINUOUS
 62
    7
 10
1367.9494350000002
 20
1785.012845
 11
1372.1817350000001
 21
1782.0483450000002
  0
LINE
  8
_0-1_レイヤ___1
  6
CONTINUOUS
 62
    7
 10
1372.1817350000001
 20
1782.0483450000002
 11
1375.5682650000003
 21
1778.6618150000002
  0
LINE
  8
_0-1_レイヤ___1
  6
CONTINUOUS
 62
    7
 10
1375.5682650000003
 20
1778.6618150000002
 11
1378.9547950000001
 21
1775.2752850000002
  0
LINE
  8
_0-1_レイヤ___1
  6
CONTINUOUS
 62
    7
 10
1378.9547950000001
 20
1775.2752850000002
 11
1381.4955450000002
 21
1771.465005
  0
LINE
  8
_0-1_レイヤ___1
  6
CONTINUOUS
 62
    7
 10
1381.4955450000002
 20
1771.465005
 11
1384.0363050000001
 21
1767.2327050000001
  0
LINE
  8
_0-1_レイヤ___1
  6
CONTINUOUS
 62
    7
 10
1384.0363050000001
 20
1767.2327050000001
 11
1386.151595
 21
1762.998685
  0
LINE
  8
_0-1_レイヤ___1
  6
CONTINUOUS
 62
    7
 10
1386.151595
 20
1762.998685
 11
1387.844865
 21
1758.342635
  0
LINE
  8
_0-1_レイヤ___1
  6
CONTINUOUS
 62
    7
 10
1387.844865
 20
1758.342635
 11
1389.1161050000003
 21
1753.6848649999999
  0
LINE
  8
_0-1_レイヤ___1
  6
CONTINUOUS
 62
    7
 10
1389.1161050000003
 20
1753.6848649999999
 11
1389.5381250000003
 21
1749.0288250000001
  0
LINE
  8
_0-1_レイヤ___1
  6
CONTINUOUS
 62
    7
 10
1389.5381250000003
 20
1749.0288250000001
 11
1389.9618750000002
 21
1743.9490249999999
  0
LINE
  8
_0-1_レイヤ___1
  6
CONTINUOUS
 62
    7
 10
1389.9618750000002
 20
1743.9490249999999
 11
1389.9618750000002
 21
1513.6547350000001
  0
LINE
  8
_0-1_レイヤ___1
  6
CONTINUOUS
 62
    7
 10
1389.9618750000002
 20
1513.6547350000001
 11
1389.9618750000002
 21
1283.362155
  0
LINE
  8
_0-1_レイヤ___1
  6
CONTINUOUS
 62
    7
 10
1389.9618750000002
 20
1283.362155
 11
1389.5381250000003
 21
1278.282365
  0
LINE
  8
_0-1_レイヤ___1
  6
CONTINUOUS
 62
    7
 10
1389.5381250000003
 20
1278.282365
 11
1389.1161050000003
 21
1273.626315
  0
LINE
  8
_0-1_レイヤ___1
  6
CONTINUOUS
 62
    7
 10
1389.1161050000003
 20
1273.626315
 11
1387.844865
 21
1268.9685449999999
  0
LINE
  8
_0-1_レイヤ___1
  6
CONTINUOUS
 62
    7
 10
1387.844865
 20
1268.9685449999999
 11
1386.151595
 21
1264.3125050000001
  0
LINE
  8
_0-1_レイヤ___1
  6
CONTINUOUS
 62
    7
 10
1386.151595
 20
1264.3125050000001
 11
1384.0363050000001
 21
1260.078475
  0
LINE
  8
_0-1_レイヤ___1
  6
CONTINUOUS
 62
    7
 10
1384.0363050000001
 20
1260.078475
 11
1381.4955450000002
 21
1255.8461750000001
  0
LINE
  8
_0-1_レイヤ___1
  6
CONTINUOUS
 62
    7
 10
1381.4955450000002
 20
1255.8461750000001
 11
1378.9547950000001
 21
1252.035905
  0
LINE
  8
_0-1_レイヤ___1
  6
CONTINUOUS
 62
    7
 10
1378.9547950000001
 20
1252.035905
 11
1375.5682650000003
 21
1248.649375
  0
LINE
  8
_0-1_レイヤ___1
  6
CONTINUOUS
 62
    7
 10
1375.5682650000003
 20
1248.649375
 11
1372.1817350000001
 21
1245.262845
  0
LINE
  8
_0-1_レイヤ___1
  6
CONTINUOUS
 62
    7
 10
1372.1817350000001
 20
1245.262845
 11
1367.9494350000002
 21
1242.2983450000002
  0
LINE
  8
_0-1_レイヤ___1
  6
CONTINUOUS
 62
    7
 10
1367.9494350000002
 20
1242.2983450000002
 11
1364.1391550000001
 21
1239.759305
  0
LINE
  8
_0-1_レイヤ___1
  6
CONTINUOUS
 62
    7
 10
1364.1391550000001
 20
1239.759305
 11
1359.4831150000002
 21
1238.066045
  0
LINE
  8
_0-1_レイヤ___1
  6
CONTINUOUS
 62
    7
 10
1359.4831150000002
 20
1238.066045
 11
1355.2490850000002
 21
1236.372775
  0
LINE
  8
_0-1_レイヤ___1
  6
CONTINUOUS
 62
    7
 10
1355.2490850000002
 20
1236.372775
 11
1350.5930450000003
 21
1235.101535
  0
LINE
  8
_0-1_レイヤ___1
  6
CONTINUOUS
 62
    7
 10
1350.5930450000003
 20
1235.101535
 11
1345.5115250000003
 21
1234.2557650000001
  0
LINE
  8
_0-1_レイヤ___1
  6
CONTINUOUS
 62
    7
 10
1345.5115250000003
 20
1234.2557650000001
 11
1340.855485
 21
1234.2557650000001
  0
LINE
  8
_0-1_レイヤ___1
  6
CONTINUOUS
 62
    7
 10
1340.855485
 20
1234.2557650000001
 11
996.26152500000012
 21
1234.2557650000001
  0
LINE
  8
_0-1_レイヤ___1
  6
CONTINUOUS
 62
    7
 10
996.26152500000012
 20
1234.2557650000001
 11
652.09304500000019
 21
1234.2557650000001
  0
LINE
  8
_0-1_レイヤ___1
  6
CONTINUOUS
 62
    7
 10
652.09304500000019
 20
1234.2557650000001
 11
647.01152500000012
 21
1234.2557650000001
  0
LINE
  8
_0-1_レイヤ___1
  6
CONTINUOUS
 62
    7
 10
647.01152500000012
 20
1234.2557650000001
 11
642.35548500000027
 21
1235.101535
  0
LINE
  8
_0-1_レイヤ___1
  6
CONTINUOUS
 62
    7
 10
642.35548500000027
 20
1235.101535
 11
637.69943500000011
 21
1236.372775
  0
LINE
  8
_0-1_レイヤ___1
  6
CONTINUOUS
 62
    7
 10
637.69943500000011
 20
1236.372775
 11
633.04166500000008
 21
1238.066045
  0
LINE
  8
_0-1_レイヤ___1
  6
CONTINUOUS
 62
    7
 10
633.04166500000008
 20
1238.066045
 11
628.80936500000018
 21
1239.759305
  0
LINE
  8
_0-1_レイヤ___1
  6
CONTINUOUS
 62
    7
 10
628.80936500000018
 20
1239.759305
 11
624.57534500000008
 21
1242.2983450000002
  0
LINE
  8
_0-1_レイヤ___1
  6
CONTINUOUS
 62
    7
 10
624.57534500000008
 20
1242.2983450000002
 11
620.76506500000028
 21
1245.262845
  0
LINE
  8
_0-1_レイヤ___1
  6
CONTINUOUS
 62
    7
 10
620.76506500000028
 20
1245.262845
 11
617.37853500000017
 21
1248.649375
  0
LINE
  8
_0-1_レイヤ___1
  6
CONTINUOUS
 62
    7
 10
617.37853500000017
 20
1248.649375
 11
613.99200500000006
 21
1252.035905
  0
LINE
  8
_0-1_レイヤ___1
  6
CONTINUOUS
 62
    7
 10
613.99200500000006
 20
1252.035905
 11
611.029225
 21
1255.8461750000001
  0
LINE
  8
_0-1_レイヤ___1
  6
CONTINUOUS
 62
    7
 10
611.029225
 20
1255.8461750000001
 11
608.48846500000013
 21
1260.078475
  0
LINE
  8
_0-1_レイヤ___1
  6
CONTINUOUS
 62
    7
 10
608.48846500000013
 20
1260.078475
 11
606.79520500000024
 21
1264.3125050000001
  0
LINE
  8
_0-1_レイヤ___1
  6
CONTINUOUS
 62
    7
 10
606.79520500000024
 20
1264.3125050000001
 11
605.10194500000011
 21
1268.9685449999999
  0
LINE
  8
_0-1_レイヤ___1
  6
CONTINUOUS
 62
    7
 10
605.10194500000011
 20
1268.9685449999999
 11
603.83242500000028
 21
1273.626315
  0
LINE
  8
_0-1_レイヤ___1
  6
CONTINUOUS
 62
    7
 10
603.83242500000028
 20
1273.626315
 11
602.98492500000009
 21
1278.282365
  0
LINE
  8
_0-1_レイヤ___1
  6
CONTINUOUS
 62
    7
 10
602.98492500000009
 20
1278.282365
 11
602.98492500000009
 21
1283.362155
  0
LINE
  8
_0-1_レイヤ___1
  6
CONTINUOUS
 62
    7
 10
602.98492500000009
 20
1283.362155
 11
602.98492500000009
 21
1513.6547350000001
  0
LINE
  8
_0-1_レイヤ___1
  6
CONTINUOUS
 62
    7
 10
653.78630500000008
 20
1474.2859050000002
 11
653.78630500000008
 21
1624.1458349999998
  0
LINE
  8
_0-1_レイヤ___1
  6
CONTINUOUS
 62
    7
 10
653.78630500000008
 20
1624.1458349999998
 11
654.6320750000001
 21
1632.1884049999999
  0
LINE
  8
_0-1_レイヤ___1
  6
CONTINUOUS
 62
    7
 10
654.6320750000001
 20
1632.1884049999999
 11
657.17283500000008
 21
1640.2327049999999
  0
LINE
  8
_0-1_レイヤ___1
  6
CONTINUOUS
 62
    7
 10
657.17283500000008
 20
1640.2327049999999
 11
660.98311500000023
 21
1647.429515
  0
LINE
  8
_0-1_レイヤ___1
  6
CONTINUOUS
 62
    7
 10
660.98311500000023
 20
1647.429515
 11
666.06290500000011
 21
1653.7788249999999
  0
LINE
  8
_0-1_レイヤ___1
  6
CONTINUOUS
 62
    7
 10
666.06290500000011
 20
1653.7788249999999
 11
672.41221500000029
 21
1659.282365
  0
LINE
  8
_0-1_レイヤ___1
  6
CONTINUOUS
 62
    7
 10
672.41221500000029
 20
1659.282365
 11
680.03276500000015
 21
1663.0926350000002
  0
LINE
  8
_0-1_レイヤ___1
  6
CONTINUOUS
 62
    7
 10
680.03276500000015
 20
1663.0926350000002
 11
687.65159500000004
 21
1665.2096449999999
  0
LINE
  8
_0-1_レイヤ___1
  6
CONTINUOUS
 62
    7
 10
687.65159500000004
 20
1665.2096449999999
 11
695.69589500000018
 21
1666.055425
  0
LINE
  8
_0-1_レイヤ___1
  6
CONTINUOUS
 62
    7
 10
695.69589500000018
 20
1666.055425
 11
996.26152500000012
 21
1666.055425
  0
LINE
  8
_0-1_レイヤ___1
  6
CONTINUOUS
 62
    7
 10
996.26152500000012
 20
1666.055425
 11
1296.8288850000001
 21
1666.055425
  0
LINE
  8
_0-1_レイヤ___1
  6
CONTINUOUS
 62
    7
 10
1296.8288850000001
 20
1666.055425
 11
1305.2952050000001
 21
1665.2096449999999
  0
LINE
  8
_0-1_レイヤ___1
  6
CONTINUOUS
 62
    7
 10
1305.2952050000001
 20
1665.2096449999999
 11
1312.9157550000002
 21
1663.0926350000002
  0
LINE
  8
_0-1_レイヤ___1
  6
CONTINUOUS
 62
    7
 10
1312.9157550000002
 20
1663.0926350000002
 11
1320.1125649999999
 21
1659.282365
  0
LINE
  8
_0-1_レイヤ___1
  6
CONTINUOUS
 62
    7
 10
1320.1125649999999
 20
1659.282365
 11
1326.4618750000002
 21
1653.7788249999999
  0
LINE
  8
_0-1_レイヤ___1
  6
CONTINUOUS
 62
    7
 10
1326.4618750000002
 20
1653.7788249999999
 11
1331.9654150000001
 21
1647.429515
  0
LINE
  8
_0-1_レイヤ___1
  6
CONTINUOUS
 62
    7
 10
1331.9654150000001
 20
1647.429515
 11
1335.7756850000001
 21
1640.2327049999999
  0
LINE
  8
_0-1_レイヤ___1
  6
CONTINUOUS
 62
    7
 10
1335.7756850000001
 20
1640.2327049999999
 11
1337.8926950000002
 21
1632.1884049999999
  0
LINE
  8
_0-1_レイヤ___1
  6
CONTINUOUS
 62
    7
 10
1337.8926950000002
 20
1632.1884049999999
 11
1338.7384650000001
 21
1624.1458349999998
  0
LINE
  8
_0-1_レイヤ___1
  6
CONTINUOUS
 62
    7
 10
1338.7384650000001
 20
1624.1458349999998
 11
1338.7384650000001
 21
1474.2859050000002
  0
LINE
  8
_0-1_レイヤ___1
  6
CONTINUOUS
 62
    7
 10
1338.7384650000001
 20
1474.2859050000002
 11
1338.7384650000001
 21
1324.0022250000002
  0
LINE
  8
_0-1_レイヤ___1
  6
CONTINUOUS
 62
    7
 10
1338.7384650000001
 20
1324.0022250000002
 11
1337.8926950000002
 21
1315.9596450000001
  0
LINE
  8
_0-1_レイヤ___1
  6
CONTINUOUS
 62
    7
 10
1337.8926950000002
 20
1315.9596450000001
 11
1335.7756850000001
 21
1307.9153550000001
  0
LINE
  8
_0-1_レイヤ___1
  6
CONTINUOUS
 62
    7
 10
1335.7756850000001
 20
1307.9153550000001
 11
1331.9654150000001
 21
1300.7185449999999
  0
LINE
  8
_0-1_レイヤ___1
  6
CONTINUOUS
 62
    7
 10
1331.9654150000001
 20
1300.7185449999999
 11
1326.4618750000002
 21
1294.3692350000001
  0
LINE
  8
_0-1_レイヤ___1
  6
CONTINUOUS
 62
    7
 10
1326.4618750000002
 20
1294.3692350000001
 11
1320.1125649999999
 21
1289.2894449999999
  0
LINE
  8
_0-1_レイヤ___1
  6
CONTINUOUS
 62
    7
 10
1320.1125649999999
 20
1289.2894449999999
 11
1312.9157550000002
 21
1285.4791649999997
  0
LINE
  8
_0-1_レイヤ___1
  6
CONTINUOUS
 62
    7
 10
1312.9157550000002
 20
1285.4791649999997
 11
1305.2952050000001
 21
1282.9384049999999
  0
LINE
  8
_0-1_レイヤ___1
  6
CONTINUOUS
 62
    7
 10
1305.2952050000001
 20
1282.9384049999999
 11
1296.8288850000001
 21
1282.0926350000002
  0
LINE
  8
_0-1_レイヤ___1
  6
CONTINUOUS
 62
    7
 10
1296.8288850000001
 20
1282.0926350000002
 11
996.26152500000012
 21
1282.0926350000002
  0
LINE
  8
_0-1_レイヤ___1
  6
CONTINUOUS
 62
    7
 10
996.26152500000012
 20
1282.0926350000002
 11
695.69589500000018
 21
1282.0926350000002
  0
LINE
  8
_0-1_レイヤ___1
  6
CONTINUOUS
 62
    7
 10
695.69589500000018
 20
1282.0926350000002
 11
687.65159500000004
 21
1282.9384049999999
  0
LINE
  8
_0-1_レイヤ___1
  6
CONTINUOUS
 62
    7
 10
687.65159500000004
 20
1282.9384049999999
 11
680.03276500000015
 21
1285.4791649999997
  0
LINE
  8
_0-1_レイヤ___1
  6
CONTINUOUS
 62
    7
 10
680.03276500000015
 20
1285.4791649999997
 11
672.41221500000029
 21
1289.2894449999999
  0
LINE
  8
_0-1_レイヤ___1
  6
CONTINUOUS
 62
    7
 10
672.41221500000029
 20
1289.2894449999999
 11
666.06290500000011
 21
1294.3692350000001
  0
LINE
  8
_0-1_レイヤ___1
  6
CONTINUOUS
 62
    7
 10
666.06290500000011
 20
1294.3692350000001
 11
660.98311500000023
 21
1300.7185449999999
  0
LINE
  8
_0-1_レイヤ___1
  6
CONTINUOUS
 62
    7
 10
660.98311500000023
 20
1300.7185449999999
 11
657.17283500000008
 21
1307.9153550000001
  0
LINE
  8
_0-1_レイヤ___1
  6
CONTINUOUS
 62
    7
 10
657.17283500000008
 20
1307.9153550000001
 11
654.6320750000001
 21
1315.9596450000001
  0
LINE
  8
_0-1_レイヤ___1
  6
CONTINUOUS
 62
    7
 10
654.6320750000001
 20
1315.9596450000001
 11
653.78630500000008
 21
1324.0022250000002
  0
LINE
  8
_0-1_レイヤ___1
  6
CONTINUOUS
 62
    7
 10
653.78630500000008
 20
1324.0022250000002
 11
653.78630500000008
 21
1474.2859050000002
  0
LINE
  8
_0-1_レイヤ___1
  6
CONTINUOUS
 62
    7
 10
637.69943500000011
 20
1474.2859050000002
 11
637.69943500000011
 21
1626.262845
  0
LINE
  8
_0-1_レイヤ___1
  6
CONTINUOUS
 62
    7
 10
637.69943500000011
 20
1626.262845
 11
638.1214550000002
 21
1631.7663849999999
  0
LINE
  8
_0-1_レイヤ___1
  6
CONTINUOUS
 62
    7
 10
638.1214550000002
 20
1631.7663849999999
 11
638.96895500000016
 21
1637.2682050000001
  0
LINE
  8
_0-1_レイヤ___1
  6
CONTINUOUS
 62
    7
 10
638.96895500000016
 20
1637.2682050000001
 11
640.23846500000013
 21
1642.3497150000001
  0
LINE
  8
_0-1_レイヤ___1
  6
CONTINUOUS
 62
    7
 10
640.23846500000013
 20
1642.3497150000001
 11
642.35548500000027
 21
1647.429515
  0
LINE
  8
_0-1_レイヤ___1
  6
CONTINUOUS
 62
    7
 10
642.35548500000027
 20
1647.429515
 11
644.47249500000009
 21
1652.509305
  0
LINE
  8
_0-1_レイヤ___1
  6
CONTINUOUS
 62
    7
 10
644.47249500000009
 20
1652.509305
 11
647.43527500000016
 21
1657.1653549999999
  0
LINE
  8
_0-1_レイヤ___1
  6
CONTINUOUS
 62
    7
 10
647.43527500000016
 20
1657.1653549999999
 11
650.3997750000002
 21
1661.8213949999999
  0
LINE
  8
_0-1_レイヤ___1
  6
CONTINUOUS
 62
    7
 10
650.3997750000002
 20
1661.8213949999999
 11
654.20833500000015
 21
1665.6316749999999
  0
LINE
  8
_0-1_レイヤ___1
  6
CONTINUOUS
 62
    7
 10
654.20833500000015
 20
1665.6316749999999
 11
658.44235500000025
 21
1669.441945
  0
LINE
  8
_0-1_レイヤ___1
  6
CONTINUOUS
 62
    7
 10
658.44235500000025
 20
1669.441945
 11
662.67637500000001
 21
1672.828475
  0
LINE
  8
_0-1_レイヤ___1
  6
CONTINUOUS
 62
    7
 10
662.67637500000001
 20
1672.828475
 11
667.33242500000017
 21
1675.3692350000001
  0
LINE
  8
_0-1_レイヤ___1
  6
CONTINUOUS
 62
    7
 10
667.33242500000017
 20
1675.3692350000001
 11
672.41221500000029
 21
1677.908275
  0
LINE
  8
_0-1_レイヤ___1
  6
CONTINUOUS
 62
    7
 10
672.41221500000029
 20
1677.908275
 11
677.49200500000018
 21
1679.6015349999998
  0
LINE
  8
_0-1_レイヤ___1
  6
CONTINUOUS
 62
    7
 10
677.49200500000018
 20
1679.6015349999998
 11
682.99554500000011
 21
1680.872775
  0
LINE
  8
_0-1_レイヤ___1
  6
CONTINUOUS
 62
    7
 10
682.99554500000011
 20
1680.872775
 11
688.49908500000015
 21
1681.7185449999999
  0
LINE
  8
_0-1_レイヤ___1
  6
CONTINUOUS
 62
    7
 10
688.49908500000015
 20
1681.7185449999999
 11
694.00262500000008
 21
1682.1422950000001
  0
LINE
  8
_0-1_レイヤ___1
  6
CONTINUOUS
 62
    7
 10
694.00262500000008
 20
1682.1422950000001
 11
996.26152500000012
 21
1682.1422950000001
  0
LINE
  8
_0-1_レイヤ___1
  6
CONTINUOUS
 62
    7
 10
996.26152500000012
 20
1682.1422950000001
 11
1298.9458949999998
 21
1682.1422950000001
  0
LINE
  8
_0-1_レイヤ___1
  6
CONTINUOUS
 62
    7
 10
1298.9458949999998
 20
1682.1422950000001
 11
1304.4494350000002
 21
1681.7185449999999
  0
LINE
  8
_0-1_レイヤ___1
  6
CONTINUOUS
 62
    7
 10
1304.4494350000002
 20
1681.7185449999999
 11
1309.9529750000002
 21
1680.872775
  0
LINE
  8
_0-1_レイヤ___1
  6
CONTINUOUS
 62
    7
 10
1309.9529750000002
 20
1680.872775
 11
1315.0327650000004
 21
1679.6015349999998
  0
LINE
  8
_0-1_レイヤ___1
  6
CONTINUOUS
 62
    7
 10
1315.0327650000004
 20
1679.6015349999998
 11
1320.5363050000001
 21
1677.908275
  0
LINE
  8
_0-1_レイヤ___1
  6
CONTINUOUS
 62
    7
 10
1320.5363050000001
 20
1677.908275
 11
1325.1923550000004
 21
1675.3692350000001
  0
LINE
  8
_0-1_レイヤ___1
  6
CONTINUOUS
 62
    7
 10
1325.1923550000004
 20
1675.3692350000001
 11
1329.8484050000002
 21
1672.828475
  0
LINE
  8
_0-1_レイヤ___1
  6
CONTINUOUS
 62
    7
 10
1329.8484050000002
 20
1672.828475
 11
1334.5061650000002
 21
1669.441945
  0
LINE
  8
_0-1_レイヤ___1
  6
CONTINUOUS
 62
    7
 10
1334.5061650000002
 20
1669.441945
 11
1338.3164450000002
 21
1665.6316749999999
  0
LINE
  8
_0-1_レイヤ___1
  6
CONTINUOUS
 62
    7
 10
1338.3164450000002
 20
1665.6316749999999
 11
1342.1249950000001
 21
1661.8213949999999
  0
LINE
  8
_0-1_レイヤ___1
  6
CONTINUOUS
 62
    7
 10
1342.1249950000001
 20
1661.8213949999999
 11
1345.5115250000003
 21
1657.1653549999999
  0
LINE
  8
_0-1_レイヤ___1
  6
CONTINUOUS
 62
    7
 10
1345.5115250000003
 20
1657.1653549999999
 11
1348.4760350000001
 21
1652.509305
  0
LINE
  8
_0-1_レイヤ___1
  6
CONTINUOUS
 62
    7
 10
1348.4760350000001
 20
1652.509305
 11
1350.5930450000003
 21
1647.429515
  0
LINE
  8
_0-1_レイヤ___1
  6
CONTINUOUS
 62
    7
 10
1350.5930450000003
 20
1647.429515
 11
1352.2863050000001
 21
1642.3497150000001
  0
LINE
  8
_0-1_レイヤ___1
  6
CONTINUOUS
 62
    7
 10
1352.2863050000001
 20
1642.3497150000001
 11
1353.9795750000003
 21
1637.2682050000001
  0
LINE
  8
_0-1_レイヤ___1
  6
CONTINUOUS
 62
    7
 10
1353.9795750000003
 20
1637.2682050000001
 11
1354.8253450000002
 21
1631.7663849999999
  0
LINE
  8
_0-1_レイヤ___1
  6
CONTINUOUS
 62
    7
 10
1354.8253450000002
 20
1631.7663849999999
 11
1354.8253450000002
 21
1626.262845
  0
LINE
  8
_0-1_レイヤ___1
  6
CONTINUOUS
 62
    7
 10
1354.8253450000002
 20
1626.262845
 11
1354.8253450000002
 21
1474.2859050000002
  0
LINE
  8
_0-1_レイヤ___1
  6
CONTINUOUS
 62
    7
 10
1354.8253450000002
 20
1474.2859050000002
 11
1354.8253450000002
 21
1322.3089649999999
  0
LINE
  8
_0-1_レイヤ___1
  6
CONTINUOUS
 62
    7
 10
1354.8253450000002
 20
1322.3089649999999
 11
1354.8253450000002
 21
1316.805425
  0
LINE
  8
_0-1_レイヤ___1
  6
CONTINUOUS
 62
    7
 10
1354.8253450000002
 20
1316.805425
 11
1353.9795750000003
 21
1311.3018850000001
  0
LINE
  8
_0-1_レイヤ___1
  6
CONTINUOUS
 62
    7
 10
1353.9795750000003
 20
1311.3018850000001
 11
1352.2863050000001
 21
1305.7983450000002
  0
LINE
  8
_0-1_レイヤ___1
  6
CONTINUOUS
 62
    7
 10
1352.2863050000001
 20
1305.7983450000002
 11
1350.5930450000003
 21
1300.7185449999999
  0
LINE
  8
_0-1_レイヤ___1
  6
CONTINUOUS
 62
    7
 10
1334.5061650000002
 20
1278.706105
 11
1329.8484050000002
 21
1275.7416050000002
  0
LINE
  8
_0-1_レイヤ___1
  6
CONTINUOUS
 62
    7
 10
1329.8484050000002
 20
1275.7416050000002
 11
1325.1923550000004
 21
1272.7788250000001
  0
LINE
  8
_0-1_レイヤ___1
  6
CONTINUOUS
 62
    7
 10
1325.1923550000004
 20
1272.7788250000001
 11
1320.5363050000001
 21
1270.238065
  0
LINE
  8
_0-1_レイヤ___1
  6
CONTINUOUS
 62
    7
 10
1320.5363050000001
 20
1270.238065
 11
1315.0327650000004
 21
1268.544795
  0
LINE
  8
_0-1_レイヤ___1
  6
CONTINUOUS
 62
    7
 10
1315.0327650000004
 20
1268.544795
 11
1309.9529750000002
 21
1267.2752850000002
  0
LINE
  8
_0-1_レイヤ___1
  6
CONTINUOUS
 62
    7
 10
1309.9529750000002
 20
1267.2752850000002
 11
1304.4494350000002
 21
1266.429515
  0
LINE
  8
_0-1_レイヤ___1
  6
CONTINUOUS
 62
    7
 10
1304.4494350000002
 20
1266.429515
 11
1298.9458949999998
 21
1266.0057650000001
  0
LINE
  8
_0-1_レイヤ___1
  6
CONTINUOUS
 62
    7
 10
1298.9458949999998
 20
1266.0057650000001
 11
996.26152500000012
 21
1266.0057650000001
  0
LINE
  8
_0-1_レイヤ___1
  6
CONTINUOUS
 62
    7
 10
996.26152500000012
 20
1266.0057650000001
 11
694.00262500000008
 21
1266.0057650000001
  0
LINE
  8
_0-1_レイヤ___1
  6
CONTINUOUS
 62
    7
 10
694.00262500000008
 20
1266.0057650000001
 11
688.49908500000015
 21
1266.429515
  0
LINE
  8
_0-1_レイヤ___1
  6
CONTINUOUS
 62
    7
 10
688.49908500000015
 20
1266.429515
 11
682.99554500000011
 21
1267.2752850000002
  0
LINE
  8
_0-1_レイヤ___1
  6
CONTINUOUS
 62
    7
 10
682.99554500000011
 20
1267.2752850000002
 11
677.49200500000018
 21
1268.544795
  0
LINE
  8
_0-1_レイヤ___1
  6
CONTINUOUS
 62
    7
 10
677.49200500000018
 20
1268.544795
 11
672.41221500000029
 21
1270.238065
  0
LINE
  8
_0-1_レイヤ___1
  6
CONTINUOUS
 62
    7
 10
672.41221500000029
 20
1270.238065
 11
667.33242500000017
 21
1272.7788250000001
  0
LINE
  8
_0-1_レイヤ___1
  6
CONTINUOUS
 62
    7
 10
667.33242500000017
 20
1272.7788250000001
 11
662.67637500000001
 21
1275.7416050000002
  0
LINE
  8
_0-1_レイヤ___1
  6
CONTINUOUS
 62
    7
 10
662.67637500000001
 20
1275.7416050000002
 11
658.44235500000025
 21
1278.706105
  0
LINE
  8
_0-1_レイヤ___1
  6
CONTINUOUS
 62
    7
 10
658.44235500000025
 20
1278.706105
 11
654.20833500000015
 21
1282.5163850000001
  0
LINE
  8
_0-1_レイヤ___1
  6
CONTINUOUS
 62
    7
 10
654.20833500000015
 20
1282.5163850000001
 11
650.3997750000002
 21
1286.748685
  0
LINE
  8
_0-1_レイヤ___1
  6
CONTINUOUS
 62
    7
 10
650.3997750000002
 20
1286.748685
 11
647.43527500000016
 21
1290.9827050000001
  0
LINE
  8
_0-1_レイヤ___1
  6
CONTINUOUS
 62
    7
 10
647.43527500000016
 20
1290.9827050000001
 11
644.47249500000009
 21
1295.6387549999999
  0
LINE
  8
_0-1_レイヤ___1
  6
CONTINUOUS
 62
    7
 10
644.47249500000009
 20
1295.6387549999999
 11
642.35548500000027
 21
1300.7185449999999
  0
LINE
  8
_0-1_レイヤ___1
  6
CONTINUOUS
 62
    7
 10
642.35548500000027
 20
1300.7185449999999
 11
640.23846500000013
 21
1305.7983450000002
  0
LINE
  8
_0-1_レイヤ___1
  6
CONTINUOUS
 62
    7
 10
640.23846500000013
 20
1305.7983450000002
 11
638.96895500000016
 21
1311.3018850000001
  0
LINE
  8
_0-1_レイヤ___1
  6
CONTINUOUS
 62
    7
 10
638.96895500000016
 20
1311.3018850000001
 11
638.1214550000002
 21
1316.805425
  0
LINE
  8
_0-1_レイヤ___1
  6
CONTINUOUS
 62
    7
 10
638.1214550000002
 20
1316.805425
 11
637.69943500000011
 21
1322.3089649999999
  0
LINE
  8
_0-1_レイヤ___1
  6
CONTINUOUS
 62
    7
 10
637.69943500000011
 20
1322.3089649999999
 11
637.69943500000011
 21
1474.2859050000002
  0
LINE
  8
_0-1_レイヤ___1
  6
CONTINUOUS
 62
    7
 10
964.08950500000014
 20
1731.248685
 11
995.83950500000014
 21
1731.248685
  0
LINE
  8
_0-1_レイヤ___1
  6
CONTINUOUS
 62
    7
 10
1006.4228350000002
 20
1731.248685
 11
1009.8093650000001
 21
1731.248685
  0
LINE
  8
_0-1_レイヤ___1
  6
CONTINUOUS
 62
    7
 10
1017.0061650000001
 20
1731.248685
 11
1028.8590250000002
 21
1731.248685
  0
CIRCLE
  8
_0-1_レイヤ___1
  6
CONTINUOUS
 62
    7
 10
996.47340500000018
 20
1731.0368149999999
 40
17.568259999999999
  0
LINE
  8
_0-1_レイヤ___1
  6
CONTINUOUS
 62
    7
 10
996.26152500000012
 20
1698.6529150000001
 11
996.26152500000012
 21
1711.351535
  0
LINE
  8
_0-1_レイヤ___1
  6
CONTINUOUS
 62
    7
 10
996.26152500000012
 20
1715.5855550000001
 11
996.26152500000012
 21
1716.8550749999999
  0
LINE
  8
_0-1_レイヤ___1
  6
CONTINUOUS
 62
    7
 10
996.26152500000012
 20
1719.819585
 11
996.26152500000012
 21
1721.089095
  0
LINE
  8
_0-1_レイヤ___1
  6
CONTINUOUS
 62
    7
 10
996.26152500000012
 20
1724.0518850000001
 11
996.26152500000012
 21
1736.752225
  0
LINE
  8
_0-1_レイヤ___1
  6
CONTINUOUS
 62
    7
 10
996.26152500000012
 20
1740.9862450000001
 11
996.26152500000012
 21
1742.2557650000001
  0
LINE
  8
_0-1_レイヤ___1
  6
CONTINUOUS
 62
    7
 10
996.26152500000012
 20
1745.2185449999999
 11
996.26152500000012
 21
1746.488065
  0
LINE
  8
_0-1_レイヤ___1
  6
CONTINUOUS
 62
    7
 10
996.26152500000012
 20
1749.452565
 11
996.26152500000012
 21
1762.1529150000001
  0
LINE
  8
_0-1_レイヤ___1
  6
CONTINUOUS
 62
    7
 10
996.26152500000012
 20
1762.998685
 11
996.26152500000012
 21
1763.8461749999999
  0
LINE
  8
_0-1_レイヤ___1
  6
CONTINUOUS
 62
    7
 10
913.71187500000019
 20
1475.1316750000001
 11
945.46187500000019
 21
1475.1316750000001
  0
LINE
  8
_0-1_レイヤ___1
  6
CONTINUOUS
 62
    7
 10
956.04520500000024
 20
1475.1316750000001
 11
959.43173500000012
 21
1475.1316750000001
  0
LINE
  8
_0-1_レイヤ___1
  6
CONTINUOUS
 62
    7
 10
966.62853500000006
 20
1475.1316750000001
 11
998.37853500000006
 21
1475.1316750000001
  0
LINE
  8
_0-1_レイヤ___1
  6
CONTINUOUS
 62
    7
 10
1008.9618750000001
 20
1475.1316750000001
 11
1012.3484050000002
 21
1475.1316750000001
  0
LINE
  8
_0-1_レイヤ___1
  6
CONTINUOUS
 62
    7
 10
1019.5452050000001
 20
1475.1316750000001
 11
1051.2952050000001
 21
1475.1316750000001
  0
LINE
  8
_0-1_レイヤ___1
  6
CONTINUOUS
 62
    7
 10
1061.8785350000003
 20
1475.1316750000001
 11
1065.265065
 21
1475.1316750000001
  0
LINE
  8
_0-1_レイヤ___1
  6
CONTINUOUS
 62
    7
 10
1072.4618750000002
 20
1475.1316750000001
 11
1078.8129050000002
 21
1475.1316750000001
  0
CIRCLE
  8
_0-1_レイヤ___1
  6
CONTINUOUS
 62
    7
 10
996.47340500000018
 20
1475.1316750000001
 40
45.931740000000005
  0
LINE
  8
_0-1_レイヤ___1
  6
CONTINUOUS
 62
    7
 10
996.26152500000012
 20
1557.683055
 11
996.26152500000012
 21
1525.9330550000002
  0
LINE
  8
_0-1_レイヤ___1
  6
CONTINUOUS
 62
    7
 10
996.26152500000012
 20
1515.3497150000001
 11
996.26152500000012
 21
1511.9614649999999
  0
LINE
  8
_0-1_レイヤ___1
  6
CONTINUOUS
 62
    7
 10
996.26152500000012
 20
1504.7663850000001
 11
996.26152500000012
 21
1473.0163849999999
  0
LINE
  8
_0-1_レイヤ___1
  6
CONTINUOUS
 62
    7
 10
996.26152500000012
 20
1462.433055
 11
996.26152500000012
 21
1459.044795
  0
LINE
  8
_0-1_レイヤ___1
  6
CONTINUOUS
 62
    7
 10
996.26152500000012
 20
1451.8497149999998
 11
996.26152500000012
 21
1420.0997150000001
  0
LINE
  8
_0-1_レイヤ___1
  6
CONTINUOUS
 62
    7
 10
996.26152500000012
 20
1409.5163849999999
 11
996.26152500000012
 21
1406.1281350000002
  0
LINE
  8
_0-1_レイヤ___1
  6
CONTINUOUS
 62
    7
 10
996.26152500000012
 20
1398.933055
 11
996.26152500000012
 21
1392.5820150000002
  0
CIRCLE
  8
_0-1_レイヤ___1
  6
CONTINUOUS
 62
    7
 10
996.47426500000006
 20
1475.3435450000002
 40
67.521289999999993
  0
LINE
  8
_0-1_レイヤ___1
  6
CONTINUOUS
 62
    7
 10
996.26152500000012
 20
1392.5820150000002
 11
996.26152500000012
 21
1424.332015
  0
LINE
  8
_0-1_レイヤ___1
  6
CONTINUOUS
 62
    7
 10
996.26152500000012
 20
1434.9153550000001
 11
996.26152500000012
 21
1438.3018849999999
  0
LINE
  8
_0-1_レイヤ___1
  6
CONTINUOUS
 62
    7
 10
996.26152500000012
 20
1445.498685
 11
996.26152500000012
 21
1477.248685
  0
LINE
  8
_0-1_レイヤ___1
  6
CONTINUOUS
 62
    7
 10
996.26152500000012
 20
1487.832015
 11
996.26152500000012
 21
1491.2185450000002
  0
LINE
  8
_0-1_レイヤ___1
  6
CONTINUOUS
 62
    7
 10
996.26152500000012
 20
1498.4153549999999
 11
996.26152500000012
 21
1530.1653550000001
  0
LINE
  8
_0-1_レイヤ___1
  6
CONTINUOUS
 62
    7
 10
996.26152500000012
 20
1540.748685
 11
996.26152500000012
 21
1544.135215
  0
LINE
  8
_0-1_レイヤ___1
  6
CONTINUOUS
 62
    7
 10
996.26152500000012
 20
1551.3320150000002
 11
996.26152500000012
 21
1583.082015
  0
LINE
  8
_0-1_レイヤ___1
  6
CONTINUOUS
 62
    7
 10
996.26152500000012
 20
1593.6653550000001
 11
996.26152500000012
 21
1597.0518849999999
  0
LINE
  8
_0-1_レイヤ___1
  6
CONTINUOUS
 62
    7
 10
996.26152500000012
 20
1604.248685
 11
996.26152500000012
 21
1635.998685
  0
LINE
  8
_0-1_レイヤ___1
  6
CONTINUOUS
 62
    7
 10
996.26152500000012
 20
1646.582015
 11
996.26152500000012
 21
1649.9685450000002
  0
LINE
  8
_0-1_レイヤ___1
  6
CONTINUOUS
 62
    7
 10
996.26152500000012
 20
1657.1653549999999
 11
996.26152500000012
 21
1688.9153550000001
  0
LINE
  8
_0-1_レイヤ___1
  6
CONTINUOUS
 62
    7
 10
996.26152500000012
 20
1699.498685
 11
996.26152500000012
 21
1702.885215
  0
LINE
  8
_0-1_レイヤ___1
  6
CONTINUOUS
 62
    7
 10
996.26152500000012
 20
1710.0820150000002
 11
996.26152500000012
 21
1741.832015
  0
LINE
  8
_0-1_レイヤ___1
  6
CONTINUOUS
 62
    7
 10
996.26152500000012
 20
1752.4153550000001
 11
996.26152500000012
 21
1755.8018849999999
  0
LINE
  8
_0-1_レイヤ___1
  6
CONTINUOUS
 62
    7
 10
996.26152500000012
 20
1762.998685
 11
996.26152500000012
 21
1763.8461749999999
  0
LINE
  8
_0-1_レイヤ___1
  6
CONTINUOUS
 62
    7
 10
616.53276500000015
 20
734.29834499999993
 11
1375.9920050000003
 21
734.29834499999993
  0
LINE
  8
_0-1_レイヤ___1
  6
CONTINUOUS
 62
    7
 10
1389.9618750000002
 20
722.02346499999999
 11
1389.9618750000002
 21
720.32847500000003
  0
LINE
  8
_0-1_レイヤ___1
  6
CONTINUOUS
 62
    7
 10
1389.9618750000002
 20
720.32847500000003
 11
602.98492500000009
 21
720.32847500000003
  0
LINE
  8
_0-1_レイヤ___1
  6
CONTINUOUS
 62
    7
 10
602.98492500000009
 20
720.32847500000003
 11
602.98492500000009
 21
722.02346499999999
  0
LINE
  8
_0-1_レイヤ___1
  6
CONTINUOUS
 62
    7
 10
616.53276500000015
 20
734.29834499999993
 11
613.99200500000006
 21
733.874595
  0
LINE
  8
_0-1_レイヤ___1
  6
CONTINUOUS
 62
    7
 10
613.99200500000006
 20
733.874595
 11
611.87499500000013
 21
733.45084499999996
  0
LINE
  8
_0-1_レイヤ___1
  6
CONTINUOUS
 62
    7
 10
611.87499500000013
 20
733.45084499999996
 11
609.33596500000021
 21
732.18305499999997
  0
LINE
  8
_0-1_レイヤ___1
  6
CONTINUOUS
 62
    7
 10
609.33596500000021
 20
732.18305499999997
 11
607.64269500000012
 21
730.48806500000001
  0
LINE
  8
_0-1_レイヤ___1
  6
CONTINUOUS
 62
    7
 10
607.64269500000012
 20
730.48806500000001
 11
605.52568500000007
 21
728.79652500000009
  0
LINE
  8
_0-1_レイヤ___1
  6
CONTINUOUS
 62
    7
 10
605.52568500000007
 20
728.79652500000009
 11
604.25616500000024
 21
726.67778499999997
  0
LINE
  8
_0-1_レイヤ___1
  6
CONTINUOUS
 62
    7
 10
604.25616500000024
 20
726.67778499999997
 11
603.40867500000013
 21
724.13875500000006
  0
LINE
  8
_0-1_レイヤ___1
  6
CONTINUOUS
 62
    7
 10
603.40867500000013
 20
724.13875500000006
 11
602.98492500000009
 21
722.02346499999999
  0
LINE
  8
_0-1_レイヤ___1
  6
CONTINUOUS
 62
    7
 10
1375.9920050000003
 20
734.29834499999993
 11
1378.5327650000002
 21
733.874595
  0
LINE
  8
_0-1_レイヤ___1
  6
CONTINUOUS
 62
    7
 10
1378.5327650000002
 20
733.874595
 11
1381.0718050000003
 21
733.45084499999996
  0
LINE
  8
_0-1_レイヤ___1
  6
CONTINUOUS
 62
    7
 10
1381.0718050000003
 20
733.45084499999996
 11
1383.188815
 21
732.18305499999997
  0
LINE
  8
_0-1_レイヤ___1
  6
CONTINUOUS
 62
    7
 10
1383.188815
 20
732.18305499999997
 11
1385.3058250000001
 21
730.48806500000001
  0
LINE
  8
_0-1_レイヤ___1
  6
CONTINUOUS
 62
    7
 10
1385.3058250000001
 20
730.48806500000001
 11
1386.9990850000002
 21
728.79652500000009
  0
LINE
  8
_0-1_レイヤ___1
  6
CONTINUOUS
 62
    7
 10
1386.9990850000002
 20
728.79652500000009
 11
1388.2686050000002
 21
726.67778499999997
  0
LINE
  8
_0-1_レイヤ___1
  6
CONTINUOUS
 62
    7
 10
1388.2686050000002
 20
726.67778499999997
 11
1389.5381250000003
 21
724.13875500000006
  0
LINE
  8
_0-1_レイヤ___1
  6
CONTINUOUS
 62
    7
 10
1389.5381250000003
 20
724.13875500000006
 11
1389.9618750000002
 21
722.02346499999999
  0
LINE
  8
_0-1_レイヤ___1
  6
CONTINUOUS
 62
    7
 10
638.54520500000012
 20
714.82666500000005
 11
633.04166500000008
 21
720.32847500000003
  0
LINE
  8
_0-1_レイヤ___1
  6
CONTINUOUS
 62
    7
 10
661.4051350000002
 20
574.70084500000007
 11
661.4051350000002
 21
574.28054500000007
  0
LINE
  8
_0-1_レイヤ___1
  6
CONTINUOUS
 62
    7
 10
661.4051350000002
 20
574.28054500000007
 11
661.4051350000002
 21
573.85679500000003
  0
LINE
  8
_0-1_レイヤ___1
  6
CONTINUOUS
 62
    7
 10
661.4051350000002
 20
573.85679500000003
 11
661.4051350000002
 21
573.43305499999997
  0
LINE
  8
_0-1_レイヤ___1
  6
CONTINUOUS
 62
    7
 10
661.4051350000002
 20
573.43305499999997
 11
661.82888500000013
 21
573.43305499999997
  0
LINE
  8
_0-1_レイヤ___1
  6
CONTINUOUS
 62
    7
 10
661.82888500000013
 20
573.43305499999997
 11
661.82888500000013
 21
573.00930500000004
  0
LINE
  8
_0-1_レイヤ___1
  6
CONTINUOUS
 62
    7
 10
661.82888500000013
 20
573.00930500000004
 11
661.82888500000013
 21
572.585555
  0
LINE
  8
_0-1_レイヤ___1
  6
CONTINUOUS
 62
    7
 10
661.82888500000013
 20
572.585555
 11
661.82888500000013
 21
572.16181500000005
  0
LINE
  8
_0-1_レイヤ___1
  6
CONTINUOUS
 62
    7
 10
661.82888500000013
 20
572.16181500000005
 11
661.82888500000013
 21
571.73806500000001
  0
LINE
  8
_0-1_レイヤ___1
  6
CONTINUOUS
 62
    7
 10
661.82888500000013
 20
571.73806500000001
 11
661.82888500000013
 21
571.31431500000008
  0
LINE
  8
_0-1_レイヤ___1
  6
CONTINUOUS
 62
    7
 10
661.82888500000013
 20
571.31431500000008
 11
662.25262500000008
 21
570.89057500000001
  0
LINE
  8
_0-1_レイヤ___1
  6
CONTINUOUS
 62
    7
 10
662.25262500000008
 20
570.89057500000001
 11
662.25262500000008
 21
570.47026500000004
  0
LINE
  8
_0-1_レイヤ___1
  6
CONTINUOUS
 62
    7
 10
662.25262500000008
 20
570.47026500000004
 11
662.25262500000008
 21
570.04652500000009
  0
LINE
  8
_0-1_レイヤ___1
  6
CONTINUOUS
 62
    7
 10
662.25262500000008
 20
570.04652500000009
 11
662.25262500000008
 21
569.62277500000005
  0
LINE
  8
_0-1_レイヤ___1
  6
CONTINUOUS
 62
    7
 10
662.25262500000008
 20
569.62277500000005
 11
662.25262500000008
 21
569.19902500000001
  0
LINE
  8
_0-1_レイヤ___1
  6
CONTINUOUS
 62
    7
 10
662.25262500000008
 20
569.19902500000001
 11
662.67637500000001
 21
569.19902500000001
  0
LINE
  8
_0-1_レイヤ___1
  6
CONTINUOUS
 62
    7
 10
662.67637500000001
 20
569.19902500000001
 11
662.67637500000001
 21
568.77528500000005
  0
LINE
  8
_0-1_レイヤ___1
  6
CONTINUOUS
 62
    7
 10
662.67637500000001
 20
568.77528500000005
 11
662.67637500000001
 21
568.35153500000001
  0
LINE
  8
_0-1_レイヤ___1
  6
CONTINUOUS
 62
    7
 10
662.67637500000001
 20
568.35153500000001
 11
662.67637500000001
 21
567.92778500000009
  0
LINE
  8
_0-1_レイヤ___1
  6
CONTINUOUS
 62
    7
 10
662.67637500000001
 20
567.92778500000009
 11
662.67637500000001
 21
567.50404500000002
  0
LINE
  8
_0-1_レイヤ___1
  6
CONTINUOUS
 62
    7
 10
662.67637500000001
 20
567.50404500000002
 11
663.09840500000007
 21
567.50404500000002
  0
LINE
  8
_0-1_レイヤ___1
  6
CONTINUOUS
 62
    7
 10
663.09840500000007
 20
567.50404500000002
 11
663.09840500000007
 21
567.08374500000002
  0
LINE
  8
_0-1_レイヤ___1
  6
CONTINUOUS
 62
    7
 10
663.09840500000007
 20
567.08374500000002
 11
663.09840500000007
 21
566.65999500000009
  0
LINE
  8
_0-1_レイヤ___1
  6
CONTINUOUS
 62
    7
 10
663.09840500000007
 20
566.65999500000009
 11
663.09840500000007
 21
566.23624500000005
  0
LINE
  8
_0-1_レイヤ___1
  6
CONTINUOUS
 62
    7
 10
663.09840500000007
 20
566.23624500000005
 11
663.52214500000014
 21
565.81250499999999
  0
LINE
  8
_0-1_レイヤ___1
  6
CONTINUOUS
 62
    7
 10
663.52214500000014
 20
565.81250499999999
 11
663.52214500000014
 21
565.38875500000006
  0
LINE
  8
_0-1_レイヤ___1
  6
CONTINUOUS
 62
    7
 10
663.52214500000014
 20
565.38875500000006
 11
663.52214500000014
 21
564.96500500000002
  0
LINE
  8
_0-1_レイヤ___1
  6
CONTINUOUS
 62
    7
 10
663.52214500000014
 20
564.96500500000002
 11
663.94589500000029
 21
564.54125500000009
  0
LINE
  8
_0-1_レイヤ___1
  6
CONTINUOUS
 62
    7
 10
663.94589500000029
 20
564.54125500000009
 11
663.94589500000029
 21
564.11751500000003
  0
LINE
  8
_0-1_レイヤ___1
  6
CONTINUOUS
 62
    7
 10
663.94589500000029
 20
564.11751500000003
 11
663.94589500000029
 21
563.69721500000003
  0
LINE
  8
_0-1_レイヤ___1
  6
CONTINUOUS
 62
    7
 10
663.94589500000029
 20
563.69721500000003
 11
664.36964500000022
 21
563.27346499999999
  0
LINE
  8
_0-1_レイヤ___1
  6
CONTINUOUS
 62
    7
 10
664.36964500000022
 20
563.27346499999999
 11
664.36964500000022
 21
562.84971500000006
  0
LINE
  8
_0-1_レイヤ___1
  6
CONTINUOUS
 62
    7
 10
664.36964500000022
 20
562.84971500000006
 11
664.36964500000022
 21
562.42597499999999
  0
LINE
  8
_0-1_レイヤ___1
  6
CONTINUOUS
 62
    7
 10
664.36964500000022
 20
562.42597499999999
 11
664.79166500000019
 21
562.42597499999999
  0
LINE
  8
_0-1_レイヤ___1
  6
CONTINUOUS
 62
    7
 10
664.79166500000019
 20
562.42597499999999
 11
664.79166500000019
 21
562.00222500000007
  0
LINE
  8
_0-1_レイヤ___1
  6
CONTINUOUS
 62
    7
 10
664.79166500000019
 20
562.00222500000007
 11
664.79166500000019
 21
561.57847500000003
  0
LINE
  8
_0-1_レイヤ___1
  6
CONTINUOUS
 62
    7
 10
664.79166500000019
 20
561.57847500000003
 11
665.21541500000012
 21
561.15473499999996
  0
LINE
  8
_0-1_レイヤ___1
  6
CONTINUOUS
 62
    7
 10
665.21541500000012
 20
561.15473499999996
 11
665.21541500000012
 21
560.73098500000003
  0
LINE
  8
_0-1_レイヤ___1
  6
CONTINUOUS
 62
    7
 10
665.21541500000012
 20
560.73098500000003
 11
665.21541500000012
 21
560.30723499999999
  0
LINE
  8
_0-1_レイヤ___1
  6
CONTINUOUS
 62
    7
 10
665.21541500000012
 20
560.30723499999999
 11
665.63915500000007
 21
560.30723499999999
  0
LINE
  8
_0-1_レイヤ___1
  6
CONTINUOUS
 62
    7
 10
665.63915500000007
 20
560.30723499999999
 11
665.63915500000007
 21
559.88693499999999
  0
LINE
  8
_0-1_レイヤ___1
  6
CONTINUOUS
 62
    7
 10
665.63915500000007
 20
559.88693499999999
 11
665.63915500000007
 21
559.46318500000007
  0
LINE
  8
_0-1_レイヤ___1
  6
CONTINUOUS
 62
    7
 10
665.63915500000007
 20
559.46318500000007
 11
666.06290500000011
 21
559.46318500000007
  0
LINE
  8
_0-1_レイヤ___1
  6
CONTINUOUS
 62
    7
 10
666.06290500000011
 20
559.46318500000007
 11
666.06290500000011
 21
559.039445
  0
LINE
  8
_0-1_レイヤ___1
  6
CONTINUOUS
 62
    7
 10
666.06290500000011
 20
559.039445
 11
666.06290500000011
 21
558.61569499999996
  0
LINE
  8
_0-1_レイヤ___1
  6
CONTINUOUS
 62
    7
 10
666.06290500000011
 20
558.61569499999996
 11
666.4849250000002
 21
558.61569499999996
  0
LINE
  8
_0-1_レイヤ___1
  6
CONTINUOUS
 62
    7
 10
666.4849250000002
 20
558.61569499999996
 11
666.4849250000002
 21
558.19194500000003
  0
LINE
  8
_0-1_レイヤ___1
  6
CONTINUOUS
 62
    7
 10
666.4849250000002
 20
558.19194500000003
 11
666.4849250000002
 21
557.76820499999997
  0
LINE
  8
_0-1_レイヤ___1
  6
CONTINUOUS
 62
    7
 10
666.4849250000002
 20
557.76820499999997
 11
666.90867500000024
 21
557.76820499999997
  0
LINE
  8
_0-1_レイヤ___1
  6
CONTINUOUS
 62
    7
 10
666.90867500000024
 20
557.76820499999997
 11
666.90867500000024
 21
557.34445500000004
  0
LINE
  8
_0-1_レイヤ___1
  6
CONTINUOUS
 62
    7
 10
666.90867500000024
 20
557.34445500000004
 11
666.90867500000024
 21
556.920705
  0
LINE
  8
_0-1_レイヤ___1
  6
CONTINUOUS
 62
    7
 10
666.90867500000024
 20
556.920705
 11
667.33242500000017
 21
556.920705
  0
LINE
  8
_0-1_レイヤ___1
  6
CONTINUOUS
 62
    7
 10
667.33242500000017
 20
556.920705
 11
667.33242500000017
 21
556.500405
  0
LINE
  8
_0-1_レイヤ___1
  6
CONTINUOUS
 62
    7
 10
667.33242500000017
 20
556.500405
 11
667.33242500000017
 21
556.07666500000005
  0
LINE
  8
_0-1_レイヤ___1
  6
CONTINUOUS
 62
    7
 10
667.33242500000017
 20
556.07666500000005
 11
667.75616500000012
 21
556.07666500000005
  0
LINE
  8
_0-1_レイヤ___1
  6
CONTINUOUS
 62
    7
 10
667.75616500000012
 20
556.07666500000005
 11
667.75616500000012
 21
555.65291500000001
  0
LINE
  8
_0-1_レイヤ___1
  6
CONTINUOUS
 62
    7
 10
667.75616500000012
 20
555.65291500000001
 11
667.75616500000012
 21
555.22916499999997
  0
LINE
  8
_0-1_レイヤ___1
  6
CONTINUOUS
 62
    7
 10
667.75616500000012
 20
555.22916499999997
 11
668.17819500000019
 21
555.22916499999997
  0
LINE
  8
_0-1_レイヤ___1
  6
CONTINUOUS
 62
    7
 10
668.17819500000019
 20
555.22916499999997
 11
668.17819500000019
 21
554.80542500000001
  0
LINE
  8
_0-1_レイヤ___1
  6
CONTINUOUS
 62
    7
 10
668.17819500000019
 20
554.80542500000001
 11
668.60194500000011
 21
554.38167500000009
  0
LINE
  8
_0-1_レイヤ___1
  6
CONTINUOUS
 62
    7
 10
668.60194500000011
 20
554.38167500000009
 11
668.60194500000011
 21
553.95792500000005
  0
LINE
  8
_0-1_レイヤ___1
  6
CONTINUOUS
 62
    7
 10
668.60194500000011
 20
553.95792500000005
 11
669.02568500000018
 21
553.95792500000005
  0
LINE
  8
_0-1_レイヤ___1
  6
CONTINUOUS
 62
    7
 10
669.02568500000018
 20
553.95792500000005
 11
669.02568500000018
 21
553.534175
  0
LINE
  8
_0-1_レイヤ___1
  6
CONTINUOUS
 62
    7
 10
669.02568500000018
 20
553.534175
 11
669.44943500000022
 21
553.11387500000001
  0
LINE
  8
_0-1_レイヤ___1
  6
CONTINUOUS
 62
    7
 10
669.44943500000022
 20
553.11387500000001
 11
669.44943500000022
 21
552.69013500000005
  0
LINE
  8
_0-1_レイヤ___1
  6
CONTINUOUS
 62
    7
 10
669.44943500000022
 20
552.69013500000005
 11
669.8714550000002
 21
552.69013500000005
  0
LINE
  8
_0-1_レイヤ___1
  6
CONTINUOUS
 62
    7
 10
669.8714550000002
 20
552.69013500000005
 11
669.8714550000002
 21
552.26638500000001
  0
LINE
  8
_0-1_レイヤ___1
  6
CONTINUOUS
 62
    7
 10
669.8714550000002
 20
552.26638500000001
 11
670.29520500000012
 21
551.84263499999997
  0
LINE
  8
_0-1_レイヤ___1
  6
CONTINUOUS
 62
    7
 10
670.29520500000012
 20
551.84263499999997
 11
670.29520500000012
 21
551.41889500000002
  0
LINE
  8
_0-1_レイヤ___1
  6
CONTINUOUS
 62
    7
 10
670.29520500000012
 20
551.41889500000002
 11
670.71895500000005
 21
551.41889500000002
  0
LINE
  8
_0-1_レイヤ___1
  6
CONTINUOUS
 62
    7
 10
670.71895500000005
 20
551.41889500000002
 11
670.71895500000005
 21
550.99514500000009
  0
LINE
  8
_0-1_レイヤ___1
  6
CONTINUOUS
 62
    7
 10
670.71895500000005
 20
550.99514500000009
 11
671.142695
 21
550.99514500000009
  0
LINE
  8
_0-1_レイヤ___1
  6
CONTINUOUS
 62
    7
 10
671.142695
 20
550.99514500000009
 11
671.142695
 21
550.57139500000005
  0
LINE
  8
_0-1_レイヤ___1
  6
CONTINUOUS
 62
    7
 10
671.142695
 20
550.57139500000005
 11
671.142695
 21
550.14765499999999
  0
LINE
  8
_0-1_レイヤ___1
  6
CONTINUOUS
 62
    7
 10
671.142695
 20
550.14765499999999
 11
671.56644500000016
 21
550.14765499999999
  0
LINE
  8
_0-1_レイヤ___1
  6
CONTINUOUS
 62
    7
 10
671.56644500000016
 20
550.14765499999999
 11
671.56644500000016
 21
549.72390500000006
  0
LINE
  8
_0-1_レイヤ___1
  6
CONTINUOUS
 62
    7
 10
671.56644500000016
 20
549.72390500000006
 11
671.98846500000013
 21
549.72390500000006
  0
LINE
  8
_0-1_レイヤ___1
  6
CONTINUOUS
 62
    7
 10
671.98846500000013
 20
549.72390500000006
 11
671.98846500000013
 21
549.30360500000006
  0
LINE
  8
_0-1_レイヤ___1
  6
CONTINUOUS
 62
    7
 10
671.98846500000013
 20
549.30360500000006
 11
672.41221500000029
 21
549.30360500000006
  0
LINE
  8
_0-1_レイヤ___1
  6
CONTINUOUS
 62
    7
 10
672.41221500000029
 20
549.30360500000006
 11
672.41221500000029
 21
548.87985500000002
  0
LINE
  8
_0-1_レイヤ___1
  6
CONTINUOUS
 62
    7
 10
672.41221500000029
 20
548.87985500000002
 11
672.83596500000021
 21
548.87985500000002
  0
LINE
  8
_0-1_レイヤ___1
  6
CONTINUOUS
 62
    7
 10
672.83596500000021
 20
548.87985500000002
 11
672.83596500000021
 21
548.45610499999998
  0
LINE
  8
_0-1_レイヤ___1
  6
CONTINUOUS
 62
    7
 10
672.83596500000021
 20
548.45610499999998
 11
672.83596500000021
 21
548.03236500000003
  0
LINE
  8
_0-1_レイヤ___1
  6
CONTINUOUS
 62
    7
 10
672.83596500000021
 20
548.03236500000003
 11
673.25970500000017
 21
548.03236500000003
  0
LINE
  8
_0-1_レイヤ___1
  6
CONTINUOUS
 62
    7
 10
673.25970500000017
 20
548.03236500000003
 11
673.25970500000017
 21
547.6086150000001
  0
LINE
  8
_0-1_レイヤ___1
  6
CONTINUOUS
 62
    7
 10
673.25970500000017
 20
547.6086150000001
 11
673.68173500000012
 21
547.6086150000001
  0
LINE
  8
_0-1_レイヤ___1
  6
CONTINUOUS
 62
    7
 10
673.68173500000012
 20
547.6086150000001
 11
673.68173500000012
 21
547.18486500000006
  0
LINE
  8
_0-1_レイヤ___1
  6
CONTINUOUS
 62
    7
 10
673.68173500000012
 20
547.18486500000006
 11
674.10548500000016
 21
547.18486500000006
  0
LINE
  8
_0-1_レイヤ___1
  6
CONTINUOUS
 62
    7
 10
674.10548500000016
 20
547.18486500000006
 11
674.10548500000016
 21
546.76112499999999
  0
LINE
  8
_0-1_レイヤ___1
  6
CONTINUOUS
 62
    7
 10
674.10548500000016
 20
546.76112499999999
 11
674.52922500000011
 21
546.76112499999999
  0
LINE
  8
_0-1_レイヤ___1
  6
CONTINUOUS
 62
    7
 10
674.52922500000011
 20
546.76112499999999
 11
674.52922500000011
 21
546.33737500000007
  0
LINE
  8
_0-1_レイヤ___1
  6
CONTINUOUS
 62
    7
 10
674.52922500000011
 20
546.33737500000007
 11
674.95297500000015
 21
546.33737500000007
  0
LINE
  8
_0-1_レイヤ___1
  6
CONTINUOUS
 62
    7
 10
674.95297500000015
 20
546.33737500000007
 11
674.95297500000015
 21
545.91707500000007
  0
LINE
  8
_0-1_レイヤ___1
  6
CONTINUOUS
 62
    7
 10
674.95297500000015
 20
545.91707500000007
 11
675.37499500000024
 21
545.91707500000007
  0
LINE
  8
_0-1_レイヤ___1
  6
CONTINUOUS
 62
    7
 10
675.37499500000024
 20
545.91707500000007
 11
675.37499500000024
 21
545.49332500000003
  0
LINE
  8
_0-1_レイヤ___1
  6
CONTINUOUS
 62
    7
 10
675.37499500000024
 20
545.49332500000003
 11
675.79874500000017
 21
545.49332500000003
  0
LINE
  8
_0-1_レイヤ___1
  6
CONTINUOUS
 62
    7
 10
675.79874500000017
 20
545.49332500000003
 11
675.79874500000017
 21
545.06958500000007
  0
LINE
  8
_0-1_レイヤ___1
  6
CONTINUOUS
 62
    7
 10
675.79874500000017
 20
545.06958500000007
 11
676.22249500000009
 21
545.06958500000007
  0
LINE
  8
_0-1_レイヤ___1
  6
CONTINUOUS
 62
    7
 10
676.22249500000009
 20
545.06958500000007
 11
676.22249500000009
 21
544.64583500000003
  0
LINE
  8
_0-1_レイヤ___1
  6
CONTINUOUS
 62
    7
 10
676.22249500000009
 20
544.64583500000003
 11
676.64623500000016
 21
544.64583500000003
  0
LINE
  8
_0-1_レイヤ___1
  6
CONTINUOUS
 62
    7
 10
676.64623500000016
 20
544.64583500000003
 11
676.64623500000016
 21
544.22208499999999
  0
LINE
  8
_0-1_レイヤ___1
  6
CONTINUOUS
 62
    7
 10
676.64623500000016
 20
544.22208499999999
 11
677.06826500000011
 21
544.22208499999999
  0
LINE
  8
_0-1_レイヤ___1
  6
CONTINUOUS
 62
    7
 10
677.06826500000011
 20
544.22208499999999
 11
677.06826500000011
 21
543.79834500000004
  0
LINE
  8
_0-1_レイヤ___1
  6
CONTINUOUS
 62
    7
 10
677.06826500000011
 20
543.79834500000004
 11
677.49200500000018
 21
543.79834500000004
  0
LINE
  8
_0-1_レイヤ___1
  6
CONTINUOUS
 62
    7
 10
677.49200500000018
 20
543.79834500000004
 11
677.49200500000018
 21
543.374595
  0
LINE
  8
_0-1_レイヤ___1
  6
CONTINUOUS
 62
    7
 10
677.49200500000018
 20
543.374595
 11
677.91575500000022
 21
543.374595
  0
LINE
  8
_0-1_レイヤ___1
  6
CONTINUOUS
 62
    7
 10
677.91575500000022
 20
543.374595
 11
677.91575500000022
 21
542.95084500000007
  0
LINE
  8
_0-1_レイヤ___1
  6
CONTINUOUS
 62
    7
 10
677.91575500000022
 20
542.95084500000007
 11
678.33950500000014
 21
542.95084500000007
  0
LINE
  8
_0-1_レイヤ___1
  6
CONTINUOUS
 62
    7
 10
678.33950500000014
 20
542.95084500000007
 11
678.33950500000014
 21
542.53054500000007
  0
LINE
  8
_0-1_レイヤ___1
  6
CONTINUOUS
 62
    7
 10
678.33950500000014
 20
542.53054500000007
 11
678.76152500000012
 21
542.53054500000007
  0
LINE
  8
_0-1_レイヤ___1
  6
CONTINUOUS
 62
    7
 10
678.76152500000012
 20
542.53054500000007
 11
678.76152500000012
 21
542.10679500000003
  0
LINE
  8
_0-1_レイヤ___1
  6
CONTINUOUS
 62
    7
 10
678.76152500000012
 20
542.10679500000003
 11
679.18527500000005
 21
542.10679500000003
  0
LINE
  8
_0-1_レイヤ___1
  6
CONTINUOUS
 62
    7
 10
679.18527500000005
 20
542.10679500000003
 11
679.6090250000002
 21
541.68305499999997
  0
LINE
  8
_0-1_レイヤ___1
  6
CONTINUOUS
 62
    7
 10
679.6090250000002
 20
541.68305499999997
 11
680.03276500000015
 21
541.68305499999997
  0
LINE
  8
_0-1_レイヤ___1
  6
CONTINUOUS
 62
    7
 10
680.03276500000015
 20
541.68305499999997
 11
680.03276500000015
 21
541.25930500000004
  0
LINE
  8
_0-1_レイヤ___1
  6
CONTINUOUS
 62
    7
 10
680.03276500000015
 20
541.25930500000004
 11
680.4547950000001
 21
541.25930500000004
  0
LINE
  8
_0-1_レイヤ___1
  6
CONTINUOUS
 62
    7
 10
680.4547950000001
 20
541.25930500000004
 11
680.4547950000001
 21
540.835555
  0
LINE
  8
_0-1_レイヤ___1
  6
CONTINUOUS
 62
    7
 10
680.4547950000001
 20
540.835555
 11
680.87853500000028
 21
540.835555
  0
LINE
  8
_0-1_レイヤ___1
  6
CONTINUOUS
 62
    7
 10
680.87853500000028
 20
540.835555
 11
680.87853500000028
 21
540.41181500000005
  0
LINE
  8
_0-1_レイヤ___1
  6
CONTINUOUS
 62
    7
 10
680.87853500000028
 20
540.41181500000005
 11
681.30228500000021
 21
540.41181500000005
  0
LINE
  8
_0-1_レイヤ___1
  6
CONTINUOUS
 62
    7
 10
681.30228500000021
 20
540.41181500000005
 11
681.72603500000014
 21
540.41181500000005
  0
LINE
  8
_0-1_レイヤ___1
  6
CONTINUOUS
 62
    7
 10
681.72603500000014
 20
540.41181500000005
 11
681.72603500000014
 21
539.98806500000001
  0
LINE
  8
_0-1_レイヤ___1
  6
CONTINUOUS
 62
    7
 10
681.72603500000014
 20
539.98806500000001
 11
682.1497750000002
 21
539.98806500000001
  0
LINE
  8
_0-1_レイヤ___1
  6
CONTINUOUS
 62
    7
 10
682.1497750000002
 20
539.98806500000001
 11
682.1497750000002
 21
539.56431499999997
  0
LINE
  8
_0-1_レイヤ___1
  6
CONTINUOUS
 62
    7
 10
682.1497750000002
 20
539.56431499999997
 11
682.57180500000015
 21
539.56431499999997
  0
LINE
  8
_0-1_レイヤ___1
  6
CONTINUOUS
 62
    7
 10
682.57180500000015
 20
539.56431499999997
 11
682.57180500000015
 21
539.14057500000001
  0
LINE
  8
_0-1_レイヤ___1
  6
CONTINUOUS
 62
    7
 10
682.57180500000015
 20
539.14057500000001
 11
682.99554500000011
 21
539.14057500000001
  0
LINE
  8
_0-1_レイヤ___1
  6
CONTINUOUS
 62
    7
 10
682.99554500000011
 20
539.14057500000001
 11
683.41929500000015
 21
539.14057500000001
  0
LINE
  8
_0-1_レイヤ___1
  6
CONTINUOUS
 62
    7
 10
683.41929500000015
 20
539.14057500000001
 11
683.41929500000015
 21
538.72026500000004
  0
LINE
  8
_0-1_レイヤ___1
  6
CONTINUOUS
 62
    7
 10
683.41929500000015
 20
538.72026500000004
 11
683.84304500000007
 21
538.72026500000004
  0
LINE
  8
_0-1_レイヤ___1
  6
CONTINUOUS
 62
    7
 10
683.84304500000007
 20
538.72026500000004
 11
684.26506500000016
 21
538.29652499999997
  0
LINE
  8
_0-1_レイヤ___1
  6
CONTINUOUS
 62
    7
 10
684.26506500000016
 20
538.29652499999997
 11
684.68881500000009
 21
538.29652499999997
  0
LINE
  8
_0-1_レイヤ___1
  6
CONTINUOUS
 62
    7
 10
684.68881500000009
 20
538.29652499999997
 11
684.68881500000009
 21
537.87277500000005
  0
LINE
  8
_0-1_レイヤ___1
  6
CONTINUOUS
 62
    7
 10
684.68881500000009
 20
537.87277500000005
 11
685.11256500000013
 21
537.87277500000005
  0
LINE
  8
_0-1_レイヤ___1
  6
CONTINUOUS
 62
    7
 10
685.11256500000013
 20
537.87277500000005
 11
685.53630500000031
 21
537.44902500000001
  0
LINE
  8
_0-1_レイヤ___1
  6
CONTINUOUS
 62
    7
 10
685.53630500000031
 20
537.44902500000001
 11
685.95833500000015
 21
537.44902500000001
  0
LINE
  8
_0-1_レイヤ___1
  6
CONTINUOUS
 62
    7
 10
685.95833500000015
 20
537.44902500000001
 11
685.95833500000015
 21
537.02528499999994
  0
LINE
  8
_0-1_レイヤ___1
  6
CONTINUOUS
 62
    7
 10
685.95833500000015
 20
537.02528499999994
 11
686.38207500000021
 21
537.02528499999994
  0
LINE
  8
_0-1_レイヤ___1
  6
CONTINUOUS
 62
    7
 10
686.38207500000021
 20
537.02528499999994
 11
686.80582500000014
 21
537.02528499999994
  0
LINE
  8
_0-1_レイヤ___1
  6
CONTINUOUS
 62
    7
 10
686.80582500000014
 20
537.02528499999994
 11
686.80582500000014
 21
536.60153500000001
  0
LINE
  8
_0-1_レイヤ___1
  6
CONTINUOUS
 62
    7
 10
686.80582500000014
 20
536.60153500000001
 11
687.22957500000018
 21
536.60153500000001
  0
LINE
  8
_0-1_レイヤ___1
  6
CONTINUOUS
 62
    7
 10
687.22957500000018
 20
536.60153500000001
 11
687.65159500000004
 21
536.17778499999997
  0
LINE
  8
_0-1_レイヤ___1
  6
CONTINUOUS
 62
    7
 10
687.65159500000004
 20
536.17778499999997
 11
688.0753450000002
 21
536.17778499999997
  0
LINE
  8
_0-1_レイヤ___1
  6
CONTINUOUS
 62
    7
 10
688.0753450000002
 20
536.17778499999997
 11
688.49908500000015
 21
535.75404500000002
  0
LINE
  8
_0-1_レイヤ___1
  6
CONTINUOUS
 62
    7
 10
688.49908500000015
 20
535.75404500000002
 11
688.92283500000019
 21
535.75404500000002
  0
LINE
  8
_0-1_レイヤ___1
  6
CONTINUOUS
 62
    7
 10
688.92283500000019
 20
535.75404500000002
 11
689.34486500000025
 21
535.33374500000002
  0
LINE
  8
_0-1_レイヤ___1
  6
CONTINUOUS
 62
    7
 10
689.34486500000025
 20
535.33374500000002
 11
689.76860500000021
 21
535.33374500000002
  0
LINE
  8
_0-1_レイヤ___1
  6
CONTINUOUS
 62
    7
 10
689.76860500000021
 20
535.33374500000002
 11
690.19235500000025
 21
534.90999499999998
  0
LINE
  8
_0-1_レイヤ___1
  6
CONTINUOUS
 62
    7
 10
690.19235500000025
 20
534.90999499999998
 11
690.61610500000018
 21
534.90999499999998
  0
LINE
  8
_0-1_レイヤ___1
  6
CONTINUOUS
 62
    7
 10
690.61610500000018
 20
534.90999499999998
 11
691.03812500000015
 21
534.90999499999998
  0
LINE
  8
_0-1_レイヤ___1
  6
CONTINUOUS
 62
    7
 10
691.03812500000015
 20
534.90999499999998
 11
691.03812500000015
 21
534.48624500000005
  0
LINE
  8
_0-1_レイヤ___1
  6
CONTINUOUS
 62
    7
 10
691.03812500000015
 20
534.48624500000005
 11
691.46187500000008
 21
534.48624500000005
  0
LINE
  8
_0-1_レイヤ___1
  6
CONTINUOUS
 62
    7
 10
691.46187500000008
 20
534.48624500000005
 11
691.88561500000014
 21
534.48624500000005
  0
LINE
  8
_0-1_レイヤ___1
  6
CONTINUOUS
 62
    7
 10
691.88561500000014
 20
534.48624500000005
 11
691.88561500000014
 21
534.0625050000001
  0
LINE
  8
_0-1_レイヤ___1
  6
CONTINUOUS
 62
    7
 10
691.88561500000014
 20
534.0625050000001
 11
692.30936500000007
 21
534.0625050000001
  0
LINE
  8
_0-1_レイヤ___1
  6
CONTINUOUS
 62
    7
 10
692.30936500000007
 20
534.0625050000001
 11
692.73311500000023
 21
534.0625050000001
  0
LINE
  8
_0-1_レイヤ___1
  6
CONTINUOUS
 62
    7
 10
692.73311500000023
 20
534.0625050000001
 11
693.15513500000009
 21
533.63875500000006
  0
LINE
  8
_0-1_レイヤ___1
  6
CONTINUOUS
 62
    7
 10
693.15513500000009
 20
533.63875500000006
 11
693.57888500000013
 21
533.63875500000006
  0
LINE
  8
_0-1_レイヤ___1
  6
CONTINUOUS
 62
    7
 10
693.57888500000013
 20
533.63875500000006
 11
694.00262500000008
 21
533.63875500000006
  0
LINE
  8
_0-1_レイヤ___1
  6
CONTINUOUS
 62
    7
 10
694.00262500000008
 20
533.63875500000006
 11
694.00262500000008
 21
533.21500500000002
  0
LINE
  8
_0-1_レイヤ___1
  6
CONTINUOUS
 62
    7
 10
694.00262500000008
 20
533.21500500000002
 11
694.42637500000023
 21
533.21500500000002
  0
LINE
  8
_0-1_レイヤ___1
  6
CONTINUOUS
 62
    7
 10
694.42637500000023
 20
533.21500500000002
 11
694.84840500000018
 21
533.21500500000002
  0
LINE
  8
_0-1_レイヤ___1
  6
CONTINUOUS
 62
    7
 10
694.84840500000018
 20
533.21500500000002
 11
695.27214500000014
 21
533.21500500000002
  0
LINE
  8
_0-1_レイヤ___1
  6
CONTINUOUS
 62
    7
 10
695.27214500000014
 20
533.21500500000002
 11
695.27214500000014
 21
532.79125499999998
  0
LINE
  8
_0-1_レイヤ___1
  6
CONTINUOUS
 62
    7
 10
695.27214500000014
 20
532.79125499999998
 11
695.69589500000018
 21
532.79125499999998
  0
LINE
  8
_0-1_レイヤ___1
  6
CONTINUOUS
 62
    7
 10
695.69589500000018
 20
532.79125499999998
 11
696.11964500000011
 21
532.79125499999998
  0
LINE
  8
_0-1_レイヤ___1
  6
CONTINUOUS
 62
    7
 10
696.11964500000011
 20
532.79125499999998
 11
696.54166500000019
 21
532.79125499999998
  0
LINE
  8
_0-1_レイヤ___1
  6
CONTINUOUS
 62
    7
 10
696.54166500000019
 20
532.79125499999998
 11
696.54166500000019
 21
532.36751500000003
  0
LINE
  8
_0-1_レイヤ___1
  6
CONTINUOUS
 62
    7
 10
696.54166500000019
 20
532.36751500000003
 11
696.96541500000012
 21
532.36751500000003
  0
LINE
  8
_0-1_レイヤ___1
  6
CONTINUOUS
 62
    7
 10
696.96541500000012
 20
532.36751500000003
 11
697.38915500000019
 21
532.36751500000003
  0
LINE
  8
_0-1_レイヤ___1
  6
CONTINUOUS
 62
    7
 10
697.38915500000019
 20
532.36751500000003
 11
697.81290500000011
 21
532.36751500000003
  0
LINE
  8
_0-1_レイヤ___1
  6
CONTINUOUS
 62
    7
 10
697.81290500000011
 20
532.36751500000003
 11
697.81290500000011
 21
531.94721500000003
  0
LINE
  8
_0-1_レイヤ___1
  6
CONTINUOUS
 62
    7
 10
697.81290500000011
 20
531.94721500000003
 11
698.2349250000002
 21
531.94721500000003
  0
LINE
  8
_0-1_レイヤ___1
  6
CONTINUOUS
 62
    7
 10
698.2349250000002
 20
531.94721500000003
 11
698.65867500000024
 21
531.94721500000003
  0
LINE
  8
_0-1_レイヤ___1
  6
CONTINUOUS
 62
    7
 10
698.65867500000024
 20
531.94721500000003
 11
699.08242500000017
 21
531.94721500000003
  0
LINE
  8
_0-1_レイヤ___1
  6
CONTINUOUS
 62
    7
 10
699.08242500000017
 20
531.94721500000003
 11
699.50616500000012
 21
531.94721500000003
  0
LINE
  8
_0-1_レイヤ___1
  6
CONTINUOUS
 62
    7
 10
699.50616500000012
 20
531.94721500000003
 11
699.50616500000012
 21
531.52346499999999
  0
LINE
  8
_0-1_レイヤ___1
  6
CONTINUOUS
 62
    7
 10
699.50616500000012
 20
531.52346499999999
 11
699.92819500000007
 21
531.52346499999999
  0
LINE
  8
_0-1_レイヤ___1
  6
CONTINUOUS
 62
    7
 10
699.92819500000007
 20
531.52346499999999
 11
700.35194500000011
 21
531.52346499999999
  0
LINE
  8
_0-1_レイヤ___1
  6
CONTINUOUS
 62
    7
 10
700.35194500000011
 20
531.52346499999999
 11
700.77568500000007
 21
531.52346499999999
  0
LINE
  8
_0-1_レイヤ___1
  6
CONTINUOUS
 62
    7
 10
700.77568500000007
 20
531.52346499999999
 11
701.19943500000022
 21
531.52346499999999
  0
LINE
  8
_0-1_レイヤ___1
  6
CONTINUOUS
 62
    7
 10
701.19943500000022
 20
531.52346499999999
 11
701.19943500000022
 21
531.09971500000006
  0
LINE
  8
_0-1_レイヤ___1
  6
CONTINUOUS
 62
    7
 10
701.19943500000022
 20
531.09971500000006
 11
701.6214550000002
 21
531.09971500000006
  0
LINE
  8
_0-1_レイヤ___1
  6
CONTINUOUS
 62
    7
 10
701.6214550000002
 20
531.09971500000006
 11
702.04520500000012
 21
531.09971500000006
  0
LINE
  8
_0-1_レイヤ___1
  6
CONTINUOUS
 62
    7
 10
702.04520500000012
 20
531.09971500000006
 11
702.46895500000028
 21
531.09971500000006
  0
LINE
  8
_0-1_レイヤ___1
  6
CONTINUOUS
 62
    7
 10
702.46895500000028
 20
531.09971500000006
 11
702.89269500000023
 21
531.09971500000006
  0
LINE
  8
_0-1_レイヤ___1
  6
CONTINUOUS
 62
    7
 10
702.89269500000023
 20
531.09971500000006
 11
703.31644500000016
 21
531.09971500000006
  0
LINE
  8
_0-1_レイヤ___1
  6
CONTINUOUS
 62
    7
 10
703.31644500000016
 20
531.09971500000006
 11
703.31644500000016
 21
530.67597500000011
  0
LINE
  8
_0-1_レイヤ___1
  6
CONTINUOUS
 62
    7
 10
703.31644500000016
 20
530.67597500000011
 11
703.73846500000013
 21
530.67597500000011
  0
LINE
  8
_0-1_レイヤ___1
  6
CONTINUOUS
 62
    7
 10
703.73846500000013
 20
530.67597500000011
 11
704.16221500000017
 21
530.67597500000011
  0
LINE
  8
_0-1_レイヤ___1
  6
CONTINUOUS
 62
    7
 10
704.16221500000017
 20
530.67597500000011
 11
704.5859650000001
 21
530.67597500000011
  0
LINE
  8
_0-1_レイヤ___1
  6
CONTINUOUS
 62
    7
 10
704.5859650000001
 20
530.67597500000011
 11
705.00970500000017
 21
530.67597500000011
  0
LINE
  8
_0-1_レイヤ___1
  6
CONTINUOUS
 62
    7
 10
705.00970500000017
 20
530.67597500000011
 11
705.43173500000012
 21
530.67597500000011
  0
LINE
  8
_0-1_レイヤ___1
  6
CONTINUOUS
 62
    7
 10
705.43173500000012
 20
530.67597500000011
 11
705.85548500000016
 21
530.67597500000011
  0
LINE
  8
_0-1_レイヤ___1
  6
CONTINUOUS
 62
    7
 10
705.85548500000016
 20
530.67597500000011
 11
706.27922500000011
 21
530.67597500000011
  0
LINE
  8
_0-1_レイヤ___1
  6
CONTINUOUS
 62
    7
 10
706.27922500000011
 20
530.67597500000011
 11
706.70297500000015
 21
530.25222500000007
  0
LINE
  8
_0-1_レイヤ___1
  6
CONTINUOUS
 62
    7
 10
706.70297500000015
 20
530.25222500000007
 11
707.12499500000024
 21
530.25222500000007
  0
LINE
  8
_0-1_レイヤ___1
  6
CONTINUOUS
 62
    7
 10
707.12499500000024
 20
530.25222500000007
 11
707.54874500000017
 21
530.25222500000007
  0
LINE
  8
_0-1_レイヤ___1
  6
CONTINUOUS
 62
    7
 10
707.54874500000017
 20
530.25222500000007
 11
707.97249500000021
 21
530.25222500000007
  0
LINE
  8
_0-1_レイヤ___1
  6
CONTINUOUS
 62
    7
 10
707.97249500000021
 20
530.25222500000007
 11
708.39623500000016
 21
530.25222500000007
  0
LINE
  8
_0-1_レイヤ___1
  6
CONTINUOUS
 62
    7
 10
708.39623500000016
 20
530.25222500000007
 11
708.81826500000011
 21
530.25222500000007
  0
LINE
  8
_0-1_レイヤ___1
  6
CONTINUOUS
 62
    7
 10
708.81826500000011
 20
530.25222500000007
 11
709.24200500000006
 21
530.25222500000007
  0
LINE
  8
_0-1_レイヤ___1
  6
CONTINUOUS
 62
    7
 10
709.24200500000006
 20
530.25222500000007
 11
709.66575500000022
 21
530.25222500000007
  0
LINE
  8
_0-1_レイヤ___1
  6
CONTINUOUS
 62
    7
 10
709.66575500000022
 20
530.25222500000007
 11
710.08950500000014
 21
530.25222500000007
  0
LINE
  8
_0-1_レイヤ___1
  6
CONTINUOUS
 62
    7
 10
645.74200500000018
 20
700.43305499999997
 11
661.4051350000002
 21
574.70084500000007
  0
LINE
  8
_0-1_レイヤ___1
  6
CONTINUOUS
 62
    7
 10
937.84304500000019
 20
515.01112499999999
 11
926.83596500000021
 21
520.51638500000001
  0
LINE
  8
_0-1_レイヤ___1
  6
CONTINUOUS
 62
    7
 10
926.83596500000021
 20
520.51638500000001
 11
916.25262500000019
 21
522.20792500000005
  0
LINE
  8
_0-1_レイヤ___1
  6
CONTINUOUS
 62
    7
 10
937.84304500000019
 20
515.01112499999999
 11
1055.105485
 21
515.01112499999999
  0
LINE
  8
_0-1_レイヤ___1
  6
CONTINUOUS
 62
    7
 10
916.25262500000019
 20
522.20792500000005
 11
710.08950500000014
 21
529.40473500000007
  0
LINE
  8
_0-1_レイヤ___1
  6
CONTINUOUS
 62
    7
 10
645.74200500000018
 20
700.43305499999997
 11
644.04874500000005
 21
709.32139500000005
  0
LINE
  8
_0-1_レイヤ___1
  6
CONTINUOUS
 62
    7
 10
644.04874500000005
 20
709.32139500000005
 11
638.54520500000012
 21
714.82666500000005
  0
LINE
  8
_0-1_レイヤ___1
  6
CONTINUOUS
 62
    7
 10
996.26152500000012
 20
386.31958499999996
 11
996.26152500000012
 21
387.58737499999995
  0
LINE
  8
_0-1_レイヤ___1
  6
CONTINUOUS
 62
    7
 10
996.26152500000012
 20
390.55360500000006
 11
996.26152500000012
 21
391.82139500000005
  0
LINE
  8
_0-1_レイヤ___1
  6
CONTINUOUS
 62
    7
 10
996.26152500000012
 20
394.78417500000006
 11
996.26152500000012
 21
407.48624500000005
  0
LINE
  8
_0-1_レイヤ___1
  6
CONTINUOUS
 62
    7
 10
996.26152500000012
 20
411.29652500000009
 11
996.26152500000012
 21
412.14057500000001
  0
LINE
  8
_0-1_レイヤ___1
  6
CONTINUOUS
 62
    7
 10
996.26152500000012
 20
423.57139500000005
 11
996.26152500000012
 21
426.95792500000005
  0
LINE
  8
_0-1_レイヤ___1
  6
CONTINUOUS
 62
    7
 10
996.26152500000012
 20
434.15473500000007
 11
996.26152500000012
 21
465.90473500000002
  0
LINE
  8
_0-1_レイヤ___1
  6
CONTINUOUS
 62
    7
 10
996.26152500000012
 20
476.48806500000001
 11
996.26152500000012
 21
479.874595
  0
LINE
  8
_0-1_レイヤ___1
  6
CONTINUOUS
 62
    7
 10
996.26152500000012
 20
487.07139500000005
 11
996.26152500000012
 21
518.82139500000005
  0
LINE
  8
_0-1_レイヤ___1
  6
CONTINUOUS
 62
    7
 10
996.26152500000012
 20
529.40473500000007
 11
996.26152500000012
 21
532.79125499999998
  0
LINE
  8
_0-1_レイヤ___1
  6
CONTINUOUS
 62
    7
 10
996.26152500000012
 20
539.98806500000001
 11
996.26152500000012
 21
571.73806500000001
  0
LINE
  8
_0-1_レイヤ___1
  6
CONTINUOUS
 62
    7
 10
996.26152500000012
 20
577.24332500000003
 11
996.26152500000012
 21
578.08737499999995
  0
LINE
  8
_0-1_レイヤ___1
  6
CONTINUOUS
 62
    7
 10
1354.4015950000003
 20
714.82666500000005
 11
1359.4831150000002
 21
720.32847500000003
  0
LINE
  8
_0-1_レイヤ___1
  6
CONTINUOUS
 62
    7
 10
1331.541665
 20
574.70084500000007
 11
1331.1196450000002
 21
574.70084500000007
  0
LINE
  8
_0-1_レイヤ___1
  6
CONTINUOUS
 62
    7
 10
1331.1196450000002
 20
574.70084500000007
 11
1331.1196450000002
 21
574.28054500000007
  0
LINE
  8
_0-1_レイヤ___1
  6
CONTINUOUS
 62
    7
 10
1331.1196450000002
 20
574.28054500000007
 11
1331.1196450000002
 21
573.85679500000003
  0
LINE
  8
_0-1_レイヤ___1
  6
CONTINUOUS
 62
    7
 10
1331.1196450000002
 20
573.85679500000003
 11
1331.1196450000002
 21
573.43305499999997
  0
LINE
  8
_0-1_レイヤ___1
  6
CONTINUOUS
 62
    7
 10
1331.1196450000002
 20
573.43305499999997
 11
1331.1196450000002
 21
573.00930500000004
  0
LINE
  8
_0-1_レイヤ___1
  6
CONTINUOUS
 62
    7
 10
1331.1196450000002
 20
573.00930500000004
 11
1331.1196450000002
 21
572.585555
  0
LINE
  8
_0-1_レイヤ___1
  6
CONTINUOUS
 62
    7
 10
1331.1196450000002
 20
572.585555
 11
1331.1196450000002
 21
572.16181500000005
  0
LINE
  8
_0-1_レイヤ___1
  6
CONTINUOUS
 62
    7
 10
1331.1196450000002
 20
572.16181500000005
 11
1330.6958950000001
 21
571.73806500000001
  0
LINE
  8
_0-1_レイヤ___1
  6
CONTINUOUS
 62
    7
 10
1330.6958950000001
 20
571.73806500000001
 11
1330.6958950000001
 21
571.31431500000008
  0
LINE
  8
_0-1_レイヤ___1
  6
CONTINUOUS
 62
    7
 10
1330.6958950000001
 20
571.31431500000008
 11
1330.6958950000001
 21
570.89057500000001
  0
LINE
  8
_0-1_レイヤ___1
  6
CONTINUOUS
 62
    7
 10
1330.6958950000001
 20
570.89057500000001
 11
1330.6958950000001
 21
570.47026500000004
  0
LINE
  8
_0-1_レイヤ___1
  6
CONTINUOUS
 62
    7
 10
1330.6958950000001
 20
570.47026500000004
 11
1330.6958950000001
 21
570.04652500000009
  0
LINE
  8
_0-1_レイヤ___1
  6
CONTINUOUS
 62
    7
 10
1330.6958950000001
 20
570.04652500000009
 11
1330.2721450000001
 21
569.62277500000005
  0
LINE
  8
_0-1_レイヤ___1
  6
CONTINUOUS
 62
    7
 10
1330.2721450000001
 20
569.62277500000005
 11
1330.2721450000001
 21
569.19902500000001
  0
LINE
  8
_0-1_レイヤ___1
  6
CONTINUOUS
 62
    7
 10
1330.2721450000001
 20
569.19902500000001
 11
1330.2721450000001
 21
568.77528500000005
  0
LINE
  8
_0-1_レイヤ___1
  6
CONTINUOUS
 62
    7
 10
1330.2721450000001
 20
568.77528500000005
 11
1330.2721450000001
 21
568.35153500000001
  0
LINE
  8
_0-1_レイヤ___1
  6
CONTINUOUS
 62
    7
 10
1330.2721450000001
 20
568.35153500000001
 11
1330.2721450000001
 21
567.92778500000009
  0
LINE
  8
_0-1_レイヤ___1
  6
CONTINUOUS
 62
    7
 10
1330.2721450000001
 20
567.92778500000009
 11
1329.8484050000002
 21
567.92778500000009
  0
LINE
  8
_0-1_レイヤ___1
  6
CONTINUOUS
 62
    7
 10
1329.8484050000002
 20
567.92778500000009
 11
1329.8484050000002
 21
567.50404500000002
  0
LINE
  8
_0-1_レイヤ___1
  6
CONTINUOUS
 62
    7
 10
1329.8484050000002
 20
567.50404500000002
 11
1329.8484050000002
 21
567.08374500000002
  0
LINE
  8
_0-1_レイヤ___1
  6
CONTINUOUS
 62
    7
 10
1329.8484050000002
 20
567.08374500000002
 11
1329.8484050000002
 21
566.65999500000009
  0
LINE
  8
_0-1_レイヤ___1
  6
CONTINUOUS
 62
    7
 10
1329.8484050000002
 20
566.65999500000009
 11
1329.4263750000002
 21
566.65999500000009
  0
LINE
  8
_0-1_レイヤ___1
  6
CONTINUOUS
 62
    7
 10
1329.4263750000002
 20
566.65999500000009
 11
1329.4263750000002
 21
566.23624500000005
  0
LINE
  8
_0-1_レイヤ___1
  6
CONTINUOUS
 62
    7
 10
1329.4263750000002
 20
566.23624500000005
 11
1329.4263750000002
 21
565.81250499999999
  0
LINE
  8
_0-1_レイヤ___1
  6
CONTINUOUS
 62
    7
 10
1329.4263750000002
 20
565.81250499999999
 11
1329.4263750000002
 21
565.38875500000006
  0
LINE
  8
_0-1_レイヤ___1
  6
CONTINUOUS
 62
    7
 10
1329.4263750000002
 20
565.38875500000006
 11
1329.0026250000003
 21
564.96500500000002
  0
LINE
  8
_0-1_レイヤ___1
  6
CONTINUOUS
 62
    7
 10
1329.0026250000003
 20
564.96500500000002
 11
1329.0026250000003
 21
564.54125500000009
  0
LINE
  8
_0-1_レイヤ___1
  6
CONTINUOUS
 62
    7
 10
1329.0026250000003
 20
564.54125500000009
 11
1329.0026250000003
 21
564.11751500000003
  0
LINE
  8
_0-1_レイヤ___1
  6
CONTINUOUS
 62
    7
 10
1329.0026250000003
 20
564.11751500000003
 11
1328.5788849999999
 21
563.69721500000003
  0
LINE
  8
_0-1_レイヤ___1
  6
CONTINUOUS
 62
    7
 10
1328.5788849999999
 20
563.69721500000003
 11
1328.5788849999999
 21
563.27346499999999
  0
LINE
  8
_0-1_レイヤ___1
  6
CONTINUOUS
 62
    7
 10
1328.5788849999999
 20
563.27346499999999
 11
1328.5788849999999
 21
562.84971500000006
  0
LINE
  8
_0-1_レイヤ___1
  6
CONTINUOUS
 62
    7
 10
1328.5788849999999
 20
562.84971500000006
 11
1328.155135
 21
562.84971500000006
  0
LINE
  8
_0-1_レイヤ___1
  6
CONTINUOUS
 62
    7
 10
1328.155135
 20
562.84971500000006
 11
1328.155135
 21
562.42597499999999
  0
LINE
  8
_0-1_レイヤ___1
  6
CONTINUOUS
 62
    7
 10
1328.155135
 20
562.42597499999999
 11
1328.155135
 21
562.00222500000007
  0
LINE
  8
_0-1_レイヤ___1
  6
CONTINUOUS
 62
    7
 10
1328.155135
 20
562.00222500000007
 11
1328.155135
 21
561.57847500000003
  0
LINE
  8
_0-1_レイヤ___1
  6
CONTINUOUS
 62
    7
 10
1328.155135
 20
561.57847500000003
 11
1327.733115
 21
561.57847500000003
  0
LINE
  8
_0-1_レイヤ___1
  6
CONTINUOUS
 62
    7
 10
1327.733115
 20
561.57847500000003
 11
1327.733115
 21
561.15473499999996
  0
LINE
  8
_0-1_レイヤ___1
  6
CONTINUOUS
 62
    7
 10
1327.733115
 20
561.15473499999996
 11
1327.733115
 21
560.73098500000003
  0
LINE
  8
_0-1_レイヤ___1
  6
CONTINUOUS
 62
    7
 10
1327.733115
 20
560.73098500000003
 11
1327.3093650000001
 21
560.73098500000003
  0
LINE
  8
_0-1_レイヤ___1
  6
CONTINUOUS
 62
    7
 10
1327.3093650000001
 20
560.73098500000003
 11
1327.3093650000001
 21
560.30723499999999
  0
LINE
  8
_0-1_レイヤ___1
  6
CONTINUOUS
 62
    7
 10
1327.3093650000001
 20
560.30723499999999
 11
1327.3093650000001
 21
559.88693499999999
  0
LINE
  8
_0-1_レイヤ___1
  6
CONTINUOUS
 62
    7
 10
1327.3093650000001
 20
559.88693499999999
 11
1326.8856150000001
 21
559.88693499999999
  0
LINE
  8
_0-1_レイヤ___1
  6
CONTINUOUS
 62
    7
 10
1326.8856150000001
 20
559.88693499999999
 11
1326.8856150000001
 21
559.46318500000007
  0
LINE
  8
_0-1_レイヤ___1
  6
CONTINUOUS
 62
    7
 10
1326.8856150000001
 20
559.46318500000007
 11
1326.8856150000001
 21
559.039445
  0
LINE
  8
_0-1_レイヤ___1
  6
CONTINUOUS
 62
    7
 10
1326.8856150000001
 20
559.039445
 11
1326.4618750000002
 21
558.61569499999996
  0
LINE
  8
_0-1_レイヤ___1
  6
CONTINUOUS
 62
    7
 10
1326.4618750000002
 20
558.61569499999996
 11
1326.4618750000002
 21
558.19194500000003
  0
LINE
  8
_0-1_レイヤ___1
  6
CONTINUOUS
 62
    7
 10
1326.4618750000002
 20
558.19194500000003
 11
1326.038125
 21
557.76820499999997
  0
LINE
  8
_0-1_レイヤ___1
  6
CONTINUOUS
 62
    7
 10
1326.038125
 20
557.76820499999997
 11
1326.038125
 21
557.34445500000004
  0
LINE
  8
_0-1_レイヤ___1
  6
CONTINUOUS
 62
    7
 10
1326.038125
 20
557.34445500000004
 11
1325.6161050000003
 21
556.920705
  0
LINE
  8
_0-1_レイヤ___1
  6
CONTINUOUS
 62
    7
 10
1325.6161050000003
 20
556.920705
 11
1325.6161050000003
 21
556.500405
  0
LINE
  8
_0-1_レイヤ___1
  6
CONTINUOUS
 62
    7
 10
1325.6161050000003
 20
556.500405
 11
1325.1923550000004
 21
556.500405
  0
LINE
  8
_0-1_レイヤ___1
  6
CONTINUOUS
 62
    7
 10
1325.1923550000004
 20
556.500405
 11
1325.1923550000004
 21
556.07666500000005
  0
LINE
  8
_0-1_レイヤ___1
  6
CONTINUOUS
 62
    7
 10
1325.1923550000004
 20
556.07666500000005
 11
1325.1923550000004
 21
555.65291500000001
  0
LINE
  8
_0-1_レイヤ___1
  6
CONTINUOUS
 62
    7
 10
1325.1923550000004
 20
555.65291500000001
 11
1324.7686050000002
 21
555.65291500000001
  0
LINE
  8
_0-1_レイヤ___1
  6
CONTINUOUS
 62
    7
 10
1324.7686050000002
 20
555.65291500000001
 11
1324.7686050000002
 21
555.22916499999997
  0
LINE
  8
_0-1_レイヤ___1
  6
CONTINUOUS
 62
    7
 10
1324.7686050000002
 20
555.22916499999997
 11
1324.7686050000002
 21
554.80542500000001
  0
LINE
  8
_0-1_レイヤ___1
  6
CONTINUOUS
 62
    7
 10
1324.7686050000002
 20
554.80542500000001
 11
1324.3448650000003
 21
554.80542500000001
  0
LINE
  8
_0-1_レイヤ___1
  6
CONTINUOUS
 62
    7
 10
1324.3448650000003
 20
554.80542500000001
 11
1324.3448650000003
 21
554.38167500000009
  0
LINE
  8
_0-1_レイヤ___1
  6
CONTINUOUS
 62
    7
 10
1324.3448650000003
 20
554.38167500000009
 11
1323.9228350000003
 21
553.95792500000005
  0
LINE
  8
_0-1_レイヤ___1
  6
CONTINUOUS
 62
    7
 10
1323.9228350000003
 20
553.95792500000005
 11
1323.9228350000003
 21
553.534175
  0
LINE
  8
_0-1_レイヤ___1
  6
CONTINUOUS
 62
    7
 10
1323.9228350000003
 20
553.534175
 11
1323.4990850000004
 21
553.534175
  0
LINE
  8
_0-1_レイヤ___1
  6
CONTINUOUS
 62
    7
 10
1323.4990850000004
 20
553.534175
 11
1323.4990850000004
 21
553.11387500000001
  0
LINE
  8
_0-1_レイヤ___1
  6
CONTINUOUS
 62
    7
 10
1323.4990850000004
 20
553.11387500000001
 11
1323.0753450000002
 21
552.69013500000005
  0
LINE
  8
_0-1_レイヤ___1
  6
CONTINUOUS
 62
    7
 10
1323.0753450000002
 20
552.69013500000005
 11
1323.0753450000002
 21
552.26638500000001
  0
LINE
  8
_0-1_レイヤ___1
  6
CONTINUOUS
 62
    7
 10
1323.0753450000002
 20
552.26638500000001
 11
1322.651595
 21
552.26638500000001
  0
LINE
  8
_0-1_レイヤ___1
  6
CONTINUOUS
 62
    7
 10
1322.651595
 20
552.26638500000001
 11
1322.651595
 21
551.84263499999997
  0
LINE
  8
_0-1_レイヤ___1
  6
CONTINUOUS
 62
    7
 10
1322.651595
 20
551.84263499999997
 11
1322.2295750000001
 21
551.84263499999997
  0
LINE
  8
_0-1_レイヤ___1
  6
CONTINUOUS
 62
    7
 10
1322.2295750000001
 20
551.84263499999997
 11
1322.2295750000001
 21
551.41889500000002
  0
LINE
  8
_0-1_レイヤ___1
  6
CONTINUOUS
 62
    7
 10
1322.2295750000001
 20
551.41889500000002
 11
1322.2295750000001
 21
550.99514500000009
  0
LINE
  8
_0-1_レイヤ___1
  6
CONTINUOUS
 62
    7
 10
1322.2295750000001
 20
550.99514500000009
 11
1321.8058250000001
 21
550.99514500000009
  0
LINE
  8
_0-1_レイヤ___1
  6
CONTINUOUS
 62
    7
 10
1321.8058250000001
 20
550.99514500000009
 11
1321.8058250000001
 21
550.57139500000005
  0
LINE
  8
_0-1_レイヤ___1
  6
CONTINUOUS
 62
    7
 10
1321.8058250000001
 20
550.57139500000005
 11
1321.3820750000002
 21
550.57139500000005
  0
LINE
  8
_0-1_レイヤ___1
  6
CONTINUOUS
 62
    7
 10
1321.3820750000002
 20
550.57139500000005
 11
1321.3820750000002
 21
550.14765499999999
  0
LINE
  8
_0-1_レイヤ___1
  6
CONTINUOUS
 62
    7
 10
1321.3820750000002
 20
550.14765499999999
 11
1320.9583350000003
 21
550.14765499999999
  0
LINE
  8
_0-1_レイヤ___1
  6
CONTINUOUS
 62
    7
 10
1320.9583350000003
 20
550.14765499999999
 11
1320.9583350000003
 21
549.72390500000006
  0
LINE
  8
_0-1_レイヤ___1
  6
CONTINUOUS
 62
    7
 10
1320.9583350000003
 20
549.72390500000006
 11
1320.9583350000003
 21
549.30360500000006
  0
LINE
  8
_0-1_レイヤ___1
  6
CONTINUOUS
 62
    7
 10
1320.9583350000003
 20
549.30360500000006
 11
1320.5363050000001
 21
549.30360500000006
  0
LINE
  8
_0-1_レイヤ___1
  6
CONTINUOUS
 62
    7
 10
1320.5363050000001
 20
549.30360500000006
 11
1320.5363050000001
 21
548.87985500000002
  0
LINE
  8
_0-1_レイヤ___1
  6
CONTINUOUS
 62
    7
 10
1320.5363050000001
 20
548.87985500000002
 11
1320.1125649999999
 21
548.87985500000002
  0
LINE
  8
_0-1_レイヤ___1
  6
CONTINUOUS
 62
    7
 10
1320.1125649999999
 20
548.87985500000002
 11
1320.1125649999999
 21
548.45610499999998
  0
LINE
  8
_0-1_レイヤ___1
  6
CONTINUOUS
 62
    7
 10
1320.1125649999999
 20
548.45610499999998
 11
1319.688815
 21
548.45610499999998
  0
LINE
  8
_0-1_レイヤ___1
  6
CONTINUOUS
 62
    7
 10
1319.688815
 20
548.45610499999998
 11
1319.688815
 21
548.03236500000003
  0
LINE
  8
_0-1_レイヤ___1
  6
CONTINUOUS
 62
    7
 10
1319.688815
 20
548.03236500000003
 11
1319.265065
 21
548.03236500000003
  0
LINE
  8
_0-1_レイヤ___1
  6
CONTINUOUS
 62
    7
 10
1319.265065
 20
548.03236500000003
 11
1319.265065
 21
547.6086150000001
  0
LINE
  8
_0-1_レイヤ___1
  6
CONTINUOUS
 62
    7
 10
1319.265065
 20
547.6086150000001
 11
1318.8430450000001
 21
547.18486500000006
  0
LINE
  8
_0-1_レイヤ___1
  6
CONTINUOUS
 62
    7
 10
1318.8430450000001
 20
547.18486500000006
 11
1318.4192950000001
 21
546.76112499999999
  0
LINE
  8
_0-1_レイヤ___1
  6
CONTINUOUS
 62
    7
 10
1318.4192950000001
 20
546.76112499999999
 11
1318.4192950000001
 21
546.33737500000007
  0
LINE
  8
_0-1_レイヤ___1
  6
CONTINUOUS
 62
    7
 10
1318.4192950000001
 20
546.33737500000007
 11
1317.995545
 21
546.33737500000007
  0
LINE
  8
_0-1_レイヤ___1
  6
CONTINUOUS
 62
    7
 10
1317.995545
 20
546.33737500000007
 11
1317.995545
 21
545.91707500000007
  0
LINE
  8
_0-1_レイヤ___1
  6
CONTINUOUS
 62
    7
 10
1317.995545
 20
545.91707500000007
 11
1317.571805
 21
545.91707500000007
  0
LINE
  8
_0-1_レイヤ___1
  6
CONTINUOUS
 62
    7
 10
1317.571805
 20
545.91707500000007
 11
1317.571805
 21
545.49332500000003
  0
LINE
  8
_0-1_レイヤ___1
  6
CONTINUOUS
 62
    7
 10
1317.571805
 20
545.49332500000003
 11
1317.1497750000003
 21
545.49332500000003
  0
LINE
  8
_0-1_レイヤ___1
  6
CONTINUOUS
 62
    7
 10
1317.1497750000003
 20
545.49332500000003
 11
1317.1497750000003
 21
545.06958500000007
  0
LINE
  8
_0-1_レイヤ___1
  6
CONTINUOUS
 62
    7
 10
1317.1497750000003
 20
545.06958500000007
 11
1316.7260350000004
 21
545.06958500000007
  0
LINE
  8
_0-1_レイヤ___1
  6
CONTINUOUS
 62
    7
 10
1316.7260350000004
 20
545.06958500000007
 11
1316.7260350000004
 21
544.64583500000003
  0
LINE
  8
_0-1_レイヤ___1
  6
CONTINUOUS
 62
    7
 10
1316.7260350000004
 20
544.64583500000003
 11
1316.3022850000002
 21
544.64583500000003
  0
LINE
  8
_0-1_レイヤ___1
  6
CONTINUOUS
 62
    7
 10
1316.3022850000002
 20
544.64583500000003
 11
1316.3022850000002
 21
544.22208499999999
  0
LINE
  8
_0-1_レイヤ___1
  6
CONTINUOUS
 62
    7
 10
1316.3022850000002
 20
544.22208499999999
 11
1315.8785349999998
 21
544.22208499999999
  0
LINE
  8
_0-1_レイヤ___1
  6
CONTINUOUS
 62
    7
 10
1315.8785349999998
 20
544.22208499999999
 11
1315.8785349999998
 21
543.79834500000004
  0
LINE
  8
_0-1_レイヤ___1
  6
CONTINUOUS
 62
    7
 10
1315.8785349999998
 20
543.79834500000004
 11
1315.4547950000001
 21
543.79834500000004
  0
LINE
  8
_0-1_レイヤ___1
  6
CONTINUOUS
 62
    7
 10
1315.4547950000001
 20
543.79834500000004
 11
1315.4547950000001
 21
543.374595
  0
LINE
  8
_0-1_レイヤ___1
  6
CONTINUOUS
 62
    7
 10
1315.4547950000001
 20
543.374595
 11
1315.0327650000004
 21
543.374595
  0
LINE
  8
_0-1_レイヤ___1
  6
CONTINUOUS
 62
    7
 10
1315.0327650000004
 20
543.374595
 11
1314.6090250000002
 21
542.95084500000007
  0
LINE
  8
_0-1_レイヤ___1
  6
CONTINUOUS
 62
    7
 10
1314.6090250000002
 20
542.95084500000007
 11
1314.185275
 21
542.53054500000007
  0
LINE
  8
_0-1_レイヤ___1
  6
CONTINUOUS
 62
    7
 10
1314.185275
 20
542.53054500000007
 11
1313.7615250000001
 21
542.10679500000003
  0
LINE
  8
_0-1_レイヤ___1
  6
CONTINUOUS
 62
    7
 10
1313.7615250000001
 20
542.10679500000003
 11
1313.3395050000001
 21
542.10679500000003
  0
LINE
  8
_0-1_レイヤ___1
  6
CONTINUOUS
 62
    7
 10
1313.3395050000001
 20
542.10679500000003
 11
1313.3395050000001
 21
541.68305499999997
  0
LINE
  8
_0-1_レイヤ___1
  6
CONTINUOUS
 62
    7
 10
1313.3395050000001
 20
541.68305499999997
 11
1312.9157550000002
 21
541.68305499999997
  0
LINE
  8
_0-1_レイヤ___1
  6
CONTINUOUS
 62
    7
 10
1312.9157550000002
 20
541.68305499999997
 11
1312.9157550000002
 21
541.25930500000004
  0
LINE
  8
_0-1_レイヤ___1
  6
CONTINUOUS
 62
    7
 10
1312.9157550000002
 20
541.25930500000004
 11
1312.4920050000003
 21
541.25930500000004
  0
LINE
  8
_0-1_レイヤ___1
  6
CONTINUOUS
 62
    7
 10
1312.4920050000003
 20
541.25930500000004
 11
1312.0682650000003
 21
540.835555
  0
LINE
  8
_0-1_レイヤ___1
  6
CONTINUOUS
 62
    7
 10
1312.0682650000003
 20
540.835555
 11
1311.6462350000002
 21
540.835555
  0
LINE
  8
_0-1_レイヤ___1
  6
CONTINUOUS
 62
    7
 10
1311.6462350000002
 20
540.835555
 11
1311.6462350000002
 21
540.41181500000005
  0
LINE
  8
_0-1_レイヤ___1
  6
CONTINUOUS
 62
    7
 10
1311.6462350000002
 20
540.41181500000005
 11
1311.222495
 21
540.41181500000005
  0
LINE
  8
_0-1_レイヤ___1
  6
CONTINUOUS
 62
    7
 10
1311.222495
 20
540.41181500000005
 11
1311.222495
 21
539.98806500000001
  0
LINE
  8
_0-1_レイヤ___1
  6
CONTINUOUS
 62
    7
 10
1311.222495
 20
539.98806500000001
 11
1310.7987450000001
 21
539.98806500000001
  0
LINE
  8
_0-1_レイヤ___1
  6
CONTINUOUS
 62
    7
 10
1310.7987450000001
 20
539.98806500000001
 11
1310.3749950000001
 21
539.56431499999997
  0
LINE
  8
_0-1_レイヤ___1
  6
CONTINUOUS
 62
    7
 10
1310.3749950000001
 20
539.56431499999997
 11
1309.9529750000002
 21
539.56431499999997
  0
LINE
  8
_0-1_レイヤ___1
  6
CONTINUOUS
 62
    7
 10
1309.9529750000002
 20
539.56431499999997
 11
1309.9529750000002
 21
539.14057500000001
  0
LINE
  8
_0-1_レイヤ___1
  6
CONTINUOUS
 62
    7
 10
1309.9529750000002
 20
539.14057500000001
 11
1309.529225
 21
539.14057500000001
  0
LINE
  8
_0-1_レイヤ___1
  6
CONTINUOUS
 62
    7
 10
1309.529225
 20
539.14057500000001
 11
1309.529225
 21
538.72026500000004
  0
LINE
  8
_0-1_レイヤ___1
  6
CONTINUOUS
 62
    7
 10
1309.529225
 20
538.72026500000004
 11
1309.105485
 21
538.72026500000004
  0
LINE
  8
_0-1_レイヤ___1
  6
CONTINUOUS
 62
    7
 10
1309.105485
 20
538.72026500000004
 11
1308.6817350000001
 21
538.72026500000004
  0
LINE
  8
_0-1_レイヤ___1
  6
CONTINUOUS
 62
    7
 10
1308.6817350000001
 20
538.72026500000004
 11
1308.6817350000001
 21
538.29652499999997
  0
LINE
  8
_0-1_レイヤ___1
  6
CONTINUOUS
 62
    7
 10
1308.6817350000001
 20
538.29652499999997
 11
1308.2597050000002
 21
538.29652499999997
  0
LINE
  8
_0-1_レイヤ___1
  6
CONTINUOUS
 62
    7
 10
1308.2597050000002
 20
538.29652499999997
 11
1308.2597050000002
 21
537.87277500000005
  0
LINE
  8
_0-1_レイヤ___1
  6
CONTINUOUS
 62
    7
 10
1308.2597050000002
 20
537.87277500000005
 11
1307.8359650000002
 21
537.87277500000005
  0
LINE
  8
_0-1_レイヤ___1
  6
CONTINUOUS
 62
    7
 10
1307.8359650000002
 20
537.87277500000005
 11
1307.4122149999998
 21
537.87277500000005
  0
LINE
  8
_0-1_レイヤ___1
  6
CONTINUOUS
 62
    7
 10
1307.4122149999998
 20
537.87277500000005
 11
1307.4122149999998
 21
537.44902500000001
  0
LINE
  8
_0-1_レイヤ___1
  6
CONTINUOUS
 62
    7
 10
1307.4122149999998
 20
537.44902500000001
 11
1306.9884649999999
 21
537.44902500000001
  0
LINE
  8
_0-1_レイヤ___1
  6
CONTINUOUS
 62
    7
 10
1306.9884649999999
 20
537.44902500000001
 11
1306.5664450000004
 21
537.02528499999994
  0
LINE
  8
_0-1_レイヤ___1
  6
CONTINUOUS
 62
    7
 10
1306.5664450000004
 20
537.02528499999994
 11
1306.1426950000005
 21
537.02528499999994
  0
LINE
  8
_0-1_レイヤ___1
  6
CONTINUOUS
 62
    7
 10
1306.1426950000005
 20
537.02528499999994
 11
1306.1426950000005
 21
536.60153500000001
  0
LINE
  8
_0-1_レイヤ___1
  6
CONTINUOUS
 62
    7
 10
1306.1426950000005
 20
536.60153500000001
 11
1305.7189550000001
 21
536.60153500000001
  0
LINE
  8
_0-1_レイヤ___1
  6
CONTINUOUS
 62
    7
 10
1305.7189550000001
 20
536.60153500000001
 11
1305.2952050000001
 21
536.60153500000001
  0
LINE
  8
_0-1_レイヤ___1
  6
CONTINUOUS
 62
    7
 10
1305.2952050000001
 20
536.60153500000001
 11
1305.2952050000001
 21
536.17778499999997
  0
LINE
  8
_0-1_レイヤ___1
  6
CONTINUOUS
 62
    7
 10
1305.2952050000001
 20
536.17778499999997
 11
1304.871455
 21
536.17778499999997
  0
LINE
  8
_0-1_レイヤ___1
  6
CONTINUOUS
 62
    7
 10
1304.871455
 20
536.17778499999997
 11
1304.4494350000002
 21
536.17778499999997
  0
LINE
  8
_0-1_レイヤ___1
  6
CONTINUOUS
 62
    7
 10
1304.4494350000002
 20
536.17778499999997
 11
1304.4494350000002
 21
535.75404500000002
  0
LINE
  8
_0-1_レイヤ___1
  6
CONTINUOUS
 62
    7
 10
1304.4494350000002
 20
535.75404500000002
 11
1304.0256850000003
 21
535.75404500000002
  0
LINE
  8
_0-1_レイヤ___1
  6
CONTINUOUS
 62
    7
 10
1304.0256850000003
 20
535.75404500000002
 11
1303.6019450000003
 21
535.75404500000002
  0
LINE
  8
_0-1_レイヤ___1
  6
CONTINUOUS
 62
    7
 10
1303.6019450000003
 20
535.75404500000002
 11
1303.6019450000003
 21
535.33374500000002
  0
LINE
  8
_0-1_レイヤ___1
  6
CONTINUOUS
 62
    7
 10
1303.6019450000003
 20
535.33374500000002
 11
1303.1781950000002
 21
535.33374500000002
  0
LINE
  8
_0-1_レイヤ___1
  6
CONTINUOUS
 62
    7
 10
1303.1781950000002
 20
535.33374500000002
 11
1302.7561650000002
 21
535.33374500000002
  0
LINE
  8
_0-1_レイヤ___1
  6
CONTINUOUS
 62
    7
 10
1302.7561650000002
 20
535.33374500000002
 11
1302.7561650000002
 21
534.90999499999998
  0
LINE
  8
_0-1_レイヤ___1
  6
CONTINUOUS
 62
    7
 10
1302.7561650000002
 20
534.90999499999998
 11
1302.3324250000001
 21
534.90999499999998
  0
LINE
  8
_0-1_レイヤ___1
  6
CONTINUOUS
 62
    7
 10
1302.3324250000001
 20
534.90999499999998
 11
1301.9086750000001
 21
534.90999499999998
  0
LINE
  8
_0-1_レイヤ___1
  6
CONTINUOUS
 62
    7
 10
1301.9086750000001
 20
534.90999499999998
 11
1301.9086750000001
 21
534.48624500000005
  0
LINE
  8
_0-1_レイヤ___1
  6
CONTINUOUS
 62
    7
 10
1301.9086750000001
 20
534.48624500000005
 11
1301.4849250000002
 21
534.48624500000005
  0
LINE
  8
_0-1_レイヤ___1
  6
CONTINUOUS
 62
    7
 10
1301.4849250000002
 20
534.48624500000005
 11
1301.062905
 21
534.48624500000005
  0
LINE
  8
_0-1_レイヤ___1
  6
CONTINUOUS
 62
    7
 10
1301.062905
 20
534.48624500000005
 11
1301.062905
 21
534.0625050000001
  0
LINE
  8
_0-1_レイヤ___1
  6
CONTINUOUS
 62
    7
 10
1301.062905
 20
534.0625050000001
 11
1300.6391550000001
 21
534.0625050000001
  0
LINE
  8
_0-1_レイヤ___1
  6
CONTINUOUS
 62
    7
 10
1300.6391550000001
 20
534.0625050000001
 11
1300.2154150000001
 21
534.0625050000001
  0
LINE
  8
_0-1_レイヤ___1
  6
CONTINUOUS
 62
    7
 10
1300.2154150000001
 20
534.0625050000001
 11
1299.7916650000002
 21
534.0625050000001
  0
LINE
  8
_0-1_レイヤ___1
  6
CONTINUOUS
 62
    7
 10
1299.7916650000002
 20
534.0625050000001
 11
1299.7916650000002
 21
533.63875500000006
  0
LINE
  8
_0-1_レイヤ___1
  6
CONTINUOUS
 62
    7
 10
1299.7916650000002
 20
533.63875500000006
 11
1299.3696450000002
 21
533.63875500000006
  0
LINE
  8
_0-1_レイヤ___1
  6
CONTINUOUS
 62
    7
 10
1299.3696450000002
 20
533.63875500000006
 11
1298.9458949999998
 21
533.63875500000006
  0
LINE
  8
_0-1_レイヤ___1
  6
CONTINUOUS
 62
    7
 10
1298.9458949999998
 20
533.63875500000006
 11
1298.9458949999998
 21
533.21500500000002
  0
LINE
  8
_0-1_レイヤ___1
  6
CONTINUOUS
 62
    7
 10
1298.9458949999998
 20
533.21500500000002
 11
1298.5221449999999
 21
533.21500500000002
  0
LINE
  8
_0-1_レイヤ___1
  6
CONTINUOUS
 62
    7
 10
1298.5221449999999
 20
533.21500500000002
 11
1298.0984050000002
 21
533.21500500000002
  0
LINE
  8
_0-1_レイヤ___1
  6
CONTINUOUS
 62
    7
 10
1298.0984050000002
 20
533.21500500000002
 11
1297.6763750000005
 21
533.21500500000002
  0
LINE
  8
_0-1_レイヤ___1
  6
CONTINUOUS
 62
    7
 10
1297.6763750000005
 20
533.21500500000002
 11
1297.6763750000005
 21
532.79125499999998
  0
LINE
  8
_0-1_レイヤ___1
  6
CONTINUOUS
 62
    7
 10
1297.6763750000005
 20
532.79125499999998
 11
1297.2526250000001
 21
532.79125499999998
  0
LINE
  8
_0-1_レイヤ___1
  6
CONTINUOUS
 62
    7
 10
1297.2526250000001
 20
532.79125499999998
 11
1296.8288850000001
 21
532.79125499999998
  0
LINE
  8
_0-1_レイヤ___1
  6
CONTINUOUS
 62
    7
 10
1296.8288850000001
 20
532.79125499999998
 11
1296.405135
 21
532.79125499999998
  0
LINE
  8
_0-1_レイヤ___1
  6
CONTINUOUS
 62
    7
 10
1296.405135
 20
532.79125499999998
 11
1296.405135
 21
532.36751500000003
  0
LINE
  8
_0-1_レイヤ___1
  6
CONTINUOUS
 62
    7
 10
1296.405135
 20
532.36751500000003
 11
1295.9831150000002
 21
532.36751500000003
  0
LINE
  8
_0-1_レイヤ___1
  6
CONTINUOUS
 62
    7
 10
1295.9831150000002
 20
532.36751500000003
 11
1295.5593650000003
 21
532.36751500000003
  0
LINE
  8
_0-1_レイヤ___1
  6
CONTINUOUS
 62
    7
 10
1295.5593650000003
 20
532.36751500000003
 11
1295.1356150000001
 21
532.36751500000003
  0
LINE
  8
_0-1_レイヤ___1
  6
CONTINUOUS
 62
    7
 10
1295.1356150000001
 20
532.36751500000003
 11
1295.1356150000001
 21
531.94721500000003
  0
LINE
  8
_0-1_レイヤ___1
  6
CONTINUOUS
 62
    7
 10
1295.1356150000001
 20
531.94721500000003
 11
1294.7118750000002
 21
531.94721500000003
  0
LINE
  8
_0-1_レイヤ___1
  6
CONTINUOUS
 62
    7
 10
1294.7118750000002
 20
531.94721500000003
 11
1294.2881250000003
 21
531.94721500000003
  0
LINE
  8
_0-1_レイヤ___1
  6
CONTINUOUS
 62
    7
 10
1294.2881250000003
 20
531.94721500000003
 11
1293.8661050000001
 21
531.94721500000003
  0
LINE
  8
_0-1_レイヤ___1
  6
CONTINUOUS
 62
    7
 10
1293.8661050000001
 20
531.94721500000003
 11
1293.4423550000001
 21
531.94721500000003
  0
LINE
  8
_0-1_レイヤ___1
  6
CONTINUOUS
 62
    7
 10
1293.4423550000001
 20
531.94721500000003
 11
1293.4423550000001
 21
531.52346499999999
  0
LINE
  8
_0-1_レイヤ___1
  6
CONTINUOUS
 62
    7
 10
1293.4423550000001
 20
531.52346499999999
 11
1293.0186050000002
 21
531.52346499999999
  0
LINE
  8
_0-1_レイヤ___1
  6
CONTINUOUS
 62
    7
 10
1293.0186050000002
 20
531.52346499999999
 11
1292.594865
 21
531.52346499999999
  0
LINE
  8
_0-1_レイヤ___1
  6
CONTINUOUS
 62
    7
 10
1292.594865
 20
531.52346499999999
 11
1292.1728350000001
 21
531.52346499999999
  0
LINE
  8
_0-1_レイヤ___1
  6
CONTINUOUS
 62
    7
 10
1292.1728350000001
 20
531.52346499999999
 11
1291.7490850000002
 21
531.52346499999999
  0
LINE
  8
_0-1_レイヤ___1
  6
CONTINUOUS
 62
    7
 10
1291.7490850000002
 20
531.52346499999999
 11
1291.7490850000002
 21
531.09971500000006
  0
LINE
  8
_0-1_レイヤ___1
  6
CONTINUOUS
 62
    7
 10
1291.7490850000002
 20
531.09971500000006
 11
1291.3253450000002
 21
531.09971500000006
  0
LINE
  8
_0-1_レイヤ___1
  6
CONTINUOUS
 62
    7
 10
1291.3253450000002
 20
531.09971500000006
 11
1290.9015950000003
 21
531.09971500000006
  0
LINE
  8
_0-1_レイヤ___1
  6
CONTINUOUS
 62
    7
 10
1290.9015950000003
 20
531.09971500000006
 11
1290.4795749999998
 21
531.09971500000006
  0
LINE
  8
_0-1_レイヤ___1
  6
CONTINUOUS
 62
    7
 10
1290.4795749999998
 20
531.09971500000006
 11
1290.0558249999999
 21
531.09971500000006
  0
LINE
  8
_0-1_レイヤ___1
  6
CONTINUOUS
 62
    7
 10
1290.0558249999999
 20
531.09971500000006
 11
1289.632075
 21
531.09971500000006
  0
LINE
  8
_0-1_レイヤ___1
  6
CONTINUOUS
 62
    7
 10
1289.632075
 20
531.09971500000006
 11
1289.2083350000003
 21
530.67597500000011
  0
LINE
  8
_0-1_レイヤ___1
  6
CONTINUOUS
 62
    7
 10
1289.2083350000003
 20
530.67597500000011
 11
1288.7863050000001
 21
530.67597500000011
  0
LINE
  8
_0-1_レイヤ___1
  6
CONTINUOUS
 62
    7
 10
1288.7863050000001
 20
530.67597500000011
 11
1288.3625650000001
 21
530.67597500000011
  0
LINE
  8
_0-1_レイヤ___1
  6
CONTINUOUS
 62
    7
 10
1288.3625650000001
 20
530.67597500000011
 11
1287.938815
 21
530.67597500000011
  0
LINE
  8
_0-1_レイヤ___1
  6
CONTINUOUS
 62
    7
 10
1287.938815
 20
530.67597500000011
 11
1287.515065
 21
530.67597500000011
  0
LINE
  8
_0-1_レイヤ___1
  6
CONTINUOUS
 62
    7
 10
1287.515065
 20
530.67597500000011
 11
1287.0930450000003
 21
530.67597500000011
  0
LINE
  8
_0-1_レイヤ___1
  6
CONTINUOUS
 62
    7
 10
1287.0930450000003
 20
530.67597500000011
 11
1286.6692950000001
 21
530.67597500000011
  0
LINE
  8
_0-1_レイヤ___1
  6
CONTINUOUS
 62
    7
 10
1286.6692950000001
 20
530.67597500000011
 11
1286.2455450000002
 21
530.67597500000011
  0
LINE
  8
_0-1_レイヤ___1
  6
CONTINUOUS
 62
    7
 10
1286.2455450000002
 20
530.67597500000011
 11
1286.2455450000002
 21
530.25222500000007
  0
LINE
  8
_0-1_レイヤ___1
  6
CONTINUOUS
 62
    7
 10
1286.2455450000002
 20
530.25222500000007
 11
1285.8218050000003
 21
530.25222500000007
  0
LINE
  8
_0-1_レイヤ___1
  6
CONTINUOUS
 62
    7
 10
1285.8218050000003
 20
530.25222500000007
 11
1285.3997750000003
 21
530.25222500000007
  0
LINE
  8
_0-1_レイヤ___1
  6
CONTINUOUS
 62
    7
 10
1285.3997750000003
 20
530.25222500000007
 11
1284.9760350000001
 21
530.25222500000007
  0
LINE
  8
_0-1_レイヤ___1
  6
CONTINUOUS
 62
    7
 10
1284.9760350000001
 20
530.25222500000007
 11
1284.5522850000002
 21
530.25222500000007
  0
LINE
  8
_0-1_レイヤ___1
  6
CONTINUOUS
 62
    7
 10
1284.5522850000002
 20
530.25222500000007
 11
1284.1285350000001
 21
530.25222500000007
  0
LINE
  8
_0-1_レイヤ___1
  6
CONTINUOUS
 62
    7
 10
1284.1285350000001
 20
530.25222500000007
 11
1283.7047950000001
 21
530.25222500000007
  0
LINE
  8
_0-1_レイヤ___1
  6
CONTINUOUS
 62
    7
 10
1283.7047950000001
 20
530.25222500000007
 11
1283.2827650000002
 21
530.25222500000007
  0
LINE
  8
_0-1_レイヤ___1
  6
CONTINUOUS
 62
    7
 10
1283.2827650000002
 20
530.25222500000007
 11
1282.8590250000002
 21
530.25222500000007
  0
LINE
  8
_0-1_レイヤ___1
  6
CONTINUOUS
 62
    7
 10
1282.8590250000002
 20
530.25222500000007
 11
1282.4352750000003
 21
530.25222500000007
  0
LINE
  8
_0-1_レイヤ___1
  6
CONTINUOUS
 62
    7
 10
1347.2047950000001
 20
700.43305499999997
 11
1331.541665
 21
574.70084500000007
  0
LINE
  8
_0-1_レイヤ___1
  6
CONTINUOUS
 62
    7
 10
1055.105485
 20
515.01112499999999
 11
1066.1125650000001
 21
520.51638500000001
  0
LINE
  8
_0-1_レイヤ___1
  6
CONTINUOUS
 62
    7
 10
1066.1125650000001
 20
520.51638500000001
 11
1076.6958950000001
 21
522.20792500000005
  0
LINE
  8
_0-1_レイヤ___1
  6
CONTINUOUS
 62
    7
 10
1076.6958950000001
 20
522.20792500000005
 11
1282.4352750000003
 21
529.40473500000007
  0
LINE
  8
_0-1_レイヤ___1
  6
CONTINUOUS
 62
    7
 10
1347.2047950000001
 20
700.43305499999997
 11
1348.8997750000001
 21
709.32139500000005
  0
LINE
  8
_0-1_レイヤ___1
  6
CONTINUOUS
 62
    7
 10
1348.8997750000001
 20
709.32139500000005
 11
1354.4015950000003
 21
714.82666500000005
  0
LINE
  8
_0-1_レイヤ___1
  6
CONTINUOUS
 62
    7
 10
1098.2863050000001
 20
701.70084500000007
 11
1098.2863050000001
 21
714.40291500000001
  0
LINE
  8
_0-1_レイヤ___1
  6
CONTINUOUS
 62
    7
 10
1098.2863050000001
 20
718.63693499999999
 11
1098.2863050000001
 21
719.90473500000007
  0
LINE
  8
_0-1_レイヤ___1
  6
CONTINUOUS
 62
    7
 10
1098.2863050000001
 20
722.86751500000014
 11
1098.2863050000001
 21
724.13875500000006
  0
LINE
  8
_0-1_レイヤ___1
  6
CONTINUOUS
 62
    7
 10
1098.2863050000001
 20
727.10153500000001
 11
1098.2863050000001
 21
739.80360500000006
  0
LINE
  8
_0-1_レイヤ___1
  6
CONTINUOUS
 62
    7
 10
1098.2863050000001
 20
744.034175
 11
1098.2863050000001
 21
745.30542500000001
  0
LINE
  8
_0-1_レイヤ___1
  6
CONTINUOUS
 62
    7
 10
1098.2863050000001
 20
748.26820499999997
 11
1098.2863050000001
 21
749.53944500000011
  0
LINE
  8
_0-1_レイヤ___1
  6
CONTINUOUS
 62
    7
 10
1098.2863050000001
 20
752.50222500000007
 11
1098.2863050000001
 21
765.20084499999996
  0
LINE
  8
_0-1_レイヤ___1
  6
CONTINUOUS
 62
    7
 10
1098.2863050000001
 20
765.624595
 11
1098.2863050000001
 21
766.47208500000011
  0
LINE
  8
_0-1_レイヤ___1
  6
CONTINUOUS
 62
    7
 10
894.23846500000013
 20
701.70084500000007
 11
894.23846500000013
 21
714.40291500000001
  0
LINE
  8
_0-1_レイヤ___1
  6
CONTINUOUS
 62
    7
 10
894.23846500000013
 20
718.63693499999999
 11
894.23846500000013
 21
719.90473500000007
  0
LINE
  8
_0-1_レイヤ___1
  6
CONTINUOUS
 62
    7
 10
894.23846500000013
 20
722.86751500000014
 11
894.23846500000013
 21
724.13875500000006
  0
LINE
  8
_0-1_レイヤ___1
  6
CONTINUOUS
 62
    7
 10
894.23846500000013
 20
727.10153500000001
 11
894.23846500000013
 21
739.80360500000006
  0
LINE
  8
_0-1_レイヤ___1
  6
CONTINUOUS
 62
    7
 10
894.23846500000013
 20
744.034175
 11
894.23846500000013
 21
745.30542500000001
  0
LINE
  8
_0-1_レイヤ___1
  6
CONTINUOUS
 62
    7
 10
894.23846500000013
 20
748.26820499999997
 11
894.23846500000013
 21
749.53944500000011
  0
LINE
  8
_0-1_レイヤ___1
  6
CONTINUOUS
 62
    7
 10
894.23846500000013
 20
752.50222500000007
 11
894.23846500000013
 21
765.20084499999996
  0
LINE
  8
_0-1_レイヤ___1
  6
CONTINUOUS
 62
    7
 10
894.23846500000013
 20
765.624595
 11
894.23846500000013
 21
766.47208500000011
  0
LINE
  8
_0-1_レイヤ___1
  6
CONTINUOUS
 62
    7
 10
996.26152500000012
 20
701.70084500000007
 11
996.26152500000012
 21
714.40291500000001
  0
LINE
  8
_0-1_レイヤ___1
  6
CONTINUOUS
 62
    7
 10
996.26152500000012
 20
718.63693499999999
 11
996.26152500000012
 21
719.90473500000007
  0
LINE
  8
_0-1_レイヤ___1
  6
CONTINUOUS
 62
    7
 10
996.26152500000012
 20
722.86751500000014
 11
996.26152500000012
 21
724.13875500000006
  0
LINE
  8
_0-1_レイヤ___1
  6
CONTINUOUS
 62
    7
 10
996.26152500000012
 20
727.10153500000001
 11
996.26152500000012
 21
739.80360500000006
  0
LINE
  8
_0-1_レイヤ___1
  6
CONTINUOUS
 62
    7
 10
996.26152500000012
 20
744.034175
 11
996.26152500000012
 21
745.30542500000001
  0
LINE
  8
_0-1_レイヤ___1
  6
CONTINUOUS
 62
    7
 10
996.26152500000012
 20
748.26820499999997
 11
996.26152500000012
 21
749.53944500000011
  0
LINE
  8
_0-1_レイヤ___1
  6
CONTINUOUS
 62
    7
 10
996.26152500000012
 20
752.50222500000007
 11
996.26152500000012
 21
765.20084499999996
  0
LINE
  8
_0-1_レイヤ___1
  6
CONTINUOUS
 62
    7
 10
996.26152500000012
 20
765.624595
 11
996.26152500000012
 21
766.47208500000011
  0
LINE
  8
_0-1_レイヤ___1
  6
CONTINUOUS
 62
    7
 10
2004.6426950000002
 20
734.29834499999993
 11
2535.9246549999998
 21
734.29834499999993
  0
LINE
  8
_0-1_レイヤ___1
  6
CONTINUOUS
 62
    7
 10
2549.894515
 20
722.02346499999999
 11
2549.894515
 21
720.32847500000003
  0
LINE
  8
_0-1_レイヤ___1
  6
CONTINUOUS
 62
    7
 10
2549.894515
 20
720.32847500000003
 11
1991.0965850000002
 21
720.32847500000003
  0
LINE
  8
_0-1_レイヤ___1
  6
CONTINUOUS
 62
    7
 10
1991.0965850000002
 20
720.32847500000003
 11
1991.0965850000002
 21
722.02346499999999
  0
LINE
  8
_0-1_レイヤ___1
  6
CONTINUOUS
 62
    7
 10
2004.6426950000002
 20
734.29834499999993
 11
2002.1036650000001
 21
733.874595
  0
LINE
  8
_0-1_レイヤ___1
  6
CONTINUOUS
 62
    7
 10
2002.1036650000001
 20
733.874595
 11
1999.561185
 21
733.45084499999996
  0
LINE
  8
_0-1_レイヤ___1
  6
CONTINUOUS
 62
    7
 10
1999.561185
 20
733.45084499999996
 11
1997.4458950000003
 21
732.18305499999997
  0
LINE
  8
_0-1_レイヤ___1
  6
CONTINUOUS
 62
    7
 10
1997.4458950000003
 20
732.18305499999997
 11
1995.3306050000001
 21
730.48806500000001
  0
LINE
  8
_0-1_レイヤ___1
  6
CONTINUOUS
 62
    7
 10
1995.3306050000001
 20
730.48806500000001
 11
1993.6356150000001
 21
728.79652500000009
  0
LINE
  8
_0-1_レイヤ___1
  6
CONTINUOUS
 62
    7
 10
1993.6356150000001
 20
728.79652500000009
 11
1992.3643750000001
 21
726.67778499999997
  0
LINE
  8
_0-1_レイヤ___1
  6
CONTINUOUS
 62
    7
 10
1992.3643750000001
 20
726.67778499999997
 11
1991.5203250000002
 21
724.13875500000006
  0
LINE
  8
_0-1_レイヤ___1
  6
CONTINUOUS
 62
    7
 10
1991.5203250000002
 20
724.13875500000006
 11
1991.0965850000002
 21
722.02346499999999
  0
LINE
  8
_0-1_レイヤ___1
  6
CONTINUOUS
 62
    7
 10
2535.9246549999998
 20
734.29834499999993
 11
2538.4671350000003
 21
733.874595
  0
LINE
  8
_0-1_レイヤ___1
  6
CONTINUOUS
 62
    7
 10
2538.4671350000003
 20
733.874595
 11
2541.0061650000002
 21
733.45084499999996
  0
LINE
  8
_0-1_レイヤ___1
  6
CONTINUOUS
 62
    7
 10
2541.0061650000002
 20
733.45084499999996
 11
2543.121455
 21
732.18305499999997
  0
LINE
  8
_0-1_レイヤ___1
  6
CONTINUOUS
 62
    7
 10
2543.121455
 20
732.18305499999997
 11
2545.2401950000003
 21
730.48806500000001
  0
LINE
  8
_0-1_レイヤ___1
  6
CONTINUOUS
 62
    7
 10
2545.2401950000003
 20
730.48806500000001
 11
2546.9317350000001
 21
728.79652500000009
  0
LINE
  8
_0-1_レイヤ___1
  6
CONTINUOUS
 62
    7
 10
2546.9317350000001
 20
728.79652500000009
 11
2548.6267250000001
 21
726.67778499999997
  0
LINE
  8
_0-1_レイヤ___1
  6
CONTINUOUS
 62
    7
 10
2548.6267250000001
 20
726.67778499999997
 11
2549.470765
 21
724.13875500000006
  0
LINE
  8
_0-1_レイヤ___1
  6
CONTINUOUS
 62
    7
 10
2549.470765
 20
724.13875500000006
 11
2549.894515
 21
722.02346499999999
  0
LINE
  8
_0-1_レイヤ___1
  6
CONTINUOUS
 62
    7
 10
2231.970765
 20
328.32139500000011
 11
2231.970765
 21
360.07139499999994
  0
LINE
  8
_0-1_レイヤ___1
  6
CONTINUOUS
 62
    7
 10
2231.970765
 20
370.65473499999996
 11
2231.970765
 21
374.04125499999992
  0
LINE
  8
_0-1_レイヤ___1
  6
CONTINUOUS
 62
    7
 10
2231.970765
 20
381.23806500000001
 11
2231.970765
 21
412.98806500000006
  0
LINE
  8
_0-1_レイヤ___1
  6
CONTINUOUS
 62
    7
 10
2231.970765
 20
423.57139500000005
 11
2231.970765
 21
426.95792500000005
  0
LINE
  8
_0-1_レイヤ___1
  6
CONTINUOUS
 62
    7
 10
2231.970765
 20
434.15473500000007
 11
2231.970765
 21
465.90473500000002
  0
LINE
  8
_0-1_レイヤ___1
  6
CONTINUOUS
 62
    7
 10
2231.970765
 20
476.48806500000001
 11
2231.970765
 21
479.874595
  0
LINE
  8
_0-1_レイヤ___1
  6
CONTINUOUS
 62
    7
 10
2231.970765
 20
487.07139500000005
 11
2231.970765
 21
518.82139500000005
  0
LINE
  8
_0-1_レイヤ___1
  6
CONTINUOUS
 62
    7
 10
2231.970765
 20
529.40473500000007
 11
2231.970765
 21
532.79125499999998
  0
LINE
  8
_0-1_レイヤ___1
  6
CONTINUOUS
 62
    7
 10
2231.970765
 20
539.98806500000001
 11
2231.970765
 21
571.73806500000001
  0
LINE
  8
_0-1_レイヤ___1
  6
CONTINUOUS
 62
    7
 10
2231.970765
 20
577.24332500000003
 11
2231.970765
 21
578.08737499999995
  0
LINE
  8
_0-1_レイヤ___1
  6
CONTINUOUS
 62
    7
 10
2361.5132450000001
 20
524.32666500000005
 11
2361.936995
 21
524.32666500000005
  0
LINE
  8
_0-1_レイヤ___1
  6
CONTINUOUS
 62
    7
 10
2361.936995
 20
524.32666500000005
 11
2362.3572950000002
 21
524.32666500000005
  0
LINE
  8
_0-1_レイヤ___1
  6
CONTINUOUS
 62
    7
 10
2362.3572950000002
 20
524.32666500000005
 11
2362.7810450000002
 21
524.32666500000005
  0
LINE
  8
_0-1_レイヤ___1
  6
CONTINUOUS
 62
    7
 10
2362.7810450000002
 20
524.32666500000005
 11
2363.2047950000001
 21
524.32666500000005
  0
LINE
  8
_0-1_レイヤ___1
  6
CONTINUOUS
 62
    7
 10
2363.2047950000001
 20
524.32666500000005
 11
2363.6285350000003
 21
524.32666500000005
  0
LINE
  8
_0-1_レイヤ___1
  6
CONTINUOUS
 62
    7
 10
2363.6285350000003
 20
524.32666500000005
 11
2364.0522850000002
 21
524.32666500000005
  0
LINE
  8
_0-1_レイヤ___1
  6
CONTINUOUS
 62
    7
 10
2364.0522850000002
 20
524.32666500000005
 11
2364.4760350000001
 21
524.32666500000005
  0
LINE
  8
_0-1_レイヤ___1
  6
CONTINUOUS
 62
    7
 10
2364.4760350000001
 20
524.32666500000005
 11
2364.8997749999999
 21
524.32666500000005
  0
LINE
  8
_0-1_レイヤ___1
  6
CONTINUOUS
 62
    7
 10
2364.8997749999999
 20
524.32666500000005
 11
2365.3235249999998
 21
524.32666500000005
  0
LINE
  8
_0-1_レイヤ___1
  6
CONTINUOUS
 62
    7
 10
2365.3235249999998
 20
524.32666500000005
 11
2365.7472750000002
 21
524.32666500000005
  0
LINE
  8
_0-1_レイヤ___1
  6
CONTINUOUS
 62
    7
 10
2365.7472750000002
 20
524.32666500000005
 11
2365.7472750000002
 21
524.750405
  0
LINE
  8
_0-1_レイヤ___1
  6
CONTINUOUS
 62
    7
 10
2365.7472750000002
 20
524.750405
 11
2366.1675749999999
 21
524.750405
  0
LINE
  8
_0-1_レイヤ___1
  6
CONTINUOUS
 62
    7
 10
2366.1675749999999
 20
524.750405
 11
2366.5913250000003
 21
524.750405
  0
LINE
  8
_0-1_レイヤ___1
  6
CONTINUOUS
 62
    7
 10
2366.5913250000003
 20
524.750405
 11
2367.015065
 21
524.750405
  0
LINE
  8
_0-1_レイヤ___1
  6
CONTINUOUS
 62
    7
 10
2367.015065
 20
524.750405
 11
2367.438815
 21
524.750405
  0
LINE
  8
_0-1_レイヤ___1
  6
CONTINUOUS
 62
    7
 10
2367.438815
 20
524.750405
 11
2367.8625649999999
 21
524.750405
  0
LINE
  8
_0-1_レイヤ___1
  6
CONTINUOUS
 62
    7
 10
2367.8625649999999
 20
524.750405
 11
2368.2863050000001
 21
524.750405
  0
LINE
  8
_0-1_レイヤ___1
  6
CONTINUOUS
 62
    7
 10
2368.2863050000001
 20
524.750405
 11
2368.7100550000005
 21
525.170705
  0
LINE
  8
_0-1_レイヤ___1
  6
CONTINUOUS
 62
    7
 10
2368.7100550000005
 20
525.170705
 11
2369.1338050000004
 21
525.170705
  0
LINE
  8
_0-1_レイヤ___1
  6
CONTINUOUS
 62
    7
 10
2369.1338050000004
 20
525.170705
 11
2369.5541050000002
 21
525.170705
  0
LINE
  8
_0-1_レイヤ___1
  6
CONTINUOUS
 62
    7
 10
2369.5541050000002
 20
525.170705
 11
2369.9778450000003
 21
525.170705
  0
LINE
  8
_0-1_レイヤ___1
  6
CONTINUOUS
 62
    7
 10
2369.9778450000003
 20
525.170705
 11
2370.4015950000003
 21
525.170705
  0
LINE
  8
_0-1_レイヤ___1
  6
CONTINUOUS
 62
    7
 10
2370.4015950000003
 20
525.170705
 11
2370.8253450000002
 21
525.59445500000004
  0
LINE
  8
_0-1_レイヤ___1
  6
CONTINUOUS
 62
    7
 10
2370.8253450000002
 20
525.59445500000004
 11
2371.2490849999999
 21
525.59445500000004
  0
LINE
  8
_0-1_レイヤ___1
  6
CONTINUOUS
 62
    7
 10
2371.2490849999999
 20
525.59445500000004
 11
2371.6728350000003
 21
525.59445500000004
  0
LINE
  8
_0-1_レイヤ___1
  6
CONTINUOUS
 62
    7
 10
2371.6728350000003
 20
525.59445500000004
 11
2372.0965850000002
 21
525.59445500000004
  0
LINE
  8
_0-1_レイヤ___1
  6
CONTINUOUS
 62
    7
 10
2372.0965850000002
 20
525.59445500000004
 11
2372.520325
 21
525.59445500000004
  0
LINE
  8
_0-1_レイヤ___1
  6
CONTINUOUS
 62
    7
 10
2372.520325
 20
525.59445500000004
 11
2372.520325
 21
526.01820500000008
  0
LINE
  8
_0-1_レイヤ___1
  6
CONTINUOUS
 62
    7
 10
2372.520325
 20
526.01820500000008
 11
2372.9406350000004
 21
526.01820500000008
  0
LINE
  8
_0-1_レイヤ___1
  6
CONTINUOUS
 62
    7
 10
2372.9406350000004
 20
526.01820500000008
 11
2373.3643750000001
 21
526.01820500000008
  0
LINE
  8
_0-1_レイヤ___1
  6
CONTINUOUS
 62
    7
 10
2373.3643750000001
 20
526.01820500000008
 11
2373.788125
 21
526.01820500000008
  0
LINE
  8
_0-1_レイヤ___1
  6
CONTINUOUS
 62
    7
 10
2373.788125
 20
526.01820500000008
 11
2373.788125
 21
526.44194500000003
  0
LINE
  8
_0-1_レイヤ___1
  6
CONTINUOUS
 62
    7
 10
2373.788125
 20
526.44194500000003
 11
2374.211875
 21
526.44194500000003
  0
LINE
  8
_0-1_レイヤ___1
  6
CONTINUOUS
 62
    7
 10
2374.211875
 20
526.44194500000003
 11
2374.6356150000001
 21
526.44194500000003
  0
LINE
  8
_0-1_レイヤ___1
  6
CONTINUOUS
 62
    7
 10
2374.6356150000001
 20
526.44194500000003
 11
2375.0593650000001
 21
526.44194500000003
  0
LINE
  8
_0-1_レイヤ___1
  6
CONTINUOUS
 62
    7
 10
2375.0593650000001
 20
526.44194500000003
 11
2375.483115
 21
526.86569500000007
  0
LINE
  8
_0-1_レイヤ___1
  6
CONTINUOUS
 62
    7
 10
2375.483115
 20
526.86569500000007
 11
2375.9068550000002
 21
526.86569500000007
  0
LINE
  8
_0-1_レイヤ___1
  6
CONTINUOUS
 62
    7
 10
2375.9068550000002
 20
526.86569500000007
 11
2376.3306050000001
 21
526.86569500000007
  0
LINE
  8
_0-1_レイヤ___1
  6
CONTINUOUS
 62
    7
 10
2376.3306050000001
 20
526.86569500000007
 11
2376.7509049999999
 21
527.289445
  0
LINE
  8
_0-1_レイヤ___1
  6
CONTINUOUS
 62
    7
 10
2376.7509049999999
 20
527.289445
 11
2377.1746549999998
 21
527.289445
  0
LINE
  8
_0-1_レイヤ___1
  6
CONTINUOUS
 62
    7
 10
2377.1746549999998
 20
527.289445
 11
2377.5984050000002
 21
527.289445
  0
LINE
  8
_0-1_レイヤ___1
  6
CONTINUOUS
 62
    7
 10
2377.5984050000002
 20
527.289445
 11
2377.5984050000002
 21
527.71318499999995
  0
LINE
  8
_0-1_レイヤ___1
  6
CONTINUOUS
 62
    7
 10
2377.5984050000002
 20
527.71318499999995
 11
2378.0221450000004
 21
527.71318499999995
  0
LINE
  8
_0-1_レイヤ___1
  6
CONTINUOUS
 62
    7
 10
2378.0221450000004
 20
527.71318499999995
 11
2378.4458950000003
 21
527.71318499999995
  0
LINE
  8
_0-1_レイヤ___1
  6
CONTINUOUS
 62
    7
 10
2378.4458950000003
 20
527.71318499999995
 11
2378.8696450000002
 21
528.13693499999999
  0
LINE
  8
_0-1_レイヤ___1
  6
CONTINUOUS
 62
    7
 10
2378.8696450000002
 20
528.13693499999999
 11
2379.2933850000004
 21
528.13693499999999
  0
LINE
  8
_0-1_レイヤ___1
  6
CONTINUOUS
 62
    7
 10
2379.2933850000004
 20
528.13693499999999
 11
2379.7171350000003
 21
528.13693499999999
  0
LINE
  8
_0-1_レイヤ___1
  6
CONTINUOUS
 62
    7
 10
2379.7171350000003
 20
528.13693499999999
 11
2379.7171350000003
 21
528.55723499999999
  0
LINE
  8
_0-1_レイヤ___1
  6
CONTINUOUS
 62
    7
 10
2379.7171350000003
 20
528.55723499999999
 11
2380.1374350000001
 21
528.55723499999999
  0
LINE
  8
_0-1_レイヤ___1
  6
CONTINUOUS
 62
    7
 10
2380.1374350000001
 20
528.55723499999999
 11
2380.5611850000005
 21
528.55723499999999
  0
LINE
  8
_0-1_レイヤ___1
  6
CONTINUOUS
 62
    7
 10
2380.5611850000005
 20
528.55723499999999
 11
2380.5611850000005
 21
528.98098500000003
  0
LINE
  8
_0-1_レイヤ___1
  6
CONTINUOUS
 62
    7
 10
2380.5611850000005
 20
528.98098500000003
 11
2380.9849250000002
 21
528.98098500000003
  0
LINE
  8
_0-1_レイヤ___1
  6
CONTINUOUS
 62
    7
 10
2380.9849250000002
 20
528.98098500000003
 11
2381.4086750000001
 21
528.98098500000003
  0
LINE
  8
_0-1_レイヤ___1
  6
CONTINUOUS
 62
    7
 10
2381.4086750000001
 20
528.98098500000003
 11
2381.8324250000001
 21
529.40473500000007
  0
LINE
  8
_0-1_レイヤ___1
  6
CONTINUOUS
 62
    7
 10
2381.8324250000001
 20
529.40473500000007
 11
2382.2561650000002
 21
529.40473500000007
  0
LINE
  8
_0-1_レイヤ___1
  6
CONTINUOUS
 62
    7
 10
2382.2561650000002
 20
529.40473500000007
 11
2382.6799150000002
 21
529.82847500000003
  0
LINE
  8
_0-1_レイヤ___1
  6
CONTINUOUS
 62
    7
 10
2382.6799150000002
 20
529.82847500000003
 11
2383.1036650000001
 21
529.82847500000003
  0
LINE
  8
_0-1_レイヤ___1
  6
CONTINUOUS
 62
    7
 10
2383.1036650000001
 20
529.82847500000003
 11
2383.5239650000003
 21
530.25222500000007
  0
LINE
  8
_0-1_レイヤ___1
  6
CONTINUOUS
 62
    7
 10
2383.5239650000003
 20
530.25222500000007
 11
2383.9477150000002
 21
530.25222500000007
  0
LINE
  8
_0-1_レイヤ___1
  6
CONTINUOUS
 62
    7
 10
2383.9477150000002
 20
530.25222500000007
 11
2383.9477150000002
 21
530.67597500000011
  0
LINE
  8
_0-1_レイヤ___1
  6
CONTINUOUS
 62
    7
 10
2383.9477150000002
 20
530.67597500000011
 11
2384.371455
 21
530.67597500000011
  0
LINE
  8
_0-1_レイヤ___1
  6
CONTINUOUS
 62
    7
 10
2384.371455
 20
530.67597500000011
 11
2384.7952049999999
 21
530.67597500000011
  0
LINE
  8
_0-1_レイヤ___1
  6
CONTINUOUS
 62
    7
 10
2384.7952049999999
 20
530.67597500000011
 11
2384.7952049999999
 21
531.09971500000006
  0
LINE
  8
_0-1_レイヤ___1
  6
CONTINUOUS
 62
    7
 10
2384.7952049999999
 20
531.09971500000006
 11
2385.2189550000003
 21
531.09971500000006
  0
LINE
  8
_0-1_レイヤ___1
  6
CONTINUOUS
 62
    7
 10
2385.2189550000003
 20
531.09971500000006
 11
2385.6426950000005
 21
531.09971500000006
  0
LINE
  8
_0-1_レイヤ___1
  6
CONTINUOUS
 62
    7
 10
2385.6426950000005
 20
531.09971500000006
 11
2385.6426950000005
 21
531.52346499999999
  0
LINE
  8
_0-1_レイヤ___1
  6
CONTINUOUS
 62
    7
 10
2385.6426950000005
 20
531.52346499999999
 11
2386.0664450000004
 21
531.52346499999999
  0
LINE
  8
_0-1_レイヤ___1
  6
CONTINUOUS
 62
    7
 10
2386.0664450000004
 20
531.52346499999999
 11
2386.4901950000003
 21
531.94721500000003
  0
LINE
  8
_0-1_レイヤ___1
  6
CONTINUOUS
 62
    7
 10
2386.4901950000003
 20
531.94721500000003
 11
2386.913935
 21
531.94721500000003
  0
LINE
  8
_0-1_レイヤ___1
  6
CONTINUOUS
 62
    7
 10
2386.913935
 20
531.94721500000003
 11
2386.913935
 21
532.36751500000003
  0
LINE
  8
_0-1_レイヤ___1
  6
CONTINUOUS
 62
    7
 10
2386.913935
 20
532.36751500000003
 11
2387.334245
 21
532.36751500000003
  0
LINE
  8
_0-1_レイヤ___1
  6
CONTINUOUS
 62
    7
 10
2387.334245
 20
532.36751500000003
 11
2387.7579850000002
 21
532.36751500000003
  0
LINE
  8
_0-1_レイヤ___1
  6
CONTINUOUS
 62
    7
 10
2387.7579850000002
 20
532.36751500000003
 11
2387.7579850000002
 21
532.79125499999998
  0
LINE
  8
_0-1_レイヤ___1
  6
CONTINUOUS
 62
    7
 10
2387.7579850000002
 20
532.79125499999998
 11
2388.1817350000001
 21
532.79125499999998
  0
LINE
  8
_0-1_レイヤ___1
  6
CONTINUOUS
 62
    7
 10
2388.1817350000001
 20
532.79125499999998
 11
2388.1817350000001
 21
533.21500500000002
  0
LINE
  8
_0-1_レイヤ___1
  6
CONTINUOUS
 62
    7
 10
2388.1817350000001
 20
533.21500500000002
 11
2388.605485
 21
533.21500500000002
  0
LINE
  8
_0-1_レイヤ___1
  6
CONTINUOUS
 62
    7
 10
2388.605485
 20
533.21500500000002
 11
2389.0292250000002
 21
533.63875500000006
  0
LINE
  8
_0-1_レイヤ___1
  6
CONTINUOUS
 62
    7
 10
2389.0292250000002
 20
533.63875500000006
 11
2389.4529750000002
 21
533.63875500000006
  0
LINE
  8
_0-1_レイヤ___1
  6
CONTINUOUS
 62
    7
 10
2389.4529750000002
 20
533.63875500000006
 11
2389.4529750000002
 21
534.0625050000001
  0
LINE
  8
_0-1_レイヤ___1
  6
CONTINUOUS
 62
    7
 10
2389.4529750000002
 20
534.0625050000001
 11
2389.8767250000001
 21
534.0625050000001
  0
LINE
  8
_0-1_レイヤ___1
  6
CONTINUOUS
 62
    7
 10
2389.8767250000001
 20
534.0625050000001
 11
2389.8767250000001
 21
534.48624500000005
  0
LINE
  8
_0-1_レイヤ___1
  6
CONTINUOUS
 62
    7
 10
2389.8767250000001
 20
534.48624500000005
 11
2390.3004650000003
 21
534.48624500000005
  0
LINE
  8
_0-1_レイヤ___1
  6
CONTINUOUS
 62
    7
 10
2390.3004650000003
 20
534.48624500000005
 11
2390.720765
 21
534.48624500000005
  0
LINE
  8
_0-1_レイヤ___1
  6
CONTINUOUS
 62
    7
 10
2390.720765
 20
534.48624500000005
 11
2390.720765
 21
534.90999499999998
  0
LINE
  8
_0-1_レイヤ___1
  6
CONTINUOUS
 62
    7
 10
2390.720765
 20
534.90999499999998
 11
2391.144515
 21
534.90999499999998
  0
LINE
  8
_0-1_レイヤ___1
  6
CONTINUOUS
 62
    7
 10
2391.144515
 20
534.90999499999998
 11
2391.144515
 21
535.33374500000002
  0
LINE
  8
_0-1_レイヤ___1
  6
CONTINUOUS
 62
    7
 10
2391.144515
 20
535.33374500000002
 11
2391.5682650000003
 21
535.33374500000002
  0
LINE
  8
_0-1_レイヤ___1
  6
CONTINUOUS
 62
    7
 10
2391.5682650000003
 20
535.33374500000002
 11
2391.5682650000003
 21
535.75404500000002
  0
LINE
  8
_0-1_レイヤ___1
  6
CONTINUOUS
 62
    7
 10
2391.5682650000003
 20
535.75404500000002
 11
2391.9920050000001
 21
535.75404500000002
  0
LINE
  8
_0-1_レイヤ___1
  6
CONTINUOUS
 62
    7
 10
2391.9920050000001
 20
535.75404500000002
 11
2391.9920050000001
 21
536.17778499999997
  0
LINE
  8
_0-1_レイヤ___1
  6
CONTINUOUS
 62
    7
 10
2391.9920050000001
 20
536.17778499999997
 11
2392.415755
 21
536.17778499999997
  0
LINE
  8
_0-1_レイヤ___1
  6
CONTINUOUS
 62
    7
 10
2392.415755
 20
536.17778499999997
 11
2392.8395049999999
 21
536.60153500000001
  0
LINE
  8
_0-1_レイヤ___1
  6
CONTINUOUS
 62
    7
 10
2392.8395049999999
 20
536.60153500000001
 11
2393.2632450000001
 21
537.02528499999994
  0
LINE
  8
_0-1_レイヤ___1
  6
CONTINUOUS
 62
    7
 10
2393.2632450000001
 20
537.02528499999994
 11
2393.686995
 21
537.02528499999994
  0
LINE
  8
_0-1_レイヤ___1
  6
CONTINUOUS
 62
    7
 10
2393.686995
 20
537.02528499999994
 11
2393.686995
 21
537.44902500000001
  0
LINE
  8
_0-1_レイヤ___1
  6
CONTINUOUS
 62
    7
 10
2393.686995
 20
537.44902500000001
 11
2394.1072949999998
 21
537.44902500000001
  0
LINE
  8
_0-1_レイヤ___1
  6
CONTINUOUS
 62
    7
 10
2394.1072949999998
 20
537.44902500000001
 11
2394.1072949999998
 21
537.87277500000005
  0
LINE
  8
_0-1_レイヤ___1
  6
CONTINUOUS
 62
    7
 10
2394.1072949999998
 20
537.87277500000005
 11
2394.5310450000002
 21
537.87277500000005
  0
LINE
  8
_0-1_レイヤ___1
  6
CONTINUOUS
 62
    7
 10
2394.5310450000002
 20
537.87277500000005
 11
2394.5310450000002
 21
538.29652499999997
  0
LINE
  8
_0-1_レイヤ___1
  6
CONTINUOUS
 62
    7
 10
2394.5310450000002
 20
538.29652499999997
 11
2394.9547950000001
 21
538.29652499999997
  0
LINE
  8
_0-1_レイヤ___1
  6
CONTINUOUS
 62
    7
 10
2394.9547950000001
 20
538.29652499999997
 11
2394.9547950000001
 21
538.72026500000004
  0
LINE
  8
_0-1_レイヤ___1
  6
CONTINUOUS
 62
    7
 10
2394.9547950000001
 20
538.72026500000004
 11
2395.3785350000003
 21
538.72026500000004
  0
LINE
  8
_0-1_レイヤ___1
  6
CONTINUOUS
 62
    7
 10
2395.3785350000003
 20
538.72026500000004
 11
2395.3785350000003
 21
539.14057500000001
  0
LINE
  8
_0-1_レイヤ___1
  6
CONTINUOUS
 62
    7
 10
2395.3785350000003
 20
539.14057500000001
 11
2395.8022850000002
 21
539.14057500000001
  0
LINE
  8
_0-1_レイヤ___1
  6
CONTINUOUS
 62
    7
 10
2395.8022850000002
 20
539.14057500000001
 11
2395.8022850000002
 21
539.56431499999997
  0
LINE
  8
_0-1_レイヤ___1
  6
CONTINUOUS
 62
    7
 10
2395.8022850000002
 20
539.56431499999997
 11
2396.2260350000001
 21
539.56431499999997
  0
LINE
  8
_0-1_レイヤ___1
  6
CONTINUOUS
 62
    7
 10
2396.2260350000001
 20
539.56431499999997
 11
2396.2260350000001
 21
539.98806500000001
  0
LINE
  8
_0-1_レイヤ___1
  6
CONTINUOUS
 62
    7
 10
2396.2260350000001
 20
539.98806500000001
 11
2396.6497750000003
 21
539.98806500000001
  0
LINE
  8
_0-1_レイヤ___1
  6
CONTINUOUS
 62
    7
 10
2396.6497750000003
 20
539.98806500000001
 11
2396.6497750000003
 21
540.41181500000005
  0
LINE
  8
_0-1_レイヤ___1
  6
CONTINUOUS
 62
    7
 10
2396.6497750000003
 20
540.41181500000005
 11
2397.0735250000002
 21
540.41181500000005
  0
LINE
  8
_0-1_レイヤ___1
  6
CONTINUOUS
 62
    7
 10
2397.0735250000002
 20
540.41181500000005
 11
2397.0735250000002
 21
540.835555
  0
LINE
  8
_0-1_レイヤ___1
  6
CONTINUOUS
 62
    7
 10
2397.0735250000002
 20
540.835555
 11
2397.4972750000002
 21
540.835555
  0
LINE
  8
_0-1_レイヤ___1
  6
CONTINUOUS
 62
    7
 10
2397.4972750000002
 20
540.835555
 11
2397.4972750000002
 21
541.25930500000004
  0
LINE
  8
_0-1_レイヤ___1
  6
CONTINUOUS
 62
    7
 10
2397.4972750000002
 20
541.25930500000004
 11
2397.9175750000004
 21
541.25930500000004
  0
LINE
  8
_0-1_レイヤ___1
  6
CONTINUOUS
 62
    7
 10
2397.9175750000004
 20
541.25930500000004
 11
2397.9175750000004
 21
541.68305499999997
  0
LINE
  8
_0-1_レイヤ___1
  6
CONTINUOUS
 62
    7
 10
2397.9175750000004
 20
541.68305499999997
 11
2398.3413250000003
 21
542.10679500000003
  0
LINE
  8
_0-1_レイヤ___1
  6
CONTINUOUS
 62
    7
 10
2398.3413250000003
 20
542.10679500000003
 11
2398.765065
 21
542.53054500000007
  0
LINE
  8
_0-1_レイヤ___1
  6
CONTINUOUS
 62
    7
 10
2398.765065
 20
542.53054500000007
 11
2398.765065
 21
542.95084500000007
  0
LINE
  8
_0-1_レイヤ___1
  6
CONTINUOUS
 62
    7
 10
2398.765065
 20
542.95084500000007
 11
2399.1888150000004
 21
542.95084500000007
  0
LINE
  8
_0-1_レイヤ___1
  6
CONTINUOUS
 62
    7
 10
2399.1888150000004
 20
542.95084500000007
 11
2399.1888150000004
 21
543.374595
  0
LINE
  8
_0-1_レイヤ___1
  6
CONTINUOUS
 62
    7
 10
2399.1888150000004
 20
543.374595
 11
2399.6125650000004
 21
543.374595
  0
LINE
  8
_0-1_レイヤ___1
  6
CONTINUOUS
 62
    7
 10
2399.6125650000004
 20
543.374595
 11
2399.6125650000004
 21
543.79834500000004
  0
LINE
  8
_0-1_レイヤ___1
  6
CONTINUOUS
 62
    7
 10
2399.6125650000004
 20
543.79834500000004
 11
2400.0363050000001
 21
544.22208499999999
  0
LINE
  8
_0-1_レイヤ___1
  6
CONTINUOUS
 62
    7
 10
2400.0363050000001
 20
544.22208499999999
 11
2400.0363050000001
 21
544.64583500000003
  0
LINE
  8
_0-1_レイヤ___1
  6
CONTINUOUS
 62
    7
 10
2400.0363050000001
 20
544.64583500000003
 11
2400.460055
 21
544.64583500000003
  0
LINE
  8
_0-1_レイヤ___1
  6
CONTINUOUS
 62
    7
 10
2400.460055
 20
544.64583500000003
 11
2400.460055
 21
545.06958500000007
  0
LINE
  8
_0-1_レイヤ___1
  6
CONTINUOUS
 62
    7
 10
2400.460055
 20
545.06958500000007
 11
2400.8838050000004
 21
545.06958500000007
  0
LINE
  8
_0-1_レイヤ___1
  6
CONTINUOUS
 62
    7
 10
2400.8838050000004
 20
545.06958500000007
 11
2400.8838050000004
 21
545.49332500000003
  0
LINE
  8
_0-1_レイヤ___1
  6
CONTINUOUS
 62
    7
 10
2400.8838050000004
 20
545.49332500000003
 11
2401.3041050000002
 21
545.91707500000007
  0
LINE
  8
_0-1_レイヤ___1
  6
CONTINUOUS
 62
    7
 10
2401.3041050000002
 20
545.91707500000007
 11
2401.3041050000002
 21
546.33737500000007
  0
LINE
  8
_0-1_レイヤ___1
  6
CONTINUOUS
 62
    7
 10
2401.3041050000002
 20
546.33737500000007
 11
2401.7278449999999
 21
546.33737500000007
  0
LINE
  8
_0-1_レイヤ___1
  6
CONTINUOUS
 62
    7
 10
2401.7278449999999
 20
546.33737500000007
 11
2401.7278449999999
 21
546.76112499999999
  0
LINE
  8
_0-1_レイヤ___1
  6
CONTINUOUS
 62
    7
 10
2401.7278449999999
 20
546.76112499999999
 11
2402.1515950000003
 21
546.76112499999999
  0
LINE
  8
_0-1_レイヤ___1
  6
CONTINUOUS
 62
    7
 10
2402.1515950000003
 20
546.76112499999999
 11
2402.1515950000003
 21
547.18486500000006
  0
LINE
  8
_0-1_レイヤ___1
  6
CONTINUOUS
 62
    7
 10
2402.1515950000003
 20
547.18486500000006
 11
2402.1515950000003
 21
547.6086150000001
  0
LINE
  8
_0-1_レイヤ___1
  6
CONTINUOUS
 62
    7
 10
2402.1515950000003
 20
547.6086150000001
 11
2402.5753450000002
 21
547.6086150000001
  0
LINE
  8
_0-1_レイヤ___1
  6
CONTINUOUS
 62
    7
 10
2402.5753450000002
 20
547.6086150000001
 11
2402.5753450000002
 21
548.03236500000003
  0
LINE
  8
_0-1_レイヤ___1
  6
CONTINUOUS
 62
    7
 10
2402.5753450000002
 20
548.03236500000003
 11
2402.9990850000004
 21
548.45610499999998
  0
LINE
  8
_0-1_レイヤ___1
  6
CONTINUOUS
 62
    7
 10
2402.9990850000004
 20
548.45610499999998
 11
2402.9990850000004
 21
548.87985500000002
  0
LINE
  8
_0-1_レイヤ___1
  6
CONTINUOUS
 62
    7
 10
2402.9990850000004
 20
548.87985500000002
 11
2403.4228350000003
 21
548.87985500000002
  0
LINE
  8
_0-1_レイヤ___1
  6
CONTINUOUS
 62
    7
 10
2403.4228350000003
 20
548.87985500000002
 11
2403.4228350000003
 21
549.30360500000006
  0
LINE
  8
_0-1_レイヤ___1
  6
CONTINUOUS
 62
    7
 10
2403.4228350000003
 20
549.30360500000006
 11
2403.4228350000003
 21
549.72390500000006
  0
LINE
  8
_0-1_レイヤ___1
  6
CONTINUOUS
 62
    7
 10
2403.4228350000003
 20
549.72390500000006
 11
2403.8465850000002
 21
549.72390500000006
  0
LINE
  8
_0-1_レイヤ___1
  6
CONTINUOUS
 62
    7
 10
2403.8465850000002
 20
549.72390500000006
 11
2403.8465850000002
 21
550.14765499999999
  0
LINE
  8
_0-1_レイヤ___1
  6
CONTINUOUS
 62
    7
 10
2403.8465850000002
 20
550.14765499999999
 11
2403.8465850000002
 21
550.57139500000005
  0
LINE
  8
_0-1_レイヤ___1
  6
CONTINUOUS
 62
    7
 10
2403.8465850000002
 20
550.57139500000005
 11
2404.2703250000004
 21
550.57139500000005
  0
LINE
  8
_0-1_レイヤ___1
  6
CONTINUOUS
 62
    7
 10
2404.2703250000004
 20
550.57139500000005
 11
2404.2703250000004
 21
550.99514500000009
  0
LINE
  8
_0-1_レイヤ___1
  6
CONTINUOUS
 62
    7
 10
2404.2703250000004
 20
550.99514500000009
 11
2404.6906349999999
 21
551.41889500000002
  0
LINE
  8
_0-1_レイヤ___1
  6
CONTINUOUS
 62
    7
 10
2404.6906349999999
 20
551.41889500000002
 11
2404.6906349999999
 21
551.84263499999997
  0
LINE
  8
_0-1_レイヤ___1
  6
CONTINUOUS
 62
    7
 10
2404.6906349999999
 20
551.84263499999997
 11
2405.1143750000001
 21
551.84263499999997
  0
LINE
  8
_0-1_レイヤ___1
  6
CONTINUOUS
 62
    7
 10
2405.1143750000001
 20
551.84263499999997
 11
2405.1143750000001
 21
552.26638500000001
  0
LINE
  8
_0-1_レイヤ___1
  6
CONTINUOUS
 62
    7
 10
2405.1143750000001
 20
552.26638500000001
 11
2405.1143750000001
 21
552.69013500000005
  0
LINE
  8
_0-1_レイヤ___1
  6
CONTINUOUS
 62
    7
 10
2405.1143750000001
 20
552.69013500000005
 11
2405.538125
 21
552.69013500000005
  0
LINE
  8
_0-1_レイヤ___1
  6
CONTINUOUS
 62
    7
 10
2405.538125
 20
552.69013500000005
 11
2405.538125
 21
553.11387500000001
  0
LINE
  8
_0-1_レイヤ___1
  6
CONTINUOUS
 62
    7
 10
2405.538125
 20
553.11387500000001
 11
2405.538125
 21
553.534175
  0
LINE
  8
_0-1_レイヤ___1
  6
CONTINUOUS
 62
    7
 10
2405.538125
 20
553.534175
 11
2405.961875
 21
553.95792500000005
  0
LINE
  8
_0-1_レイヤ___1
  6
CONTINUOUS
 62
    7
 10
2405.961875
 20
553.95792500000005
 11
2405.961875
 21
554.38167500000009
  0
LINE
  8
_0-1_レイヤ___1
  6
CONTINUOUS
 62
    7
 10
2405.961875
 20
554.38167500000009
 11
2406.3856150000001
 21
554.80542500000001
  0
LINE
  8
_0-1_レイヤ___1
  6
CONTINUOUS
 62
    7
 10
2406.3856150000001
 20
554.80542500000001
 11
2406.3856150000001
 21
555.22916499999997
  0
LINE
  8
_0-1_レイヤ___1
  6
CONTINUOUS
 62
    7
 10
2406.3856150000001
 20
555.22916499999997
 11
2406.3856150000001
 21
555.65291500000001
  0
LINE
  8
_0-1_レイヤ___1
  6
CONTINUOUS
 62
    7
 10
2406.3856150000001
 20
555.65291500000001
 11
2406.8093650000001
 21
555.65291500000001
  0
LINE
  8
_0-1_レイヤ___1
  6
CONTINUOUS
 62
    7
 10
2406.8093650000001
 20
555.65291500000001
 11
2406.8093650000001
 21
556.07666500000005
  0
LINE
  8
_0-1_レイヤ___1
  6
CONTINUOUS
 62
    7
 10
2406.8093650000001
 20
556.07666500000005
 11
2406.8093650000001
 21
556.500405
  0
LINE
  8
_0-1_レイヤ___1
  6
CONTINUOUS
 62
    7
 10
2406.8093650000001
 20
556.500405
 11
2407.233115
 21
556.920705
  0
LINE
  8
_0-1_レイヤ___1
  6
CONTINUOUS
 62
    7
 10
2407.233115
 20
556.920705
 11
2407.233115
 21
557.34445500000004
  0
LINE
  8
_0-1_レイヤ___1
  6
CONTINUOUS
 62
    7
 10
2407.233115
 20
557.34445500000004
 11
2407.233115
 21
557.76820499999997
  0
LINE
  8
_0-1_レイヤ___1
  6
CONTINUOUS
 62
    7
 10
2407.233115
 20
557.76820499999997
 11
2407.6568550000002
 21
557.76820499999997
  0
LINE
  8
_0-1_レイヤ___1
  6
CONTINUOUS
 62
    7
 10
2407.6568550000002
 20
557.76820499999997
 11
2407.6568550000002
 21
558.19194500000003
  0
LINE
  8
_0-1_レイヤ___1
  6
CONTINUOUS
 62
    7
 10
2407.6568550000002
 20
558.19194500000003
 11
2407.6568550000002
 21
558.61569499999996
  0
LINE
  8
_0-1_レイヤ___1
  6
CONTINUOUS
 62
    7
 10
2407.6568550000002
 20
558.61569499999996
 11
2407.6568550000002
 21
559.039445
  0
LINE
  8
_0-1_レイヤ___1
  6
CONTINUOUS
 62
    7
 10
2407.6568550000002
 20
559.039445
 11
2408.0806050000001
 21
559.039445
  0
LINE
  8
_0-1_レイヤ___1
  6
CONTINUOUS
 62
    7
 10
2408.0806050000001
 20
559.039445
 11
2408.0806050000001
 21
559.46318500000007
  0
LINE
  8
_0-1_レイヤ___1
  6
CONTINUOUS
 62
    7
 10
2408.0806050000001
 20
559.46318500000007
 11
2408.0806050000001
 21
559.88693499999999
  0
LINE
  8
_0-1_レイヤ___1
  6
CONTINUOUS
 62
    7
 10
2408.0806050000001
 20
559.88693499999999
 11
2408.0806050000001
 21
560.30723499999999
  0
LINE
  8
_0-1_レイヤ___1
  6
CONTINUOUS
 62
    7
 10
2408.0806050000001
 20
560.30723499999999
 11
2408.5009050000003
 21
560.30723499999999
  0
LINE
  8
_0-1_レイヤ___1
  6
CONTINUOUS
 62
    7
 10
2408.5009050000003
 20
560.30723499999999
 11
2408.5009050000003
 21
560.73098500000003
  0
LINE
  8
_0-1_レイヤ___1
  6
CONTINUOUS
 62
    7
 10
2408.5009050000003
 20
560.73098500000003
 11
2408.5009050000003
 21
561.15473499999996
  0
LINE
  8
_0-1_レイヤ___1
  6
CONTINUOUS
 62
    7
 10
2408.5009050000003
 20
561.15473499999996
 11
2408.5009050000003
 21
561.57847500000003
  0
LINE
  8
_0-1_レイヤ___1
  6
CONTINUOUS
 62
    7
 10
2408.5009050000003
 20
561.57847500000003
 11
2408.5009050000003
 21
562.00222500000007
  0
LINE
  8
_0-1_レイヤ___1
  6
CONTINUOUS
 62
    7
 10
2408.5009050000003
 20
562.00222500000007
 11
2408.9246550000003
 21
562.00222500000007
  0
LINE
  8
_0-1_レイヤ___1
  6
CONTINUOUS
 62
    7
 10
2408.9246550000003
 20
562.00222500000007
 11
2408.9246550000003
 21
562.42597499999999
  0
LINE
  8
_0-1_レイヤ___1
  6
CONTINUOUS
 62
    7
 10
2408.9246550000003
 20
562.42597499999999
 11
2408.9246550000003
 21
562.84971500000006
  0
LINE
  8
_0-1_レイヤ___1
  6
CONTINUOUS
 62
    7
 10
2408.9246550000003
 20
562.84971500000006
 11
2408.9246550000003
 21
563.27346499999999
  0
LINE
  8
_0-1_レイヤ___1
  6
CONTINUOUS
 62
    7
 10
2408.9246550000003
 20
563.27346499999999
 11
2408.9246550000003
 21
563.69721500000003
  0
LINE
  8
_0-1_レイヤ___1
  6
CONTINUOUS
 62
    7
 10
2408.9246550000003
 20
563.69721500000003
 11
2409.3484050000002
 21
563.69721500000003
  0
LINE
  8
_0-1_レイヤ___1
  6
CONTINUOUS
 62
    7
 10
2409.3484050000002
 20
563.69721500000003
 11
2409.3484050000002
 21
564.11751500000003
  0
LINE
  8
_0-1_レイヤ___1
  6
CONTINUOUS
 62
    7
 10
2409.3484050000002
 20
564.11751500000003
 11
2409.3484050000002
 21
564.54125500000009
  0
LINE
  8
_0-1_レイヤ___1
  6
CONTINUOUS
 62
    7
 10
2409.3484050000002
 20
564.54125500000009
 11
2409.3484050000002
 21
564.96500500000002
  0
LINE
  8
_0-1_レイヤ___1
  6
CONTINUOUS
 62
    7
 10
2409.3484050000002
 20
564.96500500000002
 11
2409.3484050000002
 21
565.38875500000006
  0
LINE
  8
_0-1_レイヤ___1
  6
CONTINUOUS
 62
    7
 10
2409.3484050000002
 20
565.38875500000006
 11
2409.7721449999999
 21
565.81250499999999
  0
LINE
  8
_0-1_レイヤ___1
  6
CONTINUOUS
 62
    7
 10
2409.7721449999999
 20
565.81250499999999
 11
2409.7721449999999
 21
566.23624500000005
  0
LINE
  8
_0-1_レイヤ___1
  6
CONTINUOUS
 62
    7
 10
2409.7721449999999
 20
566.23624500000005
 11
2409.7721449999999
 21
566.65999500000009
  0
LINE
  8
_0-1_レイヤ___1
  6
CONTINUOUS
 62
    7
 10
2409.7721449999999
 20
566.65999500000009
 11
2409.7721449999999
 21
567.08374500000002
  0
LINE
  8
_0-1_レイヤ___1
  6
CONTINUOUS
 62
    7
 10
2409.7721449999999
 20
567.08374500000002
 11
2409.7721449999999
 21
567.50404500000002
  0
LINE
  8
_0-1_レイヤ___1
  6
CONTINUOUS
 62
    7
 10
2409.7721449999999
 20
567.50404500000002
 11
2409.7721449999999
 21
567.92778500000009
  0
LINE
  8
_0-1_レイヤ___1
  6
CONTINUOUS
 62
    7
 10
2409.7721449999999
 20
567.92778500000009
 11
2409.7721449999999
 21
568.35153500000001
  0
LINE
  8
_0-1_レイヤ___1
  6
CONTINUOUS
 62
    7
 10
2409.7721449999999
 20
568.35153500000001
 11
2410.1958950000003
 21
568.35153500000001
  0
LINE
  8
_0-1_レイヤ___1
  6
CONTINUOUS
 62
    7
 10
2410.1958950000003
 20
568.35153500000001
 11
2410.1958950000003
 21
568.77528500000005
  0
LINE
  8
_0-1_レイヤ___1
  6
CONTINUOUS
 62
    7
 10
2410.1958950000003
 20
568.77528500000005
 11
2410.1958950000003
 21
569.19902500000001
  0
LINE
  8
_0-1_レイヤ___1
  6
CONTINUOUS
 62
    7
 10
2410.1958950000003
 20
569.19902500000001
 11
2410.1958950000003
 21
569.62277500000005
  0
LINE
  8
_0-1_レイヤ___1
  6
CONTINUOUS
 62
    7
 10
2053.7490849999999
 20
569.62277500000005
 11
2053.7490849999999
 21
569.19902500000001
  0
LINE
  8
_0-1_レイヤ___1
  6
CONTINUOUS
 62
    7
 10
2053.7490849999999
 20
569.19902500000001
 11
2053.7490849999999
 21
568.77528500000005
  0
LINE
  8
_0-1_レイヤ___1
  6
CONTINUOUS
 62
    7
 10
2053.7490849999999
 20
568.77528500000005
 11
2053.7490849999999
 21
568.35153500000001
  0
LINE
  8
_0-1_レイヤ___1
  6
CONTINUOUS
 62
    7
 10
2053.7490849999999
 20
568.35153500000001
 11
2053.7490849999999
 21
567.92778500000009
  0
LINE
  8
_0-1_レイヤ___1
  6
CONTINUOUS
 62
    7
 10
2053.7490849999999
 20
567.92778500000009
 11
2053.7490849999999
 21
567.50404500000002
  0
LINE
  8
_0-1_レイヤ___1
  6
CONTINUOUS
 62
    7
 10
2053.7490849999999
 20
567.50404500000002
 11
2053.7490849999999
 21
567.08374500000002
  0
LINE
  8
_0-1_レイヤ___1
  6
CONTINUOUS
 62
    7
 10
2053.7490849999999
 20
567.08374500000002
 11
2054.1728350000003
 21
566.65999500000009
  0
LINE
  8
_0-1_レイヤ___1
  6
CONTINUOUS
 62
    7
 10
2054.1728350000003
 20
566.65999500000009
 11
2054.1728350000003
 21
566.23624500000005
  0
LINE
  8
_0-1_レイヤ___1
  6
CONTINUOUS
 62
    7
 10
2054.1728350000003
 20
566.23624500000005
 11
2054.1728350000003
 21
565.81250499999999
  0
LINE
  8
_0-1_レイヤ___1
  6
CONTINUOUS
 62
    7
 10
2054.1728350000003
 20
565.81250499999999
 11
2054.1728350000003
 21
565.38875500000006
  0
LINE
  8
_0-1_レイヤ___1
  6
CONTINUOUS
 62
    7
 10
2054.1728350000003
 20
565.38875500000006
 11
2054.1728350000003
 21
564.96500500000002
  0
LINE
  8
_0-1_レイヤ___1
  6
CONTINUOUS
 62
    7
 10
2054.1728350000003
 20
564.96500500000002
 11
2054.5965850000002
 21
564.96500500000002
  0
LINE
  8
_0-1_レイヤ___1
  6
CONTINUOUS
 62
    7
 10
2054.5965850000002
 20
564.96500500000002
 11
2054.5965850000002
 21
564.54125500000009
  0
LINE
  8
_0-1_レイヤ___1
  6
CONTINUOUS
 62
    7
 10
2054.5965850000002
 20
564.54125500000009
 11
2054.5965850000002
 21
564.11751500000003
  0
LINE
  8
_0-1_レイヤ___1
  6
CONTINUOUS
 62
    7
 10
2054.5965850000002
 20
564.11751500000003
 11
2054.5965850000002
 21
563.69721500000003
  0
LINE
  8
_0-1_レイヤ___1
  6
CONTINUOUS
 62
    7
 10
2054.5965850000002
 20
563.69721500000003
 11
2054.5965850000002
 21
563.27346499999999
  0
LINE
  8
_0-1_レイヤ___1
  6
CONTINUOUS
 62
    7
 10
2054.5965850000002
 20
563.27346499999999
 11
2054.5965850000002
 21
562.84971500000006
  0
LINE
  8
_0-1_レイヤ___1
  6
CONTINUOUS
 62
    7
 10
2054.5965850000002
 20
562.84971500000006
 11
2055.020325
 21
562.84971500000006
  0
LINE
  8
_0-1_レイヤ___1
  6
CONTINUOUS
 62
    7
 10
2055.020325
 20
562.84971500000006
 11
2055.020325
 21
562.42597499999999
  0
LINE
  8
_0-1_レイヤ___1
  6
CONTINUOUS
 62
    7
 10
2055.020325
 20
562.42597499999999
 11
2055.020325
 21
562.00222500000007
  0
LINE
  8
_0-1_レイヤ___1
  6
CONTINUOUS
 62
    7
 10
2055.020325
 20
562.00222500000007
 11
2055.020325
 21
561.57847500000003
  0
LINE
  8
_0-1_レイヤ___1
  6
CONTINUOUS
 62
    7
 10
2055.020325
 20
561.57847500000003
 11
2055.4406350000004
 21
561.57847500000003
  0
LINE
  8
_0-1_レイヤ___1
  6
CONTINUOUS
 62
    7
 10
2055.4406350000004
 20
561.57847500000003
 11
2055.4406350000004
 21
561.15473499999996
  0
LINE
  8
_0-1_レイヤ___1
  6
CONTINUOUS
 62
    7
 10
2055.4406350000004
 20
561.15473499999996
 11
2055.4406350000004
 21
560.73098500000003
  0
LINE
  8
_0-1_レイヤ___1
  6
CONTINUOUS
 62
    7
 10
2055.4406350000004
 20
560.73098500000003
 11
2055.4406350000004
 21
560.30723499999999
  0
LINE
  8
_0-1_レイヤ___1
  6
CONTINUOUS
 62
    7
 10
2055.4406350000004
 20
560.30723499999999
 11
2055.8643750000001
 21
559.88693499999999
  0
LINE
  8
_0-1_レイヤ___1
  6
CONTINUOUS
 62
    7
 10
2055.8643750000001
 20
559.88693499999999
 11
2055.8643750000001
 21
559.46318500000007
  0
LINE
  8
_0-1_レイヤ___1
  6
CONTINUOUS
 62
    7
 10
2055.8643750000001
 20
559.46318500000007
 11
2055.8643750000001
 21
559.039445
  0
LINE
  8
_0-1_レイヤ___1
  6
CONTINUOUS
 62
    7
 10
2055.8643750000001
 20
559.039445
 11
2056.288125
 21
558.61569499999996
  0
LINE
  8
_0-1_レイヤ___1
  6
CONTINUOUS
 62
    7
 10
2056.288125
 20
558.61569499999996
 11
2056.288125
 21
558.19194500000003
  0
LINE
  8
_0-1_レイヤ___1
  6
CONTINUOUS
 62
    7
 10
2056.288125
 20
558.19194500000003
 11
2056.288125
 21
557.76820499999997
  0
LINE
  8
_0-1_レイヤ___1
  6
CONTINUOUS
 62
    7
 10
2056.288125
 20
557.76820499999997
 11
2056.711875
 21
557.76820499999997
  0
LINE
  8
_0-1_レイヤ___1
  6
CONTINUOUS
 62
    7
 10
2056.711875
 20
557.76820499999997
 11
2056.711875
 21
557.34445500000004
  0
LINE
  8
_0-1_レイヤ___1
  6
CONTINUOUS
 62
    7
 10
2056.711875
 20
557.34445500000004
 11
2056.711875
 21
556.920705
  0
LINE
  8
_0-1_レイヤ___1
  6
CONTINUOUS
 62
    7
 10
2056.711875
 20
556.920705
 11
2056.711875
 21
556.500405
  0
LINE
  8
_0-1_レイヤ___1
  6
CONTINUOUS
 62
    7
 10
2056.711875
 20
556.500405
 11
2057.1356150000001
 21
556.500405
  0
LINE
  8
_0-1_レイヤ___1
  6
CONTINUOUS
 62
    7
 10
2057.1356150000001
 20
556.500405
 11
2057.1356150000001
 21
556.07666500000005
  0
LINE
  8
_0-1_レイヤ___1
  6
CONTINUOUS
 62
    7
 10
2057.1356150000001
 20
556.07666500000005
 11
2057.1356150000001
 21
555.65291500000001
  0
LINE
  8
_0-1_レイヤ___1
  6
CONTINUOUS
 62
    7
 10
2057.1356150000001
 20
555.65291500000001
 11
2057.5593650000001
 21
555.65291500000001
  0
LINE
  8
_0-1_レイヤ___1
  6
CONTINUOUS
 62
    7
 10
2057.5593650000001
 20
555.65291500000001
 11
2057.5593650000001
 21
555.22916499999997
  0
LINE
  8
_0-1_レイヤ___1
  6
CONTINUOUS
 62
    7
 10
2057.5593650000001
 20
555.22916499999997
 11
2057.5593650000001
 21
554.80542500000001
  0
LINE
  8
_0-1_レイヤ___1
  6
CONTINUOUS
 62
    7
 10
2057.5593650000001
 20
554.80542500000001
 11
2057.983115
 21
554.38167500000009
  0
LINE
  8
_0-1_レイヤ___1
  6
CONTINUOUS
 62
    7
 10
2057.983115
 20
554.38167500000009
 11
2057.983115
 21
553.95792500000005
  0
LINE
  8
_0-1_レイヤ___1
  6
CONTINUOUS
 62
    7
 10
2057.983115
 20
553.95792500000005
 11
2058.4068550000002
 21
553.534175
  0
LINE
  8
_0-1_レイヤ___1
  6
CONTINUOUS
 62
    7
 10
2058.4068550000002
 20
553.534175
 11
2058.4068550000002
 21
553.11387500000001
  0
LINE
  8
_0-1_レイヤ___1
  6
CONTINUOUS
 62
    7
 10
2058.4068550000002
 20
553.11387500000001
 11
2058.8306050000001
 21
552.69013500000005
  0
LINE
  8
_0-1_レイヤ___1
  6
CONTINUOUS
 62
    7
 10
2058.8306050000001
 20
552.69013500000005
 11
2058.8306050000001
 21
552.26638500000001
  0
LINE
  8
_0-1_レイヤ___1
  6
CONTINUOUS
 62
    7
 10
2058.8306050000001
 20
552.26638500000001
 11
2059.2509049999999
 21
551.84263499999997
  0
LINE
  8
_0-1_レイヤ___1
  6
CONTINUOUS
 62
    7
 10
2059.2509049999999
 20
551.84263499999997
 11
2059.2509049999999
 21
551.41889500000002
  0
LINE
  8
_0-1_レイヤ___1
  6
CONTINUOUS
 62
    7
 10
2059.2509049999999
 20
551.41889500000002
 11
2059.6746549999998
 21
550.99514500000009
  0
LINE
  8
_0-1_レイヤ___1
  6
CONTINUOUS
 62
    7
 10
2059.6746549999998
 20
550.99514500000009
 11
2059.6746549999998
 21
550.57139500000005
  0
LINE
  8
_0-1_レイヤ___1
  6
CONTINUOUS
 62
    7
 10
2059.6746549999998
 20
550.57139500000005
 11
2060.0984050000002
 21
550.57139500000005
  0
LINE
  8
_0-1_レイヤ___1
  6
CONTINUOUS
 62
    7
 10
2060.0984050000002
 20
550.57139500000005
 11
2060.0984050000002
 21
550.14765499999999
  0
LINE
  8
_0-1_レイヤ___1
  6
CONTINUOUS
 62
    7
 10
2060.0984050000002
 20
550.14765499999999
 11
2060.0984050000002
 21
549.72390500000006
  0
LINE
  8
_0-1_レイヤ___1
  6
CONTINUOUS
 62
    7
 10
2060.0984050000002
 20
549.72390500000006
 11
2060.5221450000004
 21
549.72390500000006
  0
LINE
  8
_0-1_レイヤ___1
  6
CONTINUOUS
 62
    7
 10
2060.5221450000004
 20
549.72390500000006
 11
2060.5221450000004
 21
549.30360500000006
  0
LINE
  8
_0-1_レイヤ___1
  6
CONTINUOUS
 62
    7
 10
2060.5221450000004
 20
549.30360500000006
 11
2060.9458950000003
 21
548.87985500000002
  0
LINE
  8
_0-1_レイヤ___1
  6
CONTINUOUS
 62
    7
 10
2060.9458950000003
 20
548.87985500000002
 11
2060.9458950000003
 21
548.45610499999998
  0
LINE
  8
_0-1_レイヤ___1
  6
CONTINUOUS
 62
    7
 10
2060.9458950000003
 20
548.45610499999998
 11
2061.3696450000002
 21
548.45610499999998
  0
LINE
  8
_0-1_レイヤ___1
  6
CONTINUOUS
 62
    7
 10
2061.3696450000002
 20
548.45610499999998
 11
2061.3696450000002
 21
548.03236500000003
  0
LINE
  8
_0-1_レイヤ___1
  6
CONTINUOUS
 62
    7
 10
2061.3696450000002
 20
548.03236500000003
 11
2061.3696450000002
 21
547.6086150000001
  0
LINE
  8
_0-1_レイヤ___1
  6
CONTINUOUS
 62
    7
 10
2061.3696450000002
 20
547.6086150000001
 11
2061.7933850000004
 21
547.6086150000001
  0
LINE
  8
_0-1_レイヤ___1
  6
CONTINUOUS
 62
    7
 10
2061.7933850000004
 20
547.6086150000001
 11
2061.7933850000004
 21
547.18486500000006
  0
LINE
  8
_0-1_レイヤ___1
  6
CONTINUOUS
 62
    7
 10
2061.7933850000004
 20
547.18486500000006
 11
2062.2171350000003
 21
547.18486500000006
  0
LINE
  8
_0-1_レイヤ___1
  6
CONTINUOUS
 62
    7
 10
2062.2171350000003
 20
547.18486500000006
 11
2062.2171350000003
 21
546.76112499999999
  0
LINE
  8
_0-1_レイヤ___1
  6
CONTINUOUS
 62
    7
 10
2062.2171350000003
 20
546.76112499999999
 11
2062.2171350000003
 21
546.33737500000007
  0
LINE
  8
_0-1_レイヤ___1
  6
CONTINUOUS
 62
    7
 10
2062.2171350000003
 20
546.33737500000007
 11
2062.6374350000001
 21
546.33737500000007
  0
LINE
  8
_0-1_レイヤ___1
  6
CONTINUOUS
 62
    7
 10
2062.6374350000001
 20
546.33737500000007
 11
2062.6374350000001
 21
545.91707500000007
  0
LINE
  8
_0-1_レイヤ___1
  6
CONTINUOUS
 62
    7
 10
2062.6374350000001
 20
545.91707500000007
 11
2063.0611850000005
 21
545.91707500000007
  0
LINE
  8
_0-1_レイヤ___1
  6
CONTINUOUS
 62
    7
 10
2063.0611850000005
 20
545.91707500000007
 11
2063.0611850000005
 21
545.49332500000003
  0
LINE
  8
_0-1_レイヤ___1
  6
CONTINUOUS
 62
    7
 10
2063.0611850000005
 20
545.49332500000003
 11
2063.4849250000002
 21
545.49332500000003
  0
LINE
  8
_0-1_レイヤ___1
  6
CONTINUOUS
 62
    7
 10
2063.4849250000002
 20
545.49332500000003
 11
2063.4849250000002
 21
545.06958500000007
  0
LINE
  8
_0-1_レイヤ___1
  6
CONTINUOUS
 62
    7
 10
2063.4849250000002
 20
545.06958500000007
 11
2063.4849250000002
 21
544.64583500000003
  0
LINE
  8
_0-1_レイヤ___1
  6
CONTINUOUS
 62
    7
 10
2063.4849250000002
 20
544.64583500000003
 11
2063.9086750000001
 21
544.64583500000003
  0
LINE
  8
_0-1_レイヤ___1
  6
CONTINUOUS
 62
    7
 10
2063.9086750000001
 20
544.64583500000003
 11
2063.9086750000001
 21
544.22208499999999
  0
LINE
  8
_0-1_レイヤ___1
  6
CONTINUOUS
 62
    7
 10
2063.9086750000001
 20
544.22208499999999
 11
2064.3324250000001
 21
544.22208499999999
  0
LINE
  8
_0-1_レイヤ___1
  6
CONTINUOUS
 62
    7
 10
2064.3324250000001
 20
544.22208499999999
 11
2064.3324250000001
 21
543.79834500000004
  0
LINE
  8
_0-1_レイヤ___1
  6
CONTINUOUS
 62
    7
 10
2064.3324250000001
 20
543.79834500000004
 11
2064.7561650000002
 21
543.79834500000004
  0
LINE
  8
_0-1_レイヤ___1
  6
CONTINUOUS
 62
    7
 10
2064.7561650000002
 20
543.79834500000004
 11
2064.7561650000002
 21
543.374595
  0
LINE
  8
_0-1_レイヤ___1
  6
CONTINUOUS
 62
    7
 10
2064.7561650000002
 20
543.374595
 11
2065.1799150000002
 21
542.95084500000007
  0
LINE
  8
_0-1_レイヤ___1
  6
CONTINUOUS
 62
    7
 10
2065.1799150000002
 20
542.95084500000007
 11
2065.1799150000002
 21
542.53054500000007
  0
LINE
  8
_0-1_レイヤ___1
  6
CONTINUOUS
 62
    7
 10
2065.1799150000002
 20
542.53054500000007
 11
2065.6036650000001
 21
542.53054500000007
  0
LINE
  8
_0-1_レイヤ___1
  6
CONTINUOUS
 62
    7
 10
2065.6036650000001
 20
542.53054500000007
 11
2065.6036650000001
 21
542.10679500000003
  0
LINE
  8
_0-1_レイヤ___1
  6
CONTINUOUS
 62
    7
 10
2065.6036650000001
 20
542.10679500000003
 11
2066.0239650000003
 21
542.10679500000003
  0
LINE
  8
_0-1_レイヤ___1
  6
CONTINUOUS
 62
    7
 10
2066.0239650000003
 20
542.10679500000003
 11
2066.0239650000003
 21
541.68305499999997
  0
LINE
  8
_0-1_レイヤ___1
  6
CONTINUOUS
 62
    7
 10
2066.0239650000003
 20
541.68305499999997
 11
2066.4477150000002
 21
541.68305499999997
  0
LINE
  8
_0-1_レイヤ___1
  6
CONTINUOUS
 62
    7
 10
2066.4477150000002
 20
541.68305499999997
 11
2066.4477150000002
 21
541.25930500000004
  0
LINE
  8
_0-1_レイヤ___1
  6
CONTINUOUS
 62
    7
 10
2066.4477150000002
 20
541.25930500000004
 11
2066.871455
 21
541.25930500000004
  0
LINE
  8
_0-1_レイヤ___1
  6
CONTINUOUS
 62
    7
 10
2066.871455
 20
541.25930500000004
 11
2066.871455
 21
540.835555
  0
LINE
  8
_0-1_レイヤ___1
  6
CONTINUOUS
 62
    7
 10
2066.871455
 20
540.835555
 11
2067.2952049999999
 21
540.835555
  0
LINE
  8
_0-1_レイヤ___1
  6
CONTINUOUS
 62
    7
 10
2067.2952049999999
 20
540.835555
 11
2067.2952049999999
 21
540.41181500000005
  0
LINE
  8
_0-1_レイヤ___1
  6
CONTINUOUS
 62
    7
 10
2067.2952049999999
 20
540.41181500000005
 11
2067.7189550000003
 21
540.41181500000005
  0
LINE
  8
_0-1_レイヤ___1
  6
CONTINUOUS
 62
    7
 10
2067.7189550000003
 20
540.41181500000005
 11
2067.7189550000003
 21
539.98806500000001
  0
LINE
  8
_0-1_レイヤ___1
  6
CONTINUOUS
 62
    7
 10
2067.7189550000003
 20
539.98806500000001
 11
2068.1426950000005
 21
539.98806500000001
  0
LINE
  8
_0-1_レイヤ___1
  6
CONTINUOUS
 62
    7
 10
2068.1426950000005
 20
539.98806500000001
 11
2068.1426950000005
 21
539.56431499999997
  0
LINE
  8
_0-1_レイヤ___1
  6
CONTINUOUS
 62
    7
 10
2068.1426950000005
 20
539.56431499999997
 11
2068.5664450000004
 21
539.56431499999997
  0
LINE
  8
_0-1_レイヤ___1
  6
CONTINUOUS
 62
    7
 10
2068.5664450000004
 20
539.56431499999997
 11
2068.5664450000004
 21
539.14057500000001
  0
LINE
  8
_0-1_レイヤ___1
  6
CONTINUOUS
 62
    7
 10
2068.5664450000004
 20
539.14057500000001
 11
2068.9901950000003
 21
539.14057500000001
  0
LINE
  8
_0-1_レイヤ___1
  6
CONTINUOUS
 62
    7
 10
2068.9901950000003
 20
539.14057500000001
 11
2068.9901950000003
 21
538.72026500000004
  0
LINE
  8
_0-1_レイヤ___1
  6
CONTINUOUS
 62
    7
 10
2068.9901950000003
 20
538.72026500000004
 11
2069.413935
 21
538.72026500000004
  0
LINE
  8
_0-1_レイヤ___1
  6
CONTINUOUS
 62
    7
 10
2069.413935
 20
538.72026500000004
 11
2069.413935
 21
538.29652499999997
  0
LINE
  8
_0-1_レイヤ___1
  6
CONTINUOUS
 62
    7
 10
2069.413935
 20
538.29652499999997
 11
2069.834245
 21
538.29652499999997
  0
LINE
  8
_0-1_レイヤ___1
  6
CONTINUOUS
 62
    7
 10
2069.834245
 20
538.29652499999997
 11
2069.834245
 21
537.87277500000005
  0
LINE
  8
_0-1_レイヤ___1
  6
CONTINUOUS
 62
    7
 10
2069.834245
 20
537.87277500000005
 11
2070.2579850000002
 21
537.87277500000005
  0
LINE
  8
_0-1_レイヤ___1
  6
CONTINUOUS
 62
    7
 10
2070.2579850000002
 20
537.87277500000005
 11
2070.2579850000002
 21
537.44902500000001
  0
LINE
  8
_0-1_レイヤ___1
  6
CONTINUOUS
 62
    7
 10
2070.2579850000002
 20
537.44902500000001
 11
2070.6817350000001
 21
537.44902500000001
  0
LINE
  8
_0-1_レイヤ___1
  6
CONTINUOUS
 62
    7
 10
2070.6817350000001
 20
537.44902500000001
 11
2070.6817350000001
 21
537.02528499999994
  0
LINE
  8
_0-1_レイヤ___1
  6
CONTINUOUS
 62
    7
 10
2070.6817350000001
 20
537.02528499999994
 11
2071.105485
 21
537.02528499999994
  0
LINE
  8
_0-1_レイヤ___1
  6
CONTINUOUS
 62
    7
 10
2071.105485
 20
537.02528499999994
 11
2071.5292250000002
 21
536.60153500000001
  0
LINE
  8
_0-1_レイヤ___1
  6
CONTINUOUS
 62
    7
 10
2071.5292250000002
 20
536.60153500000001
 11
2071.9529750000002
 21
536.17778499999997
  0
LINE
  8
_0-1_レイヤ___1
  6
CONTINUOUS
 62
    7
 10
2071.9529750000002
 20
536.17778499999997
 11
2072.3767250000001
 21
536.17778499999997
  0
LINE
  8
_0-1_レイヤ___1
  6
CONTINUOUS
 62
    7
 10
2072.3767250000001
 20
536.17778499999997
 11
2072.3767250000001
 21
535.75404500000002
  0
LINE
  8
_0-1_レイヤ___1
  6
CONTINUOUS
 62
    7
 10
2072.3767250000001
 20
535.75404500000002
 11
2072.8004650000003
 21
535.75404500000002
  0
LINE
  8
_0-1_レイヤ___1
  6
CONTINUOUS
 62
    7
 10
2072.8004650000003
 20
535.75404500000002
 11
2072.8004650000003
 21
535.33374500000002
  0
LINE
  8
_0-1_レイヤ___1
  6
CONTINUOUS
 62
    7
 10
2072.8004650000003
 20
535.33374500000002
 11
2073.220765
 21
535.33374500000002
  0
LINE
  8
_0-1_レイヤ___1
  6
CONTINUOUS
 62
    7
 10
2073.220765
 20
535.33374500000002
 11
2073.644515
 21
534.90999499999998
  0
LINE
  8
_0-1_レイヤ___1
  6
CONTINUOUS
 62
    7
 10
2073.644515
 20
534.90999499999998
 11
2074.0682650000003
 21
534.90999499999998
  0
LINE
  8
_0-1_レイヤ___1
  6
CONTINUOUS
 62
    7
 10
2074.0682650000003
 20
534.90999499999998
 11
2074.0682650000003
 21
534.48624500000005
  0
LINE
  8
_0-1_レイヤ___1
  6
CONTINUOUS
 62
    7
 10
2074.0682650000003
 20
534.48624500000005
 11
2074.4920050000001
 21
534.48624500000005
  0
LINE
  8
_0-1_レイヤ___1
  6
CONTINUOUS
 62
    7
 10
2074.4920050000001
 20
534.48624500000005
 11
2074.4920050000001
 21
534.0625050000001
  0
LINE
  8
_0-1_レイヤ___1
  6
CONTINUOUS
 62
    7
 10
2074.4920050000001
 20
534.0625050000001
 11
2074.915755
 21
534.0625050000001
  0
LINE
  8
_0-1_レイヤ___1
  6
CONTINUOUS
 62
    7
 10
2074.915755
 20
534.0625050000001
 11
2075.3395049999999
 21
533.63875500000006
  0
LINE
  8
_0-1_レイヤ___1
  6
CONTINUOUS
 62
    7
 10
2075.3395049999999
 20
533.63875500000006
 11
2075.7632450000001
 21
533.63875500000006
  0
LINE
  8
_0-1_レイヤ___1
  6
CONTINUOUS
 62
    7
 10
2075.7632450000001
 20
533.63875500000006
 11
2075.7632450000001
 21
533.21500500000002
  0
LINE
  8
_0-1_レイヤ___1
  6
CONTINUOUS
 62
    7
 10
2075.7632450000001
 20
533.21500500000002
 11
2076.186995
 21
533.21500500000002
  0
LINE
  8
_0-1_レイヤ___1
  6
CONTINUOUS
 62
    7
 10
2076.186995
 20
533.21500500000002
 11
2076.6072949999998
 21
532.79125499999998
  0
LINE
  8
_0-1_レイヤ___1
  6
CONTINUOUS
 62
    7
 10
2076.6072949999998
 20
532.79125499999998
 11
2077.0310450000002
 21
532.79125499999998
  0
LINE
  8
_0-1_レイヤ___1
  6
CONTINUOUS
 62
    7
 10
2077.0310450000002
 20
532.79125499999998
 11
2077.0310450000002
 21
532.36751500000003
  0
LINE
  8
_0-1_レイヤ___1
  6
CONTINUOUS
 62
    7
 10
2077.0310450000002
 20
532.36751500000003
 11
2077.4547950000001
 21
532.36751500000003
  0
LINE
  8
_0-1_レイヤ___1
  6
CONTINUOUS
 62
    7
 10
2077.4547950000001
 20
532.36751500000003
 11
2077.8785350000003
 21
532.36751500000003
  0
LINE
  8
_0-1_レイヤ___1
  6
CONTINUOUS
 62
    7
 10
2077.8785350000003
 20
532.36751500000003
 11
2077.8785350000003
 21
531.94721500000003
  0
LINE
  8
_0-1_レイヤ___1
  6
CONTINUOUS
 62
    7
 10
2077.8785350000003
 20
531.94721500000003
 11
2078.3022850000002
 21
531.94721500000003
  0
LINE
  8
_0-1_レイヤ___1
  6
CONTINUOUS
 62
    7
 10
2078.3022850000002
 20
531.94721500000003
 11
2078.3022850000002
 21
531.52346499999999
  0
LINE
  8
_0-1_レイヤ___1
  6
CONTINUOUS
 62
    7
 10
2078.3022850000002
 20
531.52346499999999
 11
2078.7260350000001
 21
531.52346499999999
  0
LINE
  8
_0-1_レイヤ___1
  6
CONTINUOUS
 62
    7
 10
2078.7260350000001
 20
531.52346499999999
 11
2079.1497750000003
 21
531.52346499999999
  0
LINE
  8
_0-1_レイヤ___1
  6
CONTINUOUS
 62
    7
 10
2079.1497750000003
 20
531.52346499999999
 11
2079.1497750000003
 21
531.09971500000006
  0
LINE
  8
_0-1_レイヤ___1
  6
CONTINUOUS
 62
    7
 10
2079.1497750000003
 20
531.09971500000006
 11
2079.5735250000002
 21
531.09971500000006
  0
LINE
  8
_0-1_レイヤ___1
  6
CONTINUOUS
 62
    7
 10
2079.5735250000002
 20
531.09971500000006
 11
2079.9972750000002
 21
531.09971500000006
  0
LINE
  8
_0-1_レイヤ___1
  6
CONTINUOUS
 62
    7
 10
2079.9972750000002
 20
531.09971500000006
 11
2079.9972750000002
 21
530.67597500000011
  0
LINE
  8
_0-1_レイヤ___1
  6
CONTINUOUS
 62
    7
 10
2079.9972750000002
 20
530.67597500000011
 11
2080.4175750000004
 21
530.67597500000011
  0
LINE
  8
_0-1_レイヤ___1
  6
CONTINUOUS
 62
    7
 10
2080.4175750000004
 20
530.67597500000011
 11
2080.8413250000003
 21
530.67597500000011
  0
LINE
  8
_0-1_レイヤ___1
  6
CONTINUOUS
 62
    7
 10
2080.8413250000003
 20
530.67597500000011
 11
2080.8413250000003
 21
530.25222500000007
  0
LINE
  8
_0-1_レイヤ___1
  6
CONTINUOUS
 62
    7
 10
2080.8413250000003
 20
530.25222500000007
 11
2081.265065
 21
530.25222500000007
  0
LINE
  8
_0-1_レイヤ___1
  6
CONTINUOUS
 62
    7
 10
2081.265065
 20
530.25222500000007
 11
2081.6888150000004
 21
530.25222500000007
  0
LINE
  8
_0-1_レイヤ___1
  6
CONTINUOUS
 62
    7
 10
2081.6888150000004
 20
530.25222500000007
 11
2081.6888150000004
 21
529.82847500000003
  0
LINE
  8
_0-1_レイヤ___1
  6
CONTINUOUS
 62
    7
 10
2081.6888150000004
 20
529.82847500000003
 11
2082.1125650000004
 21
529.82847500000003
  0
LINE
  8
_0-1_レイヤ___1
  6
CONTINUOUS
 62
    7
 10
2082.1125650000004
 20
529.82847500000003
 11
2082.5363050000001
 21
529.82847500000003
  0
LINE
  8
_0-1_レイヤ___1
  6
CONTINUOUS
 62
    7
 10
2082.5363050000001
 20
529.82847500000003
 11
2082.5363050000001
 21
529.40473500000007
  0
LINE
  8
_0-1_レイヤ___1
  6
CONTINUOUS
 62
    7
 10
2082.5363050000001
 20
529.40473500000007
 11
2082.960055
 21
529.40473500000007
  0
LINE
  8
_0-1_レイヤ___1
  6
CONTINUOUS
 62
    7
 10
2082.960055
 20
529.40473500000007
 11
2083.3838050000004
 21
529.40473500000007
  0
LINE
  8
_0-1_レイヤ___1
  6
CONTINUOUS
 62
    7
 10
2083.3838050000004
 20
529.40473500000007
 11
2083.3838050000004
 21
528.98098500000003
  0
LINE
  8
_0-1_レイヤ___1
  6
CONTINUOUS
 62
    7
 10
2083.3838050000004
 20
528.98098500000003
 11
2083.8041050000002
 21
528.98098500000003
  0
LINE
  8
_0-1_レイヤ___1
  6
CONTINUOUS
 62
    7
 10
2083.8041050000002
 20
528.98098500000003
 11
2084.2278449999999
 21
528.98098500000003
  0
LINE
  8
_0-1_レイヤ___1
  6
CONTINUOUS
 62
    7
 10
2084.2278449999999
 20
528.98098500000003
 11
2084.2278449999999
 21
528.55723499999999
  0
LINE
  8
_0-1_レイヤ___1
  6
CONTINUOUS
 62
    7
 10
2084.2278449999999
 20
528.55723499999999
 11
2084.6515950000003
 21
528.55723499999999
  0
LINE
  8
_0-1_レイヤ___1
  6
CONTINUOUS
 62
    7
 10
2084.6515950000003
 20
528.55723499999999
 11
2085.0753450000002
 21
528.55723499999999
  0
LINE
  8
_0-1_レイヤ___1
  6
CONTINUOUS
 62
    7
 10
2085.0753450000002
 20
528.55723499999999
 11
2085.4990850000004
 21
528.55723499999999
  0
LINE
  8
_0-1_レイヤ___1
  6
CONTINUOUS
 62
    7
 10
2085.4990850000004
 20
528.55723499999999
 11
2085.4990850000004
 21
528.13693499999999
  0
LINE
  8
_0-1_レイヤ___1
  6
CONTINUOUS
 62
    7
 10
2085.4990850000004
 20
528.13693499999999
 11
2085.9228350000003
 21
528.13693499999999
  0
LINE
  8
_0-1_レイヤ___1
  6
CONTINUOUS
 62
    7
 10
2085.9228350000003
 20
528.13693499999999
 11
2086.3465850000002
 21
528.13693499999999
  0
LINE
  8
_0-1_レイヤ___1
  6
CONTINUOUS
 62
    7
 10
2086.3465850000002
 20
528.13693499999999
 11
2086.7703250000004
 21
527.71318499999995
  0
LINE
  8
_0-1_レイヤ___1
  6
CONTINUOUS
 62
    7
 10
2086.7703250000004
 20
527.71318499999995
 11
2087.1906349999999
 21
527.71318499999995
  0
LINE
  8
_0-1_レイヤ___1
  6
CONTINUOUS
 62
    7
 10
2087.1906349999999
 20
527.71318499999995
 11
2087.6143750000001
 21
527.71318499999995
  0
LINE
  8
_0-1_レイヤ___1
  6
CONTINUOUS
 62
    7
 10
2087.6143750000001
 20
527.71318499999995
 11
2087.6143750000001
 21
527.289445
  0
LINE
  8
_0-1_レイヤ___1
  6
CONTINUOUS
 62
    7
 10
2087.6143750000001
 20
527.289445
 11
2088.038125
 21
527.289445
  0
LINE
  8
_0-1_レイヤ___1
  6
CONTINUOUS
 62
    7
 10
2088.038125
 20
527.289445
 11
2088.461875
 21
527.289445
  0
LINE
  8
_0-1_レイヤ___1
  6
CONTINUOUS
 62
    7
 10
2088.461875
 20
527.289445
 11
2088.8856150000001
 21
527.289445
  0
LINE
  8
_0-1_レイヤ___1
  6
CONTINUOUS
 62
    7
 10
2088.8856150000001
 20
527.289445
 11
2088.8856150000001
 21
526.86569500000007
  0
LINE
  8
_0-1_レイヤ___1
  6
CONTINUOUS
 62
    7
 10
2088.8856150000001
 20
526.86569500000007
 11
2089.3093650000001
 21
526.86569500000007
  0
LINE
  8
_0-1_レイヤ___1
  6
CONTINUOUS
 62
    7
 10
2089.3093650000001
 20
526.86569500000007
 11
2089.733115
 21
526.86569500000007
  0
LINE
  8
_0-1_レイヤ___1
  6
CONTINUOUS
 62
    7
 10
2089.733115
 20
526.86569500000007
 11
2090.1568550000002
 21
526.86569500000007
  0
LINE
  8
_0-1_レイヤ___1
  6
CONTINUOUS
 62
    7
 10
2090.1568550000002
 20
526.86569500000007
 11
2090.5806050000001
 21
526.44194500000003
  0
LINE
  8
_0-1_レイヤ___1
  6
CONTINUOUS
 62
    7
 10
2090.5806050000001
 20
526.44194500000003
 11
2091.0009050000003
 21
526.44194500000003
  0
LINE
  8
_0-1_レイヤ___1
  6
CONTINUOUS
 62
    7
 10
2091.0009050000003
 20
526.44194500000003
 11
2091.4246550000003
 21
526.44194500000003
  0
LINE
  8
_0-1_レイヤ___1
  6
CONTINUOUS
 62
    7
 10
2091.4246550000003
 20
526.44194500000003
 11
2091.8484050000002
 21
526.44194500000003
  0
LINE
  8
_0-1_レイヤ___1
  6
CONTINUOUS
 62
    7
 10
2091.8484050000002
 20
526.44194500000003
 11
2092.2721449999999
 21
526.01820500000008
  0
LINE
  8
_0-1_レイヤ___1
  6
CONTINUOUS
 62
    7
 10
2092.2721449999999
 20
526.01820500000008
 11
2092.6958950000003
 21
526.01820500000008
  0
LINE
  8
_0-1_レイヤ___1
  6
CONTINUOUS
 62
    7
 10
2092.6958950000003
 20
526.01820500000008
 11
2093.1196450000002
 21
526.01820500000008
  0
LINE
  8
_0-1_レイヤ___1
  6
CONTINUOUS
 62
    7
 10
2093.1196450000002
 20
526.01820500000008
 11
2093.5433849999999
 21
526.01820500000008
  0
LINE
  8
_0-1_レイヤ___1
  6
CONTINUOUS
 62
    7
 10
2093.5433849999999
 20
526.01820500000008
 11
2093.9671349999999
 21
526.01820500000008
  0
LINE
  8
_0-1_レイヤ___1
  6
CONTINUOUS
 62
    7
 10
2093.9671349999999
 20
526.01820500000008
 11
2093.9671349999999
 21
525.59445500000004
  0
LINE
  8
_0-1_レイヤ___1
  6
CONTINUOUS
 62
    7
 10
2093.9671349999999
 20
525.59445500000004
 11
2094.3874350000001
 21
525.59445500000004
  0
LINE
  8
_0-1_レイヤ___1
  6
CONTINUOUS
 62
    7
 10
2094.3874350000001
 20
525.59445500000004
 11
2094.811185
 21
525.59445500000004
  0
LINE
  8
_0-1_レイヤ___1
  6
CONTINUOUS
 62
    7
 10
2094.811185
 20
525.59445500000004
 11
2095.2349250000002
 21
525.59445500000004
  0
LINE
  8
_0-1_レイヤ___1
  6
CONTINUOUS
 62
    7
 10
2095.2349250000002
 20
525.59445500000004
 11
2095.6586750000001
 21
525.59445500000004
  0
LINE
  8
_0-1_レイヤ___1
  6
CONTINUOUS
 62
    7
 10
2095.6586750000001
 20
525.59445500000004
 11
2096.0824250000001
 21
525.59445500000004
  0
LINE
  8
_0-1_レイヤ___1
  6
CONTINUOUS
 62
    7
 10
2096.0824250000001
 20
525.59445500000004
 11
2096.5061650000002
 21
525.170705
  0
LINE
  8
_0-1_レイヤ___1
  6
CONTINUOUS
 62
    7
 10
2096.5061650000002
 20
525.170705
 11
2096.9299150000002
 21
525.170705
  0
LINE
  8
_0-1_レイヤ___1
  6
CONTINUOUS
 62
    7
 10
2096.9299150000002
 20
525.170705
 11
2097.3536650000001
 21
525.170705
  0
LINE
  8
_0-1_レイヤ___1
  6
CONTINUOUS
 62
    7
 10
2097.3536650000001
 20
525.170705
 11
2097.7739650000003
 21
525.170705
  0
LINE
  8
_0-1_レイヤ___1
  6
CONTINUOUS
 62
    7
 10
2097.7739650000003
 20
525.170705
 11
2098.1977150000002
 21
525.170705
  0
LINE
  8
_0-1_レイヤ___1
  6
CONTINUOUS
 62
    7
 10
2098.1977150000002
 20
525.170705
 11
2098.6214550000004
 21
525.170705
  0
LINE
  8
_0-1_レイヤ___1
  6
CONTINUOUS
 62
    7
 10
2098.6214550000004
 20
525.170705
 11
2099.0452050000004
 21
525.170705
  0
LINE
  8
_0-1_レイヤ___1
  6
CONTINUOUS
 62
    7
 10
2099.0452050000004
 20
525.170705
 11
2099.4689550000003
 21
525.170705
  0
LINE
  8
_0-1_レイヤ___1
  6
CONTINUOUS
 62
    7
 10
2099.4689550000003
 20
525.170705
 11
2099.892695
 21
525.170705
  0
LINE
  8
_0-1_レイヤ___1
  6
CONTINUOUS
 62
    7
 10
2099.892695
 20
525.170705
 11
2100.3164450000004
 21
524.750405
  0
LINE
  8
_0-1_レイヤ___1
  6
CONTINUOUS
 62
    7
 10
2100.3164450000004
 20
524.750405
 11
2100.7401950000003
 21
524.750405
  0
LINE
  8
_0-1_レイヤ___1
  6
CONTINUOUS
 62
    7
 10
2100.7401950000003
 20
524.750405
 11
2101.163935
 21
524.750405
  0
LINE
  8
_0-1_レイヤ___1
  6
CONTINUOUS
 62
    7
 10
2101.163935
 20
524.750405
 11
2101.584245
 21
524.750405
  0
LINE
  8
_0-1_レイヤ___1
  6
CONTINUOUS
 62
    7
 10
2101.584245
 20
524.750405
 11
2102.0079850000002
 21
524.750405
  0
LINE
  8
_0-1_レイヤ___1
  6
CONTINUOUS
 62
    7
 10
2102.0079850000002
 20
524.750405
 11
2102.4317350000001
 21
524.750405
  0
LINE
  8
_0-1_レイヤ___1
  6
CONTINUOUS
 62
    7
 10
2037.6639350000003
 20
698.31431500000008
 11
2035.9689550000003
 21
707.62985500000002
  0
LINE
  8
_0-1_レイヤ___1
  6
CONTINUOUS
 62
    7
 10
2151.538125
 20
522.20792500000005
 11
2102.4317350000001
 21
524.32666500000005
  0
LINE
  8
_0-1_レイヤ___1
  6
CONTINUOUS
 62
    7
 10
2173.1285350000003
 20
515.01112499999999
 11
2163.8164450000004
 21
520.51638500000001
  0
LINE
  8
_0-1_レイヤ___1
  6
CONTINUOUS
 62
    7
 10
2163.8164450000004
 20
520.51638500000001
 11
2151.538125
 21
522.20792500000005
  0
LINE
  8
_0-1_レイヤ___1
  6
CONTINUOUS
 62
    7
 10
2486.8182650000003
 20
720.32847500000003
 11
2515.605485
 21
720.32847500000003
  0
LINE
  8
_0-1_レイヤ___1
  6
CONTINUOUS
 62
    7
 10
2310.711875
 20
522.20792500000005
 11
2361.5132450000001
 21
524.32666500000005
  0
LINE
  8
_0-1_レイヤ___1
  6
CONTINUOUS
 62
    7
 10
2310.711875
 20
522.20792500000005
 11
2299.7047950000001
 21
520.51638500000001
  0
LINE
  8
_0-1_レイヤ___1
  6
CONTINUOUS
 62
    7
 10
2299.7047950000001
 20
520.51638500000001
 11
2290.8164449999999
 21
515.01112499999999
  0
LINE
  8
_0-1_レイヤ___1
  6
CONTINUOUS
 62
    7
 10
2486.8182650000003
 20
720.32847500000003
 11
2474.1196450000002
 21
718.21318500000007
  0
LINE
  8
_0-1_レイヤ___1
  6
CONTINUOUS
 62
    7
 10
2474.1196450000002
 20
718.21318500000007
 11
2461.4175749999999
 21
712.70792499999993
  0
LINE
  8
_0-1_レイヤ___1
  6
CONTINUOUS
 62
    7
 10
2428.8235250000002
 20
692.81250499999999
 11
2461.4175749999999
 21
712.70792499999993
  0
LINE
  8
_0-1_レイヤ___1
  6
CONTINUOUS
 62
    7
 10
2428.8235250000002
 20
692.81250499999999
 11
2425.0132450000001
 21
689.42597500000011
  0
LINE
  8
_0-1_レイヤ___1
  6
CONTINUOUS
 62
    7
 10
2037.6639350000003
 20
698.31431500000008
 11
2053.7490849999999
 21
569.62277500000005
  0
LINE
  8
_0-1_レイヤ___1
  6
CONTINUOUS
 62
    7
 10
2425.0132450000001
 20
689.42597500000011
 11
2410.1958950000003
 21
569.62277500000005
  0
LINE
  8
_0-1_レイヤ___1
  6
CONTINUOUS
 62
    7
 10
2037.6639350000003
 20
698.31431500000008
 11
2035.9689550000003
 21
707.62985500000002
  0
LINE
  8
_0-1_レイヤ___1
  6
CONTINUOUS
 62
    7
 10
2035.9689550000003
 20
707.62985500000002
 11
2024.1143750000001
 21
720.32847500000003
  0
LINE
  8
_0-1_レイヤ___1
  6
CONTINUOUS
 62
    7
 10
2173.1285350000003
 20
515.01112499999999
 11
2290.8164449999999
 21
515.01112499999999
  0
LINE
  8
_0-1_レイヤ___1
  6
CONTINUOUS
 62
    7
 10
2488.0895049999999
 20
701.70084500000007
 11
2488.0895049999999
 21
714.40291500000001
  0
LINE
  8
_0-1_レイヤ___1
  6
CONTINUOUS
 62
    7
 10
2488.0895049999999
 20
718.63693499999999
 11
2488.0895049999999
 21
719.90473500000007
  0
LINE
  8
_0-1_レイヤ___1
  6
CONTINUOUS
 62
    7
 10
2488.0895049999999
 20
722.86751500000014
 11
2488.0895049999999
 21
724.13875500000006
  0
LINE
  8
_0-1_レイヤ___1
  6
CONTINUOUS
 62
    7
 10
2488.0895049999999
 20
727.10153500000001
 11
2488.0895049999999
 21
739.80360500000006
  0
LINE
  8
_0-1_レイヤ___1
  6
CONTINUOUS
 62
    7
 10
2488.0895049999999
 20
744.034175
 11
2488.0895049999999
 21
745.30542500000001
  0
LINE
  8
_0-1_レイヤ___1
  6
CONTINUOUS
 62
    7
 10
2488.0895049999999
 20
748.26820499999997
 11
2488.0895049999999
 21
749.53944500000011
  0
LINE
  8
_0-1_レイヤ___1
  6
CONTINUOUS
 62
    7
 10
2488.0895049999999
 20
752.50222500000007
 11
2488.0895049999999
 21
765.20084499999996
  0
LINE
  8
_0-1_レイヤ___1
  6
CONTINUOUS
 62
    7
 10
2488.0895049999999
 20
765.624595
 11
2488.0895049999999
 21
766.47208500000011
  0
LINE
  8
_0-1_レイヤ___1
  6
CONTINUOUS
 62
    5
 10
583.08950500000014
 20
1793.055425
 11
425.18527500000016
 21
1793.055425
  0
LINE
  8
_0-1_レイヤ___1
  6
CONTINUOUS
 62
    5
 10
583.08950500000014
 20
1234.2557650000001
 11
425.18527500000016
 21
1234.2557650000001
  0
LINE
  8
_0-1_レイヤ___1
  6
CONTINUOUS
 62
    5
 10
435.13470500000011
 20
1796.8657006076389
 11
435.13470500000011
 21
1796.8657006076389
  0
LINE
  8
_0-1_レイヤ___1
  6
CONTINUOUS
 62
    5
 10
435.13470500000011
 20
1796.8657006076389
 11
434.50984915052089
 21
1796.8078139595161
  0
LINE
  8
_0-1_レイヤ___1
  6
CONTINUOUS
 62
    5
 10
434.50984915052089
 20
1796.8078139595161
 11
433.90397922983578
 21
1796.6359128716588
  0
LINE
  8
_0-1_レイヤ___1
  6
CONTINUOUS
 62
    5
 10
433.90397922983578
 20
1796.6359128716588
 11
433.33550428889987
 21
1796.3552204716354
  0
LINE
  8
_0-1_レイヤ___1
  6
CONTINUOUS
 62
    5
 10
433.33550428889987
 20
1796.3552204716354
 11
432.82169715113122
 21
1795.9742654559836
  0
LINE
  8
_0-1_レイヤ___1
  6
CONTINUOUS
 62
    5
 10
432.82169715113122
 20
1795.9742654559836
 11
432.37816958641196
 21
1795.5046229500811
  0
LINE
  8
_0-1_レイヤ___1
  6
CONTINUOUS
 62
    5
 10
432.37816958641196
 20
1795.5046229500811
 11
432.0183979553604
 21
1794.9605628038194
  0
LINE
  8
_0-1_レイヤ___1
  6
CONTINUOUS
 62
    5
 10
432.0183979553604
 20
1794.9605628038194
 11
431.75331373693274
 21
1794.3586160094349
  0
LINE
  8
_0-1_レイヤ___1
  6
CONTINUOUS
 62
    5
 10
431.75331373693274
 20
1794.3586160094349
 11
431.59097138096689
 21
1793.7170724156754
  0
LINE
  8
_0-1_レイヤ___1
  6
CONTINUOUS
 62
    5
 10
431.59097138096689
 20
1793.7170724156754
 11
431.53630357779957
 21
1793.055425
  0
LINE
  8
_0-1_レイヤ___1
  6
CONTINUOUS
 62
    5
 10
431.53630357779957
 20
1793.055425
 11
431.59097138096689
 21
1792.3937775843247
  0
LINE
  8
_0-1_レイヤ___1
  6
CONTINUOUS
 62
    5
 10
431.59097138096689
 20
1792.3937775843247
 11
431.75331373693274
 21
1791.7522339905652
  0
LINE
  8
_0-1_レイヤ___1
  6
CONTINUOUS
 62
    5
 10
431.75331373693274
 20
1791.7522339905652
 11
432.0183979553604
 21
1791.1502871961807
  0
LINE
  8
_0-1_レイヤ___1
  6
CONTINUOUS
 62
    5
 10
432.0183979553604
 20
1791.1502871961807
 11
432.37816958641196
 21
1790.606227049919
  0
LINE
  8
_0-1_レイヤ___1
  6
CONTINUOUS
 62
    5
 10
432.37816958641196
 20
1790.606227049919
 11
432.82169715113122
 21
1790.1365845440164
  0
LINE
  8
_0-1_レイヤ___1
  6
CONTINUOUS
 62
    5
 10
432.82169715113122
 20
1790.1365845440164
 11
433.33550428889987
 21
1789.7556295283646
  0
LINE
  8
_0-1_レイヤ___1
  6
CONTINUOUS
 62
    5
 10
433.33550428889987
 20
1789.7556295283646
 11
433.90397922983578
 21
1789.4749371283413
  0
LINE
  8
_0-1_レイヤ___1
  6
CONTINUOUS
 62
    5
 10
433.90397922983578
 20
1789.4749371283413
 11
434.50984915052089
 21
1789.3030360404839
  0
LINE
  8
_0-1_レイヤ___1
  6
CONTINUOUS
 62
    5
 10
434.50984915052089
 20
1789.3030360404839
 11
435.13470500000011
 21
1789.2451493923611
  0
LINE
  8
_0-1_レイヤ___1
  6
CONTINUOUS
 62
    5
 10
435.13470500000011
 20
1789.2451493923611
 11
435.75956084947933
 21
1789.3030360404839
  0
LINE
  8
_0-1_レイヤ___1
  6
CONTINUOUS
 62
    5
 10
435.75956084947933
 20
1789.3030360404839
 11
436.36543077016444
 21
1789.4749371283413
  0
LINE
  8
_0-1_レイヤ___1
  6
CONTINUOUS
 62
    5
 10
436.36543077016444
 20
1789.4749371283413
 11
436.93390571110035
 21
1789.7556295283646
  0
LINE
  8
_0-1_レイヤ___1
  6
CONTINUOUS
 62
    5
 10
436.93390571110035
 20
1789.7556295283646
 11
437.447712848869
 21
1790.1365845440164
  0
LINE
  8
_0-1_レイヤ___1
  6
CONTINUOUS
 62
    5
 10
437.447712848869
 20
1790.1365845440164
 11
437.89124041358826
 21
1790.606227049919
  0
LINE
  8
_0-1_レイヤ___1
  6
CONTINUOUS
 62
    5
 10
437.89124041358826
 20
1790.606227049919
 11
438.25101204463982
 21
1791.1502871961807
  0
LINE
  8
_0-1_レイヤ___1
  6
CONTINUOUS
 62
    5
 10
438.25101204463982
 20
1791.1502871961807
 11
438.51609626306742
 21
1791.7522339905649
  0
LINE
  8
_0-1_レイヤ___1
  6
CONTINUOUS
 62
    5
 10
438.51609626306742
 20
1791.7522339905649
 11
438.67843861903333
 21
1792.3937775843247
  0
LINE
  8
_0-1_レイヤ___1
  6
CONTINUOUS
 62
    5
 10
438.67843861903333
 20
1792.3937775843247
 11
438.73310642220065
 21
1793.055425
  0
LINE
  8
_0-1_レイヤ___1
  6
CONTINUOUS
 62
    5
 10
438.73310642220065
 20
1793.055425
 11
438.67843861903333
 21
1793.7170724156751
  0
LINE
  8
_0-1_レイヤ___1
  6
CONTINUOUS
 62
    5
 10
438.67843861903333
 20
1793.7170724156751
 11
438.51609626306748
 21
1794.3586160094349
  0
LINE
  8
_0-1_レイヤ___1
  6
CONTINUOUS
 62
    5
 10
438.51609626306748
 20
1794.3586160094349
 11
438.25101204463982
 21
1794.9605628038194
  0
LINE
  8
_0-1_レイヤ___1
  6
CONTINUOUS
 62
    5
 10
438.25101204463982
 20
1794.9605628038194
 11
437.89124041358826
 21
1795.5046229500811
  0
LINE
  8
_0-1_レイヤ___1
  6
CONTINUOUS
 62
    5
 10
437.89124041358826
 20
1795.5046229500811
 11
437.44771284886906
 21
1795.9742654559836
  0
LINE
  8
_0-1_レイヤ___1
  6
CONTINUOUS
 62
    5
 10
437.44771284886906
 20
1795.9742654559836
 11
436.93390571110041
 21
1796.3552204716354
  0
LINE
  8
_0-1_レイヤ___1
  6
CONTINUOUS
 62
    5
 10
436.93390571110041
 20
1796.3552204716354
 11
436.36543077016444
 21
1796.6359128716588
  0
LINE
  8
_0-1_レイヤ___1
  6
CONTINUOUS
 62
    5
 10
436.36543077016444
 20
1796.6359128716588
 11
435.75956084947933
 21
1796.8078139595161
  0
LINE
  8
_0-1_レイヤ___1
  6
CONTINUOUS
 62
    5
 10
435.75956084947933
 20
1796.8078139595161
 11
435.13470500000011
 21
1796.8657006076389
  0
LINE
  8
_0-1_レイヤ___1
  6
CONTINUOUS
 62
    5
 10
435.13470500000011
 20
1796.8657006076389
 11
435.13470500000011
 21
1796.8657006076389
  0
LINE
  8
_0-1_レイヤ___1
  6
CONTINUOUS
 62
    5
 10
435.13470500000011
 20
1238.066040607639
 11
435.13470500000011
 21
1238.066040607639
  0
LINE
  8
_0-1_レイヤ___1
  6
CONTINUOUS
 62
    5
 10
435.13470500000011
 20
1238.066040607639
 11
434.50984915052089
 21
1238.0081539595162
  0
LINE
  8
_0-1_レイヤ___1
  6
CONTINUOUS
 62
    5
 10
434.50984915052089
 20
1238.0081539595162
 11
433.90397922983578
 21
1237.8362528716589
  0
LINE
  8
_0-1_レイヤ___1
  6
CONTINUOUS
 62
    5
 10
433.90397922983578
 20
1237.8362528716589
 11
433.33550428889987
 21
1237.5555604716355
  0
LINE
  8
_0-1_レイヤ___1
  6
CONTINUOUS
 62
    5
 10
433.33550428889987
 20
1237.5555604716355
 11
432.82169715113122
 21
1237.1746054559837
  0
LINE
  8
_0-1_レイヤ___1
  6
CONTINUOUS
 62
    5
 10
432.82169715113122
 20
1237.1746054559837
 11
432.37816958641196
 21
1236.7049629500812
  0
LINE
  8
_0-1_レイヤ___1
  6
CONTINUOUS
 62
    5
 10
432.37816958641196
 20
1236.7049629500812
 11
432.0183979553604
 21
1236.1609028038195
  0
LINE
  8
_0-1_レイヤ___1
  6
CONTINUOUS
 62
    5
 10
432.0183979553604
 20
1236.1609028038195
 11
431.75331373693274
 21
1235.558956009435
  0
LINE
  8
_0-1_レイヤ___1
  6
CONTINUOUS
 62
    5
 10
431.75331373693274
 20
1235.558956009435
 11
431.59097138096689
 21
1234.9174124156755
  0
LINE
  8
_0-1_レイヤ___1
  6
CONTINUOUS
 62
    5
 10
431.59097138096689
 20
1234.9174124156755
 11
431.53630357779957
 21
1234.2557650000001
  0
LINE
  8
_0-1_レイヤ___1
  6
CONTINUOUS
 62
    5
 10
431.53630357779957
 20
1234.2557650000001
 11
431.59097138096689
 21
1233.5941175843247
  0
LINE
  8
_0-1_レイヤ___1
  6
CONTINUOUS
 62
    5
 10
431.59097138096689
 20
1233.5941175843247
 11
431.75331373693274
 21
1232.9525739905653
  0
LINE
  8
_0-1_レイヤ___1
  6
CONTINUOUS
 62
    5
 10
431.75331373693274
 20
1232.9525739905653
 11
432.0183979553604
 21
1232.3506271961808
  0
LINE
  8
_0-1_レイヤ___1
  6
CONTINUOUS
 62
    5
 10
432.0183979553604
 20
1232.3506271961808
 11
432.37816958641196
 21
1231.8065670499191
  0
LINE
  8
_0-1_レイヤ___1
  6
CONTINUOUS
 62
    5
 10
432.37816958641196
 20
1231.8065670499191
 11
432.82169715113122
 21
1231.3369245440165
  0
LINE
  8
_0-1_レイヤ___1
  6
CONTINUOUS
 62
    5
 10
432.82169715113122
 20
1231.3369245440165
 11
433.33550428889987
 21
1230.9559695283647
  0
LINE
  8
_0-1_レイヤ___1
  6
CONTINUOUS
 62
    5
 10
433.33550428889987
 20
1230.9559695283647
 11
433.90397922983578
 21
1230.6752771283413
  0
LINE
  8
_0-1_レイヤ___1
  6
CONTINUOUS
 62
    5
 10
433.90397922983578
 20
1230.6752771283413
 11
434.50984915052089
 21
1230.503376040484
  0
LINE
  8
_0-1_レイヤ___1
  6
CONTINUOUS
 62
    5
 10
434.50984915052089
 20
1230.503376040484
 11
435.13470500000011
 21
1230.4454893923612
  0
LINE
  8
_0-1_レイヤ___1
  6
CONTINUOUS
 62
    5
 10
435.13470500000011
 20
1230.4454893923612
 11
435.75956084947933
 21
1230.503376040484
  0
LINE
  8
_0-1_レイヤ___1
  6
CONTINUOUS
 62
    5
 10
435.75956084947933
 20
1230.503376040484
 11
436.36543077016444
 21
1230.6752771283413
  0
LINE
  8
_0-1_レイヤ___1
  6
CONTINUOUS
 62
    5
 10
436.36543077016444
 20
1230.6752771283413
 11
436.93390571110035
 21
1230.9559695283647
  0
LINE
  8
_0-1_レイヤ___1
  6
CONTINUOUS
 62
    5
 10
436.93390571110035
 20
1230.9559695283647
 11
437.447712848869
 21
1231.3369245440165
  0
LINE
  8
_0-1_レイヤ___1
  6
CONTINUOUS
 62
    5
 10
437.447712848869
 20
1231.3369245440165
 11
437.89124041358826
 21
1231.8065670499191
  0
LINE
  8
_0-1_レイヤ___1
  6
CONTINUOUS
 62
    5
 10
437.89124041358826
 20
1231.8065670499191
 11
438.25101204463982
 21
1232.3506271961808
  0
LINE
  8
_0-1_レイヤ___1
  6
CONTINUOUS
 62
    5
 10
438.25101204463982
 20
1232.3506271961808
 11
438.51609626306742
 21
1232.952573990565
  0
LINE
  8
_0-1_レイヤ___1
  6
CONTINUOUS
 62
    5
 10
438.51609626306742
 20
1232.952573990565
 11
438.67843861903333
 21
1233.5941175843247
  0
LINE
  8
_0-1_レイヤ___1
  6
CONTINUOUS
 62
    5
 10
438.67843861903333
 20
1233.5941175843247
 11
438.73310642220065
 21
1234.2557650000001
  0
LINE
  8
_0-1_レイヤ___1
  6
CONTINUOUS
 62
    5
 10
438.73310642220065
 20
1234.2557650000001
 11
438.67843861903333
 21
1234.9174124156752
  0
LINE
  8
_0-1_レイヤ___1
  6
CONTINUOUS
 62
    5
 10
438.67843861903333
 20
1234.9174124156752
 11
438.51609626306748
 21
1235.558956009435
  0
LINE
  8
_0-1_レイヤ___1
  6
CONTINUOUS
 62
    5
 10
438.51609626306748
 20
1235.558956009435
 11
438.25101204463982
 21
1236.1609028038195
  0
LINE
  8
_0-1_レイヤ___1
  6
CONTINUOUS
 62
    5
 10
438.25101204463982
 20
1236.1609028038195
 11
437.89124041358826
 21
1236.7049629500812
  0
LINE
  8
_0-1_レイヤ___1
  6
CONTINUOUS
 62
    5
 10
437.89124041358826
 20
1236.7049629500812
 11
437.44771284886906
 21
1237.1746054559837
  0
LINE
  8
_0-1_レイヤ___1
  6
CONTINUOUS
 62
    5
 10
437.44771284886906
 20
1237.1746054559837
 11
436.93390571110041
 21
1237.5555604716355
  0
LINE
  8
_0-1_レイヤ___1
  6
CONTINUOUS
 62
    5
 10
436.93390571110041
 20
1237.5555604716355
 11
436.36543077016444
 21
1237.8362528716589
  0
LINE
  8
_0-1_レイヤ___1
  6
CONTINUOUS
 62
    5
 10
436.36543077016444
 20
1237.8362528716589
 11
435.75956084947933
 21
1238.0081539595162
  0
LINE
  8
_0-1_レイヤ___1
  6
CONTINUOUS
 62
    5
 10
435.75956084947933
 20
1238.0081539595162
 11
435.13470500000011
 21
1238.066040607639
  0
LINE
  8
_0-1_レイヤ___1
  6
CONTINUOUS
 62
    5
 10
435.13470500000011
 20
1238.066040607639
 11
435.13470500000011
 21
1238.066040607639
  0
LINE
  8
_0-1_レイヤ___1
  6
CONTINUOUS
 62
    5
 10
435.34486500000014
 20
1793.055425
 11
435.34486500000014
 21
1234.2557650000001
  0
LINE
  8
_0-1_レイヤ___1
  6
CONTINUOUS
 62
    5
 10
602.98492500000009
 20
1214.3586150000001
 11
602.98492500000009
 21
1054.3373750000001
  0
LINE
  8
_0-1_レイヤ___1
  6
CONTINUOUS
 62
    5
 10
1389.9618750000002
 20
1214.3586150000001
 11
1389.9618750000002
 21
1054.3373750000001
  0
CIRCLE
  8
_0-1_レイヤ___1
  6
CONTINUOUS
 62
    5
 10
602.98579500000017
 20
1064.076665
 40
3.8094099999999997
  0
CIRCLE
  8
_0-1_レイヤ___1
  6
CONTINUOUS
 62
    5
 10
1389.9618750000002
 20
1064.076665
 40
3.8102799999999997
  0
LINE
  8
_0-1_レイヤ___1
  6
CONTINUOUS
 62
    5
 10
602.98492500000009
 20
1064.076665
 11
1389.9618750000002
 21
1064.076665
  0
LINE
  8
_0-1_レイヤ___1
  6
CONTINUOUS
 62
    5
 10
1338.7384650000001
 20
1279.975625
 11
1338.7384650000001
 21
1115.2983450000002
  0
LINE
  8
_0-1_レイヤ___1
  6
CONTINUOUS
 62
    5
 10
653.78630500000008
 20
1284.2096449999999
 11
653.78630500000008
 21
1115.2983450000002
  0
LINE
  8
_0-1_レイヤ___1
  6
CONTINUOUS
 62
    5
 10
1338.9503450000002
 20
1128.8461806076389
 11
1338.9503450000002
 21
1128.8461806076389
  0
LINE
  8
_0-1_レイヤ___1
  6
CONTINUOUS
 62
    5
 10
1338.9503450000002
 20
1128.8461806076389
 11
1338.325489150521
 21
1128.7882939595161
  0
LINE
  8
_0-1_レイヤ___1
  6
CONTINUOUS
 62
    5
 10
1338.325489150521
 20
1128.7882939595161
 11
1337.7196192298359
 21
1128.6163928716587
  0
LINE
  8
_0-1_レイヤ___1
  6
CONTINUOUS
 62
    5
 10
1337.7196192298359
 20
1128.6163928716587
 11
1337.1511442889
 21
1128.3357004716354
  0
LINE
  8
_0-1_レイヤ___1
  6
CONTINUOUS
 62
    5
 10
1337.1511442889
 20
1128.3357004716354
 11
1336.6373371511313
 21
1127.9547454559836
  0
LINE
  8
_0-1_レイヤ___1
  6
CONTINUOUS
 62
    5
 10
1336.6373371511313
 20
1127.9547454559836
 11
1336.193809586412
 21
1127.485102950081
  0
LINE
  8
_0-1_レイヤ___1
  6
CONTINUOUS
 62
    5
 10
1336.193809586412
 20
1127.485102950081
 11
1335.8340379553606
 21
1126.9410428038193
  0
LINE
  8
_0-1_レイヤ___1
  6
CONTINUOUS
 62
    5
 10
1335.8340379553606
 20
1126.9410428038193
 11
1335.5689537369328
 21
1126.3390960094348
  0
LINE
  8
_0-1_レイヤ___1
  6
CONTINUOUS
 62
    5
 10
1335.5689537369328
 20
1126.3390960094348
 11
1335.406611380967
 21
1125.6975524156753
  0
LINE
  8
_0-1_レイヤ___1
  6
CONTINUOUS
 62
    5
 10
1335.406611380967
 20
1125.6975524156753
 11
1335.3519435777996
 21
1125.035905
  0
LINE
  8
_0-1_レイヤ___1
  6
CONTINUOUS
 62
    5
 10
1335.3519435777996
 20
1125.035905
 11
1335.406611380967
 21
1124.3742575843246
  0
LINE
  8
_0-1_レイヤ___1
  6
CONTINUOUS
 62
    5
 10
1335.406611380967
 20
1124.3742575843246
 11
1335.5689537369328
 21
1123.7327139905651
  0
LINE
  8
_0-1_レイヤ___1
  6
CONTINUOUS
 62
    5
 10
1335.5689537369328
 20
1123.7327139905651
 11
1335.8340379553606
 21
1123.1307671961806
  0
LINE
  8
_0-1_レイヤ___1
  6
CONTINUOUS
 62
    5
 10
1335.8340379553606
 20
1123.1307671961806
 11
1336.193809586412
 21
1122.5867070499189
  0
LINE
  8
_0-1_レイヤ___1
  6
CONTINUOUS
 62
    5
 10
1336.193809586412
 20
1122.5867070499189
 11
1336.6373371511313
 21
1122.1170645440163
  0
LINE
  8
_0-1_レイヤ___1
  6
CONTINUOUS
 62
    5
 10
1336.6373371511313
 20
1122.1170645440163
 11
1337.1511442889
 21
1121.7361095283645
  0
LINE
  8
_0-1_レイヤ___1
  6
CONTINUOUS
 62
    5
 10
1337.1511442889
 20
1121.7361095283645
 11
1337.7196192298359
 21
1121.4554171283412
  0
LINE
  8
_0-1_レイヤ___1
  6
CONTINUOUS
 62
    5
 10
1337.7196192298359
 20
1121.4554171283412
 11
1338.325489150521
 21
1121.2835160404838
  0
LINE
  8
_0-1_レイヤ___1
  6
CONTINUOUS
 62
    5
 10
1338.325489150521
 20
1121.2835160404838
 11
1338.9503450000002
 21
1121.225629392361
  0
LINE
  8
_0-1_レイヤ___1
  6
CONTINUOUS
 62
    5
 10
1338.9503450000002
 20
1121.225629392361
 11
1339.5752008494794
 21
1121.2835160404838
  0
LINE
  8
_0-1_レイヤ___1
  6
CONTINUOUS
 62
    5
 10
1339.5752008494794
 20
1121.2835160404838
 11
1340.1810707701645
 21
1121.4554171283412
  0
LINE
  8
_0-1_レイヤ___1
  6
CONTINUOUS
 62
    5
 10
1340.1810707701645
 20
1121.4554171283412
 11
1340.7495457111004
 21
1121.7361095283645
  0
LINE
  8
_0-1_レイヤ___1
  6
CONTINUOUS
 62
    5
 10
1340.7495457111004
 20
1121.7361095283645
 11
1341.2633528488691
 21
1122.1170645440163
  0
LINE
  8
_0-1_レイヤ___1
  6
CONTINUOUS
 62
    5
 10
1341.2633528488691
 20
1122.1170645440163
 11
1341.7068804135884
 21
1122.5867070499189
  0
LINE
  8
_0-1_レイヤ___1
  6
CONTINUOUS
 62
    5
 10
1341.7068804135884
 20
1122.5867070499189
 11
1342.0666520446398
 21
1123.1307671961806
  0
LINE
  8
_0-1_レイヤ___1
  6
CONTINUOUS
 62
    5
 10
1342.0666520446398
 20
1123.1307671961806
 11
1342.3317362630676
 21
1123.7327139905649
  0
LINE
  8
_0-1_レイヤ___1
  6
CONTINUOUS
 62
    5
 10
1342.3317362630676
 20
1123.7327139905649
 11
1342.4940786190334
 21
1124.3742575843246
  0
LINE
  8
_0-1_レイヤ___1
  6
CONTINUOUS
 62
    5
 10
1342.4940786190334
 20
1124.3742575843246
 11
1342.5487464222008
 21
1125.035905
  0
LINE
  8
_0-1_レイヤ___1
  6
CONTINUOUS
 62
    5
 10
1342.5487464222008
 20
1125.035905
 11
1342.4940786190334
 21
1125.6975524156751
  0
LINE
  8
_0-1_レイヤ___1
  6
CONTINUOUS
 62
    5
 10
1342.4940786190334
 20
1125.6975524156751
 11
1342.3317362630676
 21
1126.3390960094348
  0
LINE
  8
_0-1_レイヤ___1
  6
CONTINUOUS
 62
    5
 10
1342.3317362630676
 20
1126.3390960094348
 11
1342.0666520446398
 21
1126.9410428038193
  0
LINE
  8
_0-1_レイヤ___1
  6
CONTINUOUS
 62
    5
 10
1342.0666520446398
 20
1126.9410428038193
 11
1341.7068804135884
 21
1127.485102950081
  0
LINE
  8
_0-1_レイヤ___1
  6
CONTINUOUS
 62
    5
 10
1341.7068804135884
 20
1127.485102950081
 11
1341.2633528488691
 21
1127.9547454559836
  0
LINE
  8
_0-1_レイヤ___1
  6
CONTINUOUS
 62
    5
 10
1341.2633528488691
 20
1127.9547454559836
 11
1340.7495457111004
 21
1128.3357004716354
  0
LINE
  8
_0-1_レイヤ___1
  6
CONTINUOUS
 62
    5
 10
1340.7495457111004
 20
1128.3357004716354
 11
1340.1810707701645
 21
1128.6163928716587
  0
LINE
  8
_0-1_レイヤ___1
  6
CONTINUOUS
 62
    5
 10
1340.1810707701645
 20
1128.6163928716587
 11
1339.5752008494794
 21
1128.7882939595161
  0
LINE
  8
_0-1_レイヤ___1
  6
CONTINUOUS
 62
    5
 10
1339.5752008494794
 20
1128.7882939595161
 11
1338.9503450000002
 21
1128.8461806076389
  0
LINE
  8
_0-1_レイヤ___1
  6
CONTINUOUS
 62
    5
 10
1338.9503450000002
 20
1128.8461806076389
 11
1338.9503450000002
 21
1128.8461806076389
  0
CIRCLE
  8
_0-1_レイヤ___1
  6
CONTINUOUS
 62
    5
 10
653.78544500000021
 20
1125.035905
 40
3.8094099999999997
  0
LINE
  8
_0-1_レイヤ___1
  6
CONTINUOUS
 62
    5
 10
1338.7384650000001
 20
1125.035905
 11
653.78630500000008
 21
1125.035905
  0
LINE
  8
_0-1_レイヤ___1
  6
CONTINUOUS
 62
    5
 10
583.08950500000014
 20
734.29834499999993
 11
425.18527500000016
 21
734.29834499999993
  0
LINE
  8
_0-1_レイヤ___1
  6
CONTINUOUS
 62
    5
 10
583.08950500000014
 20
515.01112499999999
 11
425.18527500000016
 21
515.01112499999999
  0
LINE
  8
_0-1_レイヤ___1
  6
CONTINUOUS
 62
    5
 10
435.13470500000011
 20
738.10862060763884
 11
435.13470500000011
 21
738.10862060763884
  0
LINE
  8
_0-1_レイヤ___1
  6
CONTINUOUS
 62
    5
 10
435.13470500000011
 20
738.10862060763884
 11
434.50984915052089
 21
738.05073395951604
  0
LINE
  8
_0-1_レイヤ___1
  6
CONTINUOUS
 62
    5
 10
434.50984915052089
 20
738.05073395951604
 11
433.90397922983578
 21
737.87883287165869
  0
LINE
  8
_0-1_レイヤ___1
  6
CONTINUOUS
 62
    5
 10
433.90397922983578
 20
737.87883287165869
 11
433.33550428889987
 21
737.59814047163536
  0
LINE
  8
_0-1_レイヤ___1
  6
CONTINUOUS
 62
    5
 10
433.33550428889987
 20
737.59814047163536
 11
432.82169715113122
 21
737.21718545598344
  0
LINE
  8
_0-1_レイヤ___1
  6
CONTINUOUS
 62
    5
 10
432.82169715113122
 20
737.21718545598344
 11
432.37816958641196
 21
736.74754295008108
  0
LINE
  8
_0-1_レイヤ___1
  6
CONTINUOUS
 62
    5
 10
432.37816958641196
 20
736.74754295008108
 11
432.0183979553604
 21
736.20348280381938
  0
LINE
  8
_0-1_レイヤ___1
  6
CONTINUOUS
 62
    5
 10
432.0183979553604
 20
736.20348280381938
 11
431.75331373693274
 21
735.60153600943488
  0
LINE
  8
_0-1_レイヤ___1
  6
CONTINUOUS
 62
    5
 10
431.75331373693274
 20
735.60153600943488
 11
431.59097138096689
 21
734.95999241567517
  0
LINE
  8
_0-1_レイヤ___1
  6
CONTINUOUS
 62
    5
 10
431.59097138096689
 20
734.95999241567517
 11
431.53630357779957
 21
734.29834499999993
  0
LINE
  8
_0-1_レイヤ___1
  6
CONTINUOUS
 62
    5
 10
431.53630357779957
 20
734.29834499999993
 11
431.59097138096689
 21
733.63669758432468
  0
LINE
  8
_0-1_レイヤ___1
  6
CONTINUOUS
 62
    5
 10
431.59097138096689
 20
733.63669758432468
 11
431.75331373693274
 21
732.99515399056497
  0
LINE
  8
_0-1_レイヤ___1
  6
CONTINUOUS
 62
    5
 10
431.75331373693274
 20
732.99515399056497
 11
432.0183979553604
 21
732.39320719618047
  0
LINE
  8
_0-1_レイヤ___1
  6
CONTINUOUS
 62
    5
 10
432.0183979553604
 20
732.39320719618047
 11
432.37816958641196
 21
731.84914704991877
  0
LINE
  8
_0-1_レイヤ___1
  6
CONTINUOUS
 62
    5
 10
432.37816958641196
 20
731.84914704991877
 11
432.82169715113122
 21
731.37950454401641
  0
LINE
  8
_0-1_レイヤ___1
  6
CONTINUOUS
 62
    5
 10
432.82169715113122
 20
731.37950454401641
 11
433.33550428889987
 21
730.99854952836449
  0
LINE
  8
_0-1_レイヤ___1
  6
CONTINUOUS
 62
    5
 10
433.33550428889987
 20
730.99854952836449
 11
433.90397922983578
 21
730.71785712834117
  0
LINE
  8
_0-1_レイヤ___1
  6
CONTINUOUS
 62
    5
 10
433.90397922983578
 20
730.71785712834117
 11
434.50984915052089
 21
730.54595604048382
  0
LINE
  8
_0-1_レイヤ___1
  6
CONTINUOUS
 62
    5
 10
434.50984915052089
 20
730.54595604048382
 11
435.13470500000011
 21
730.48806939236101
  0
LINE
  8
_0-1_レイヤ___1
  6
CONTINUOUS
 62
    5
 10
435.13470500000011
 20
730.48806939236101
 11
435.75956084947933
 21
730.54595604048382
  0
LINE
  8
_0-1_レイヤ___1
  6
CONTINUOUS
 62
    5
 10
435.75956084947933
 20
730.54595604048382
 11
436.36543077016444
 21
730.71785712834117
  0
LINE
  8
_0-1_レイヤ___1
  6
CONTINUOUS
 62
    5
 10
436.36543077016444
 20
730.71785712834117
 11
436.93390571110035
 21
730.99854952836449
  0
LINE
  8
_0-1_レイヤ___1
  6
CONTINUOUS
 62
    5
 10
436.93390571110035
 20
730.99854952836449
 11
437.447712848869
 21
731.37950454401641
  0
LINE
  8
_0-1_レイヤ___1
  6
CONTINUOUS
 62
    5
 10
437.447712848869
 20
731.37950454401641
 11
437.89124041358826
 21
731.84914704991877
  0
LINE
  8
_0-1_レイヤ___1
  6
CONTINUOUS
 62
    5
 10
437.89124041358826
 20
731.84914704991877
 11
438.25101204463982
 21
732.39320719618047
  0
LINE
  8
_0-1_レイヤ___1
  6
CONTINUOUS
 62
    5
 10
438.25101204463982
 20
732.39320719618047
 11
438.51609626306742
 21
732.99515399056497
  0
LINE
  8
_0-1_レイヤ___1
  6
CONTINUOUS
 62
    5
 10
438.51609626306742
 20
732.99515399056497
 11
438.67843861903333
 21
733.63669758432468
  0
LINE
  8
_0-1_レイヤ___1
  6
CONTINUOUS
 62
    5
 10
438.67843861903333
 20
733.63669758432468
 11
438.73310642220065
 21
734.29834499999993
  0
LINE
  8
_0-1_レイヤ___1
  6
CONTINUOUS
 62
    5
 10
438.73310642220065
 20
734.29834499999993
 11
438.67843861903333
 21
734.95999241567517
  0
LINE
  8
_0-1_レイヤ___1
  6
CONTINUOUS
 62
    5
 10
438.67843861903333
 20
734.95999241567517
 11
438.51609626306748
 21
735.60153600943488
  0
LINE
  8
_0-1_レイヤ___1
  6
CONTINUOUS
 62
    5
 10
438.51609626306748
 20
735.60153600943488
 11
438.25101204463982
 21
736.20348280381938
  0
LINE
  8
_0-1_レイヤ___1
  6
CONTINUOUS
 62
    5
 10
438.25101204463982
 20
736.20348280381938
 11
437.89124041358826
 21
736.74754295008108
  0
LINE
  8
_0-1_レイヤ___1
  6
CONTINUOUS
 62
    5
 10
437.89124041358826
 20
736.74754295008108
 11
437.44771284886906
 21
737.21718545598344
  0
LINE
  8
_0-1_レイヤ___1
  6
CONTINUOUS
 62
    5
 10
437.44771284886906
 20
737.21718545598344
 11
436.93390571110041
 21
737.59814047163536
  0
LINE
  8
_0-1_レイヤ___1
  6
CONTINUOUS
 62
    5
 10
436.93390571110041
 20
737.59814047163536
 11
436.36543077016444
 21
737.87883287165869
  0
LINE
  8
_0-1_レイヤ___1
  6
CONTINUOUS
 62
    5
 10
436.36543077016444
 20
737.87883287165869
 11
435.75956084947933
 21
738.05073395951604
  0
LINE
  8
_0-1_レイヤ___1
  6
CONTINUOUS
 62
    5
 10
435.75956084947933
 20
738.05073395951604
 11
435.13470500000011
 21
738.10862060763884
  0
LINE
  8
_0-1_レイヤ___1
  6
CONTINUOUS
 62
    5
 10
435.13470500000011
 20
738.10862060763884
 11
435.13470500000011
 21
738.10862060763884
  0
LINE
  8
_0-1_レイヤ___1
  6
CONTINUOUS
 62
    5
 10
435.13470500000011
 20
518.82140060763891
 11
435.13470500000011
 21
518.82140060763891
  0
LINE
  8
_0-1_レイヤ___1
  6
CONTINUOUS
 62
    5
 10
435.13470500000011
 20
518.82140060763891
 11
434.50984915052089
 21
518.7635139595161
  0
LINE
  8
_0-1_レイヤ___1
  6
CONTINUOUS
 62
    5
 10
434.50984915052089
 20
518.7635139595161
 11
433.90397922983578
 21
518.59161287165875
  0
LINE
  8
_0-1_レイヤ___1
  6
CONTINUOUS
 62
    5
 10
433.90397922983578
 20
518.59161287165875
 11
433.33550428889987
 21
518.31092047163543
  0
LINE
  8
_0-1_レイヤ___1
  6
CONTINUOUS
 62
    5
 10
433.33550428889987
 20
518.31092047163543
 11
432.82169715113122
 21
517.92996545598351
  0
LINE
  8
_0-1_レイヤ___1
  6
CONTINUOUS
 62
    5
 10
432.82169715113122
 20
517.92996545598351
 11
432.37816958641196
 21
517.46032295008115
  0
LINE
  8
_0-1_レイヤ___1
  6
CONTINUOUS
 62
    5
 10
432.37816958641196
 20
517.46032295008115
 11
432.0183979553604
 21
516.91626280381945
  0
LINE
  8
_0-1_レイヤ___1
  6
CONTINUOUS
 62
    5
 10
432.0183979553604
 20
516.91626280381945
 11
431.75331373693274
 21
516.31431600943495
  0
LINE
  8
_0-1_レイヤ___1
  6
CONTINUOUS
 62
    5
 10
431.75331373693274
 20
516.31431600943495
 11
431.59097138096689
 21
515.67277241567524
  0
LINE
  8
_0-1_レイヤ___1
  6
CONTINUOUS
 62
    5
 10
431.59097138096689
 20
515.67277241567524
 11
431.53630357779957
 21
515.01112499999999
  0
LINE
  8
_0-1_レイヤ___1
  6
CONTINUOUS
 62
    5
 10
431.53630357779957
 20
515.01112499999999
 11
431.59097138096689
 21
514.34947758432475
  0
LINE
  8
_0-1_レイヤ___1
  6
CONTINUOUS
 62
    5
 10
431.59097138096689
 20
514.34947758432475
 11
431.75331373693274
 21
513.70793399056504
  0
LINE
  8
_0-1_レイヤ___1
  6
CONTINUOUS
 62
    5
 10
431.75331373693274
 20
513.70793399056504
 11
432.0183979553604
 21
513.10598719618054
  0
LINE
  8
_0-1_レイヤ___1
  6
CONTINUOUS
 62
    5
 10
432.0183979553604
 20
513.10598719618054
 11
432.37816958641196
 21
512.56192704991884
  0
LINE
  8
_0-1_レイヤ___1
  6
CONTINUOUS
 62
    5
 10
432.37816958641196
 20
512.56192704991884
 11
432.82169715113122
 21
512.09228454401648
  0
LINE
  8
_0-1_レイヤ___1
  6
CONTINUOUS
 62
    5
 10
432.82169715113122
 20
512.09228454401648
 11
433.33550428889987
 21
511.7113295283645
  0
LINE
  8
_0-1_レイヤ___1
  6
CONTINUOUS
 62
    5
 10
433.33550428889987
 20
511.7113295283645
 11
433.90397922983578
 21
511.43063712834117
  0
LINE
  8
_0-1_レイヤ___1
  6
CONTINUOUS
 62
    5
 10
433.90397922983578
 20
511.43063712834117
 11
434.50984915052089
 21
511.25873604048394
  0
LINE
  8
_0-1_レイヤ___1
  6
CONTINUOUS
 62
    5
 10
434.50984915052089
 20
511.25873604048394
 11
435.13470500000011
 21
511.20084939236108
  0
LINE
  8
_0-1_レイヤ___1
  6
CONTINUOUS
 62
    5
 10
435.13470500000011
 20
511.20084939236108
 11
435.75956084947933
 21
511.25873604048394
  0
LINE
  8
_0-1_レイヤ___1
  6
CONTINUOUS
 62
    5
 10
435.75956084947933
 20
511.25873604048394
 11
436.36543077016444
 21
511.43063712834117
  0
LINE
  8
_0-1_レイヤ___1
  6
CONTINUOUS
 62
    5
 10
436.36543077016444
 20
511.43063712834117
 11
436.93390571110035
 21
511.7113295283645
  0
LINE
  8
_0-1_レイヤ___1
  6
CONTINUOUS
 62
    5
 10
436.93390571110035
 20
511.7113295283645
 11
437.447712848869
 21
512.09228454401648
  0
LINE
  8
_0-1_レイヤ___1
  6
CONTINUOUS
 62
    5
 10
437.447712848869
 20
512.09228454401648
 11
437.89124041358826
 21
512.56192704991884
  0
LINE
  8
_0-1_レイヤ___1
  6
CONTINUOUS
 62
    5
 10
437.89124041358826
 20
512.56192704991884
 11
438.25101204463982
 21
513.10598719618054
  0
LINE
  8
_0-1_レイヤ___1
  6
CONTINUOUS
 62
    5
 10
438.25101204463982
 20
513.10598719618054
 11
438.51609626306742
 21
513.70793399056504
  0
LINE
  8
_0-1_レイヤ___1
  6
CONTINUOUS
 62
    5
 10
438.51609626306742
 20
513.70793399056504
 11
438.67843861903333
 21
514.34947758432475
  0
LINE
  8
_0-1_レイヤ___1
  6
CONTINUOUS
 62
    5
 10
438.67843861903333
 20
514.34947758432475
 11
438.73310642220065
 21
515.01112499999999
  0
LINE
  8
_0-1_レイヤ___1
  6
CONTINUOUS
 62
    5
 10
438.73310642220065
 20
515.01112499999999
 11
438.67843861903333
 21
515.67277241567524
  0
LINE
  8
_0-1_レイヤ___1
  6
CONTINUOUS
 62
    5
 10
438.67843861903333
 20
515.67277241567524
 11
438.51609626306748
 21
516.31431600943495
  0
LINE
  8
_0-1_レイヤ___1
  6
CONTINUOUS
 62
    5
 10
438.51609626306748
 20
516.31431600943495
 11
438.25101204463982
 21
516.91626280381945
  0
LINE
  8
_0-1_レイヤ___1
  6
CONTINUOUS
 62
    5
 10
438.25101204463982
 20
516.91626280381945
 11
437.89124041358826
 21
517.46032295008115
  0
LINE
  8
_0-1_レイヤ___1
  6
CONTINUOUS
 62
    5
 10
437.89124041358826
 20
517.46032295008115
 11
437.44771284886906
 21
517.92996545598351
  0
LINE
  8
_0-1_レイヤ___1
  6
CONTINUOUS
 62
    5
 10
437.44771284886906
 20
517.92996545598351
 11
436.93390571110041
 21
518.31092047163543
  0
LINE
  8
_0-1_レイヤ___1
  6
CONTINUOUS
 62
    5
 10
436.93390571110041
 20
518.31092047163543
 11
436.36543077016444
 21
518.59161287165875
  0
LINE
  8
_0-1_レイヤ___1
  6
CONTINUOUS
 62
    5
 10
436.36543077016444
 20
518.59161287165875
 11
435.75956084947933
 21
518.7635139595161
  0
LINE
  8
_0-1_レイヤ___1
  6
CONTINUOUS
 62
    5
 10
435.75956084947933
 20
518.7635139595161
 11
435.13470500000011
 21
518.82140060763891
  0
LINE
  8
_0-1_レイヤ___1
  6
CONTINUOUS
 62
    5
 10
435.13470500000011
 20
518.82140060763891
 11
435.13470500000011
 21
518.82140060763891
  0
LINE
  8
_0-1_レイヤ___1
  6
CONTINUOUS
 62
    5
 10
435.34486500000014
 20
734.29834499999993
 11
435.34486500000014
 21
515.01112499999999
  0
LINE
  8
_0-1_レイヤ___1
  6
CONTINUOUS
 62
    5
 10
583.08950500000014
 20
734.29834499999993
 11
527.20833500000015
 21
734.29834499999993
  0
LINE
  8
_0-1_レイヤ___1
  6
CONTINUOUS
 62
    5
 10
583.08950500000014
 20
720.32847500000003
 11
527.20833500000015
 21
720.32847500000003
  0
LINE
  8
_0-1_レイヤ___1
  6
CONTINUOUS
 62
    5
 10
537.15776500000015
 20
738.10862060763884
 11
537.15776500000015
 21
738.10862060763884
  0
LINE
  8
_0-1_レイヤ___1
  6
CONTINUOUS
 62
    5
 10
537.15776500000015
 20
738.10862060763884
 11
536.53290915052094
 21
738.05073395951604
  0
LINE
  8
_0-1_レイヤ___1
  6
CONTINUOUS
 62
    5
 10
536.53290915052094
 20
738.05073395951604
 11
535.92703922983583
 21
737.87883287165869
  0
LINE
  8
_0-1_レイヤ___1
  6
CONTINUOUS
 62
    5
 10
535.92703922983583
 20
737.87883287165869
 11
535.35856428889986
 21
737.59814047163536
  0
LINE
  8
_0-1_レイヤ___1
  6
CONTINUOUS
 62
    5
 10
535.35856428889986
 20
737.59814047163536
 11
534.84475715113126
 21
737.21718545598344
  0
LINE
  8
_0-1_レイヤ___1
  6
CONTINUOUS
 62
    5
 10
534.84475715113126
 20
737.21718545598344
 11
534.401229586412
 21
736.74754295008108
  0
LINE
  8
_0-1_レイヤ___1
  6
CONTINUOUS
 62
    5
 10
534.401229586412
 20
736.74754295008108
 11
534.04145795536044
 21
736.20348280381938
  0
LINE
  8
_0-1_レイヤ___1
  6
CONTINUOUS
 62
    5
 10
534.04145795536044
 20
736.20348280381938
 11
533.77637373693278
 21
735.60153600943488
  0
LINE
  8
_0-1_レイヤ___1
  6
CONTINUOUS
 62
    5
 10
533.77637373693278
 20
735.60153600943488
 11
533.61403138096694
 21
734.95999241567517
  0
LINE
  8
_0-1_レイヤ___1
  6
CONTINUOUS
 62
    5
 10
533.61403138096694
 20
734.95999241567517
 11
533.55936357779967
 21
734.29834499999993
  0
LINE
  8
_0-1_レイヤ___1
  6
CONTINUOUS
 62
    5
 10
533.55936357779967
 20
734.29834499999993
 11
533.61403138096694
 21
733.63669758432468
  0
LINE
  8
_0-1_レイヤ___1
  6
CONTINUOUS
 62
    5
 10
533.61403138096694
 20
733.63669758432468
 11
533.77637373693278
 21
732.99515399056497
  0
LINE
  8
_0-1_レイヤ___1
  6
CONTINUOUS
 62
    5
 10
533.77637373693278
 20
732.99515399056497
 11
534.04145795536044
 21
732.39320719618047
  0
LINE
  8
_0-1_レイヤ___1
  6
CONTINUOUS
 62
    5
 10
534.04145795536044
 20
732.39320719618047
 11
534.401229586412
 21
731.84914704991877
  0
LINE
  8
_0-1_レイヤ___1
  6
CONTINUOUS
 62
    5
 10
534.401229586412
 20
731.84914704991877
 11
534.84475715113126
 21
731.37950454401641
  0
LINE
  8
_0-1_レイヤ___1
  6
CONTINUOUS
 62
    5
 10
534.84475715113126
 20
731.37950454401641
 11
535.35856428889986
 21
730.99854952836449
  0
LINE
  8
_0-1_レイヤ___1
  6
CONTINUOUS
 62
    5
 10
535.35856428889986
 20
730.99854952836449
 11
535.92703922983583
 21
730.71785712834117
  0
LINE
  8
_0-1_レイヤ___1
  6
CONTINUOUS
 62
    5
 10
535.92703922983583
 20
730.71785712834117
 11
536.53290915052094
 21
730.54595604048382
  0
LINE
  8
_0-1_レイヤ___1
  6
CONTINUOUS
 62
    5
 10
536.53290915052094
 20
730.54595604048382
 11
537.15776500000015
 21
730.48806939236101
  0
LINE
  8
_0-1_レイヤ___1
  6
CONTINUOUS
 62
    5
 10
537.15776500000015
 20
730.48806939236101
 11
537.78262084947937
 21
730.54595604048382
  0
LINE
  8
_0-1_レイヤ___1
  6
CONTINUOUS
 62
    5
 10
537.78262084947937
 20
730.54595604048382
 11
538.38849077016448
 21
730.71785712834117
  0
LINE
  8
_0-1_レイヤ___1
  6
CONTINUOUS
 62
    5
 10
538.38849077016448
 20
730.71785712834117
 11
538.95696571110045
 21
730.99854952836449
  0
LINE
  8
_0-1_レイヤ___1
  6
CONTINUOUS
 62
    5
 10
538.95696571110045
 20
730.99854952836449
 11
539.47077284886905
 21
731.37950454401641
  0
LINE
  8
_0-1_レイヤ___1
  6
CONTINUOUS
 62
    5
 10
539.47077284886905
 20
731.37950454401641
 11
539.91430041358831
 21
731.84914704991877
  0
LINE
  8
_0-1_レイヤ___1
  6
CONTINUOUS
 62
    5
 10
539.91430041358831
 20
731.84914704991877
 11
540.27407204463987
 21
732.39320719618047
  0
LINE
  8
_0-1_レイヤ___1
  6
CONTINUOUS
 62
    5
 10
540.27407204463987
 20
732.39320719618047
 11
540.53915626306753
 21
732.99515399056497
  0
LINE
  8
_0-1_レイヤ___1
  6
CONTINUOUS
 62
    5
 10
540.53915626306753
 20
732.99515399056497
 11
540.70149861903337
 21
733.63669758432468
  0
LINE
  8
_0-1_レイヤ___1
  6
CONTINUOUS
 62
    5
 10
540.70149861903337
 20
733.63669758432468
 11
540.75616642220064
 21
734.29834499999993
  0
LINE
  8
_0-1_レイヤ___1
  6
CONTINUOUS
 62
    5
 10
540.75616642220064
 20
734.29834499999993
 11
540.70149861903337
 21
734.95999241567517
  0
LINE
  8
_0-1_レイヤ___1
  6
CONTINUOUS
 62
    5
 10
540.70149861903337
 20
734.95999241567517
 11
540.53915626306753
 21
735.60153600943488
  0
LINE
  8
_0-1_レイヤ___1
  6
CONTINUOUS
 62
    5
 10
540.53915626306753
 20
735.60153600943488
 11
540.27407204463987
 21
736.20348280381938
  0
LINE
  8
_0-1_レイヤ___1
  6
CONTINUOUS
 62
    5
 10
540.27407204463987
 20
736.20348280381938
 11
539.91430041358831
 21
736.74754295008108
  0
LINE
  8
_0-1_レイヤ___1
  6
CONTINUOUS
 62
    5
 10
539.91430041358831
 20
736.74754295008108
 11
539.47077284886905
 21
737.21718545598344
  0
LINE
  8
_0-1_レイヤ___1
  6
CONTINUOUS
 62
    5
 10
539.47077284886905
 20
737.21718545598344
 11
538.95696571110045
 21
737.59814047163536
  0
LINE
  8
_0-1_レイヤ___1
  6
CONTINUOUS
 62
    5
 10
538.95696571110045
 20
737.59814047163536
 11
538.38849077016448
 21
737.87883287165869
  0
LINE
  8
_0-1_レイヤ___1
  6
CONTINUOUS
 62
    5
 10
538.38849077016448
 20
737.87883287165869
 11
537.78262084947937
 21
738.05073395951604
  0
LINE
  8
_0-1_レイヤ___1
  6
CONTINUOUS
 62
    5
 10
537.78262084947937
 20
738.05073395951604
 11
537.15776500000015
 21
738.10862060763884
  0
LINE
  8
_0-1_レイヤ___1
  6
CONTINUOUS
 62
    5
 10
537.15776500000015
 20
738.10862060763884
 11
537.15776500000015
 21
738.10862060763884
  0
CIRCLE
  8
_0-1_レイヤ___1
  6
CONTINUOUS
 62
    5
 10
537.15776500000015
 20
720.11832499999991
 40
3.5983999999999998
  0
LINE
  8
_0-1_レイヤ___1
  6
CONTINUOUS
 62
    5
 10
536.94589500000006
 20
734.29834499999993
 11
536.94589500000006
 21
720.32847500000003
  0
LINE
  8
_0-1_レイヤ___1
  6
CONTINUOUS
 62
    5
 10
1338.7384650000001
 20
1271.0855550000001
 11
1338.7384650000001
 21
1115.2983450000002
  0
LINE
  8
_0-1_レイヤ___1
  6
CONTINUOUS
 62
    5
 10
1389.9618750000002
 20
1214.3586150000001
 11
1389.9618750000002
 21
1115.2983450000002
  0
LINE
  8
_0-1_レイヤ___1
  6
CONTINUOUS
 62
    5
 10
1338.9503450000002
 20
1128.8461806076389
 11
1338.9503450000002
 21
1128.8461806076389
  0
LINE
  8
_0-1_レイヤ___1
  6
CONTINUOUS
 62
    5
 10
1338.9503450000002
 20
1128.8461806076389
 11
1338.325489150521
 21
1128.7882939595161
  0
LINE
  8
_0-1_レイヤ___1
  6
CONTINUOUS
 62
    5
 10
1338.325489150521
 20
1128.7882939595161
 11
1337.7196192298359
 21
1128.6163928716587
  0
LINE
  8
_0-1_レイヤ___1
  6
CONTINUOUS
 62
    5
 10
1337.7196192298359
 20
1128.6163928716587
 11
1337.1511442889
 21
1128.3357004716354
  0
LINE
  8
_0-1_レイヤ___1
  6
CONTINUOUS
 62
    5
 10
1337.1511442889
 20
1128.3357004716354
 11
1336.6373371511313
 21
1127.9547454559836
  0
LINE
  8
_0-1_レイヤ___1
  6
CONTINUOUS
 62
    5
 10
1336.6373371511313
 20
1127.9547454559836
 11
1336.193809586412
 21
1127.485102950081
  0
LINE
  8
_0-1_レイヤ___1
  6
CONTINUOUS
 62
    5
 10
1336.193809586412
 20
1127.485102950081
 11
1335.8340379553606
 21
1126.9410428038193
  0
LINE
  8
_0-1_レイヤ___1
  6
CONTINUOUS
 62
    5
 10
1335.8340379553606
 20
1126.9410428038193
 11
1335.5689537369328
 21
1126.3390960094348
  0
LINE
  8
_0-1_レイヤ___1
  6
CONTINUOUS
 62
    5
 10
1335.5689537369328
 20
1126.3390960094348
 11
1335.406611380967
 21
1125.6975524156753
  0
LINE
  8
_0-1_レイヤ___1
  6
CONTINUOUS
 62
    5
 10
1335.406611380967
 20
1125.6975524156753
 11
1335.3519435777996
 21
1125.035905
  0
LINE
  8
_0-1_レイヤ___1
  6
CONTINUOUS
 62
    5
 10
1335.3519435777996
 20
1125.035905
 11
1335.406611380967
 21
1124.3742575843246
  0
LINE
  8
_0-1_レイヤ___1
  6
CONTINUOUS
 62
    5
 10
1335.406611380967
 20
1124.3742575843246
 11
1335.5689537369328
 21
1123.7327139905651
  0
LINE
  8
_0-1_レイヤ___1
  6
CONTINUOUS
 62
    5
 10
1335.5689537369328
 20
1123.7327139905651
 11
1335.8340379553606
 21
1123.1307671961806
  0
LINE
  8
_0-1_レイヤ___1
  6
CONTINUOUS
 62
    5
 10
1335.8340379553606
 20
1123.1307671961806
 11
1336.193809586412
 21
1122.5867070499189
  0
LINE
  8
_0-1_レイヤ___1
  6
CONTINUOUS
 62
    5
 10
1336.193809586412
 20
1122.5867070499189
 11
1336.6373371511313
 21
1122.1170645440163
  0
LINE
  8
_0-1_レイヤ___1
  6
CONTINUOUS
 62
    5
 10
1336.6373371511313
 20
1122.1170645440163
 11
1337.1511442889
 21
1121.7361095283645
  0
LINE
  8
_0-1_レイヤ___1
  6
CONTINUOUS
 62
    5
 10
1337.1511442889
 20
1121.7361095283645
 11
1337.7196192298359
 21
1121.4554171283412
  0
LINE
  8
_0-1_レイヤ___1
  6
CONTINUOUS
 62
    5
 10
1337.7196192298359
 20
1121.4554171283412
 11
1338.325489150521
 21
1121.2835160404838
  0
LINE
  8
_0-1_レイヤ___1
  6
CONTINUOUS
 62
    5
 10
1338.325489150521
 20
1121.2835160404838
 11
1338.9503450000002
 21
1121.225629392361
  0
LINE
  8
_0-1_レイヤ___1
  6
CONTINUOUS
 62
    5
 10
1338.9503450000002
 20
1121.225629392361
 11
1339.5752008494794
 21
1121.2835160404838
  0
LINE
  8
_0-1_レイヤ___1
  6
CONTINUOUS
 62
    5
 10
1339.5752008494794
 20
1121.2835160404838
 11
1340.1810707701645
 21
1121.4554171283412
  0
LINE
  8
_0-1_レイヤ___1
  6
CONTINUOUS
 62
    5
 10
1340.1810707701645
 20
1121.4554171283412
 11
1340.7495457111004
 21
1121.7361095283645
  0
LINE
  8
_0-1_レイヤ___1
  6
CONTINUOUS
 62
    5
 10
1340.7495457111004
 20
1121.7361095283645
 11
1341.2633528488691
 21
1122.1170645440163
  0
LINE
  8
_0-1_レイヤ___1
  6
CONTINUOUS
 62
    5
 10
1341.2633528488691
 20
1122.1170645440163
 11
1341.7068804135884
 21
1122.5867070499189
  0
LINE
  8
_0-1_レイヤ___1
  6
CONTINUOUS
 62
    5
 10
1341.7068804135884
 20
1122.5867070499189
 11
1342.0666520446398
 21
1123.1307671961806
  0
LINE
  8
_0-1_レイヤ___1
  6
CONTINUOUS
 62
    5
 10
1342.0666520446398
 20
1123.1307671961806
 11
1342.3317362630676
 21
1123.7327139905649
  0
LINE
  8
_0-1_レイヤ___1
  6
CONTINUOUS
 62
    5
 10
1342.3317362630676
 20
1123.7327139905649
 11
1342.4940786190334
 21
1124.3742575843246
  0
LINE
  8
_0-1_レイヤ___1
  6
CONTINUOUS
 62
    5
 10
1342.4940786190334
 20
1124.3742575843246
 11
1342.5487464222008
 21
1125.035905
  0
LINE
  8
_0-1_レイヤ___1
  6
CONTINUOUS
 62
    5
 10
1342.5487464222008
 20
1125.035905
 11
1342.4940786190334
 21
1125.6975524156751
  0
LINE
  8
_0-1_レイヤ___1
  6
CONTINUOUS
 62
    5
 10
1342.4940786190334
 20
1125.6975524156751
 11
1342.3317362630676
 21
1126.3390960094348
  0
LINE
  8
_0-1_レイヤ___1
  6
CONTINUOUS
 62
    5
 10
1342.3317362630676
 20
1126.3390960094348
 11
1342.0666520446398
 21
1126.9410428038193
  0
LINE
  8
_0-1_レイヤ___1
  6
CONTINUOUS
 62
    5
 10
1342.0666520446398
 20
1126.9410428038193
 11
1341.7068804135884
 21
1127.485102950081
  0
LINE
  8
_0-1_レイヤ___1
  6
CONTINUOUS
 62
    5
 10
1341.7068804135884
 20
1127.485102950081
 11
1341.2633528488691
 21
1127.9547454559836
  0
LINE
  8
_0-1_レイヤ___1
  6
CONTINUOUS
 62
    5
 10
1341.2633528488691
 20
1127.9547454559836
 11
1340.7495457111004
 21
1128.3357004716354
  0
LINE
  8
_0-1_レイヤ___1
  6
CONTINUOUS
 62
    5
 10
1340.7495457111004
 20
1128.3357004716354
 11
1340.1810707701645
 21
1128.6163928716587
  0
LINE
  8
_0-1_レイヤ___1
  6
CONTINUOUS
 62
    5
 10
1340.1810707701645
 20
1128.6163928716587
 11
1339.5752008494794
 21
1128.7882939595161
  0
LINE
  8
_0-1_レイヤ___1
  6
CONTINUOUS
 62
    5
 10
1339.5752008494794
 20
1128.7882939595161
 11
1338.9503450000002
 21
1128.8461806076389
  0
LINE
  8
_0-1_レイヤ___1
  6
CONTINUOUS
 62
    5
 10
1338.9503450000002
 20
1128.8461806076389
 11
1338.9503450000002
 21
1128.8461806076389
  0
CIRCLE
  8
_0-1_レイヤ___1
  6
CONTINUOUS
 62
    5
 10
1389.9618750000002
 20
1125.035905
 40
3.8102799999999997
  0
LINE
  8
_0-1_レイヤ___1
  6
CONTINUOUS
 62
    5
 10
1338.7384650000001
 20
1125.035905
 11
1389.9618750000002
 21
1125.035905
  0
LINE
  8
_0-1_レイヤ___1
  6
CONTINUOUS
 62
    5
 10
655.90159500000016
 20
1666.055425
 11
511.12145500000025
 21
1666.055425
  0
LINE
  8
_0-1_レイヤ___1
  6
CONTINUOUS
 62
    5
 10
583.08950500000014
 20
1793.055425
 11
511.12145500000025
 21
1793.055425
  0
CIRCLE
  8
_0-1_レイヤ___1
  6
CONTINUOUS
 62
    5
 10
521.28276500000015
 20
1666.055425
 40
3.8102799999999997
  0
CIRCLE
  8
_0-1_レイヤ___1
  6
CONTINUOUS
 62
    5
 10
521.28276500000015
 20
1793.055425
 40
3.8102799999999997
  0
LINE
  8
_0-1_レイヤ___1
  6
CONTINUOUS
 62
    5
 10
521.28276500000015
 20
1666.055425
 11
521.28276500000015
 21
1793.055425
  0
LINE
  8
_0-1_レイヤ___1
  6
CONTINUOUS
 62
    5
 10
653.78630500000008
 20
1271.0855550000001
 11
653.78630500000008
 21
1115.2983450000002
  0
LINE
  8
_0-1_レイヤ___1
  6
CONTINUOUS
 62
    5
 10
602.98492500000009
 20
1214.3586150000001
 11
602.98492500000009
 21
1115.2983450000002
  0
CIRCLE
  8
_0-1_レイヤ___1
  6
CONTINUOUS
 62
    5
 10
653.78544500000021
 20
1125.035905
 40
3.8094099999999997
  0
CIRCLE
  8
_0-1_レイヤ___1
  6
CONTINUOUS
 62
    5
 10
602.98579500000017
 20
1125.035905
 40
3.8094099999999997
  0
LINE
  8
_0-1_レイヤ___1
  6
CONTINUOUS
 62
    5
 10
653.78630500000008
 20
1125.035905
 11
602.98492500000009
 21
1125.035905
  0
LINE
  8
_0-1_レイヤ___1
  6
CONTINUOUS
 62
    5
 10
1098.7083350000003
 20
1475.1316750000001
 11
1525.006165
 21
1475.1316750000001
  0
LINE
  8
_0-1_レイヤ___1
  6
CONTINUOUS
 62
    5
 10
1409.8590250000002
 20
1793.055425
 11
1525.006165
 21
1793.055425
  0
CIRCLE
  8
_0-1_レイヤ___1
  6
CONTINUOUS
 62
    5
 10
1515.2686050000002
 20
1475.1316750000001
 40
3.8102799999999997
  0
CIRCLE
  8
_0-1_レイヤ___1
  6
CONTINUOUS
 62
    5
 10
1515.2686050000002
 20
1793.055425
 40
3.8102799999999997
  0
LINE
  8
_0-1_レイヤ___1
  6
CONTINUOUS
 62
    5
 10
1515.2686050000002
 20
1475.1316750000001
 11
1515.2686050000002
 21
1793.055425
  0
LINE
  8
_0-1_レイヤ___1
  6
CONTINUOUS
 62
    5
 10
655.90159500000016
 20
1666.055425
 11
511.12145500000025
 21
1666.055425
  0
LINE
  8
_0-1_レイヤ___1
  6
CONTINUOUS
 62
    5
 10
654.20833500000015
 20
1282.0926350000002
 11
511.12145500000025
 21
1282.0926350000002
  0
CIRCLE
  8
_0-1_レイヤ___1
  6
CONTINUOUS
 62
    5
 10
521.28276500000015
 20
1666.055425
 40
3.8102799999999997
  0
CIRCLE
  8
_0-1_レイヤ___1
  6
CONTINUOUS
 62
    5
 10
521.28276500000015
 20
1282.0926350000002
 40
3.8102799999999997
  0
LINE
  8
_0-1_レイヤ___1
  6
CONTINUOUS
 62
    5
 10
521.28276500000015
 20
1666.055425
 11
521.28276500000015
 21
1282.0926350000002
  0
LINE
  8
_0-1_レイヤ___1
  6
CONTINUOUS
 62
    5
 10
583.08950500000014
 20
1234.2557650000001
 11
511.12145500000025
 21
1234.2557650000001
  0
LINE
  8
_0-1_レイヤ___1
  6
CONTINUOUS
 62
    5
 10
655.90159500000016
 20
1282.0926350000002
 11
511.12145500000025
 21
1282.0926350000002
  0
CIRCLE
  8
_0-1_レイヤ___1
  6
CONTINUOUS
 62
    5
 10
521.28276500000015
 20
1234.2557650000001
 40
3.8102799999999997
  0
CIRCLE
  8
_0-1_レイヤ___1
  6
CONTINUOUS
 62
    5
 10
521.28276500000015
 20
1282.0926350000002
 40
3.8102799999999997
  0
LINE
  8
_0-1_レイヤ___1
  6
CONTINUOUS
 62
    5
 10
521.28276500000015
 20
1234.2557650000001
 11
521.28276500000015
 21
1282.0926350000002
  0
LINE
  8
_0-1_レイヤ___1
  6
CONTINUOUS
 62
    5
 10
1019.5452050000001
 20
1435.3390949999998
 11
1048.3324250000001
 21
1384.9614650000001
  0
LINE
  8
_0-1_レイヤ___1
  6
CONTINUOUS
 62
    5
 10
1048.3324250000001
 20
1384.9614650000001
 11
1167.2881250000003
 21
1384.9614650000001
  0
CIRCLE
  8
_0-1_レイヤ___1
  6
CONTINUOUS
 62
    5
 10
973.40245500000015
 20
1514.9259750000001
 40
3.8094099999999997
  0
CIRCLE
  8
_0-1_レイヤ___1
  6
CONTINUOUS
 62
    5
 10
1019.5452050000001
 20
1435.3390949999998
 40
3.8102799999999997
  0
LINE
  8
_0-1_レイヤ___1
  6
CONTINUOUS
 62
    5
 10
973.40159500000016
 20
1514.9259750000001
 11
1019.5452050000001
 21
1435.3390949999998
  0
LINE
  8
_0-1_レイヤ___1
  6
CONTINUOUS
 62
    5
 10
841.74554500000011
 20
1731.248685
 11
753.26860500000009
 21
1731.248685
  0
LINE
  8
_0-1_レイヤ___1
  6
CONTINUOUS
 62
    5
 10
787.55936500000018
 20
1793.055425
 11
753.26860500000009
 21
1793.055425
  0
CIRCLE
  8
_0-1_レイヤ___1
  6
CONTINUOUS
 62
    5
 10
763.00616500000024
 20
1731.248685
 40
3.8102799999999997
  0
CIRCLE
  8
_0-1_レイヤ___1
  6
CONTINUOUS
 62
    5
 10
763.00616500000024
 20
1793.055425
 40
3.8102799999999997
  0
LINE
  8
_0-1_レイヤ___1
  6
CONTINUOUS
 62
    5
 10
763.00616500000024
 20
1731.248685
 11
763.00616500000024
 21
1793.055425
  0
LINE
  8
_0-7_
  6
CONTINUOUS
 62
    7
 10
582.73622683697056
 20
1793.1572796023977
 11
424.98492503725299
 21
1793.1572796023977
  0
LINE
  8
_0-7_
  6
CONTINUOUS
 62
    7
 10
582.73622683697056
 20
1234.1572796023977
 11
424.98492503725299
 21
1234.1572796023977
  0
LINE
  8
_0-7_
  6
CONTINUOUS
 62
    7
 10
434.98492500000009
 20
1793.1572796023977
 11
434.98492500000009
 21
1234.1572796023977
  0
CIRCLE
  8
_0-7_
  6
CONTINUOUS
 62
    7
 10
434.98492500000009
 20
1793.1572796023977
 40
3.751708984375
  0
CIRCLE
  8
_0-7_
  6
CONTINUOUS
 62
    7
 10
434.98492500000009
 20
1234.1572796023977
 40
3.751708984375
  0
TEXT
  8
_0-7_
 62
    7
 10
423.07048057418217
 20
1476.615612935731
 40
38.006293402777779
 41
1
 50
90
  1
559
  0
POINT
  8
_0-7_
 62
    7
 10
434.98492500000009
 20
1793.1572796023977
  0
LINE
  8
_0-7_
  6
CONTINUOUS
 62
    7
 10
602.73622676246475
 20
1214.1572796769035
 11
602.73622676246475
 21
1054.1572796396506
  0
LINE
  8
_0-7_
  6
CONTINUOUS
 62
    7
 10
1389.7362267624646
 20
1214.1572796769035
 11
1389.7362267624646
 21
1054.1572796396506
  0
LINE
  8
_0-7_
  6
CONTINUOUS
 62
    7
 10
602.73622676246475
 20
1064.1572796023977
 11
1389.7362267624646
 21
1064.1572796023977
  0
CIRCLE
  8
_0-7_
  6
CONTINUOUS
 62
    7
 10
602.73622676246475
 20
1064.1572796023977
 40
3.751708984375
  0
CIRCLE
  8
_0-7_
  6
CONTINUOUS
 62
    7
 10
1389.7362267624646
 20
1064.1572796023977
 40
3.751708984375
  0
TEXT
  8
_0-7_
 62
    7
 10
959.19456009579812
 20
1076.0717240282158
 40
38.006293402777779
 41
1
 50
0
  1
787
  0
POINT
  8
_0-7_
 62
    7
 10
602.73622676246475
 20
1064.1572796023977
  0
LINE
  8
_0-7_
  6
CONTINUOUS
 62
    7
 10
1338.7362267624646
 20
1280.1572796769037
 11
1338.7362267624646
 21
1115.1572796396506
  0
LINE
  8
_0-7_
  6
CONTINUOUS
 62
    7
 10
653.73622676246464
 20
1284.1572797514095
 11
653.73622676246464
 21
1115.1572796396506
  0
LINE
  8
_0-7_
  6
CONTINUOUS
 62
    7
 10
1338.7362267624646
 20
1125.1572796023977
 11
653.73622676246464
 21
1125.1572796023977
  0
CIRCLE
  8
_0-7_
  6
CONTINUOUS
 62
    7
 10
1338.7362267624646
 20
1125.1572796023977
 40
3.751708984375
  0
CIRCLE
  8
_0-7_
  6
CONTINUOUS
 62
    7
 10
653.73622676246464
 20
1125.1572796023977
 40
3.751708984375
  0
TEXT
  8
_0-7_
 62
    7
 10
959.19456009579812
 20
1137.0717240282158
 40
38.006293402777779
 41
1
 50
0
  1
685
  0
POINT
  8
_0-7_
 62
    7
 10
1338.7362267624646
 20
1125.1572796023977
  0
LINE
  8
_0-7_
  6
CONTINUOUS
 62
    7
 10
582.73622683697056
 20
734.15727960239781
 11
424.98492503725299
 21
734.15727960239781
  0
LINE
  8
_0-7_
  6
CONTINUOUS
 62
    7
 10
582.73622683697056
 20
515.15727960239781
 11
424.98492503725299
 21
515.15727960239781
  0
LINE
  8
_0-7_
  6
CONTINUOUS
 62
    7
 10
434.98492500000009
 20
734.15727960239781
 11
434.98492500000009
 21
515.15727960239781
  0
CIRCLE
  8
_0-7_
  6
CONTINUOUS
 62
    7
 10
434.98492500000009
 20
734.15727960239781
 40
3.751708984375
  0
CIRCLE
  8
_0-7_
  6
CONTINUOUS
 62
    7
 10
434.98492500000009
 20
515.15727960239781
 40
3.751708984375
  0
TEXT
  8
_0-7_
 62
    7
 10
423.07048057418217
 20
587.61561293573106
 40
38.006293402777779
 41
1
 50
90
  1
219
  0
POINT
  8
_0-7_
 62
    7
 10
434.98492500000009
 20
734.15727960239781
  0
LINE
  8
_0-7_
  6
CONTINUOUS
 62
    7
 10
582.73622683697056
 20
734.15727960239781
 11
526.98492503725288
 21
734.15727960239781
  0
LINE
  8
_0-7_
  6
CONTINUOUS
 62
    7
 10
582.73622683697056
 20
720.15727960239792
 11
526.98492503725288
 21
720.15727960239792
  0
LINE
  8
_0-7_
  6
CONTINUOUS
 62
    7
 10
536.98492499999998
 20
734.15727960239781
 11
536.98492499999998
 21
720.15727960239792
  0
CIRCLE
  8
_0-7_
  6
CONTINUOUS
 62
    7
 10
536.98492499999998
 20
734.15727960239781
 40
3.751708984375
  0
CIRCLE
  8
_0-7_
  6
CONTINUOUS
 62
    7
 10
536.98492499999998
 20
720.15727960239792
 40
3.751708984375
  0
TEXT
  8
_0-7_
 62
    7
 10
525.07048057418217
 20
702.46283515795335
 40
38.006293402777779
 41
1
 50
90
  1
14
  0
POINT
  8
_0-7_
 62
    7
 10
536.98492499999998
 20
734.15727960239781
  0
LINE
  8
_0-7_
  6
CONTINUOUS
 62
    7
 10
2549.7362267624649
 20
754.157279527892
 11
2549.7362267624649
 21
869.1572795651449
  0
LINE
  8
_0-7_
  6
CONTINUOUS
 62
    7
 10
1338.7362267624646
 20
1271.1572796769037
 11
1338.7362267624646
 21
1115.1572796396506
  0
LINE
  8
_0-7_
  6
CONTINUOUS
 62
    7
 10
1389.7362267624646
 20
1214.1572796769035
 11
1389.7362267624646
 21
1115.1572796396506
  0
LINE
  8
_0-7_
  6
CONTINUOUS
 62
    7
 10
1338.7362267624646
 20
1125.1572796023977
 11
1389.7362267624646
 21
1125.1572796023977
  0
CIRCLE
  8
_0-7_
  6
CONTINUOUS
 62
    7
 10
1338.7362267624646
 20
1125.1572796023977
 40
3.751708984375
  0
CIRCLE
  8
_0-7_
  6
CONTINUOUS
 62
    7
 10
1389.7362267624646
 20
1125.1572796023977
 40
3.751708984375
  0
TEXT
  8
_0-7_
 62
    7
 10
1339.5417823180201
 20
1137.0717240282158
 40
38.006293402777779
 41
1
 50
0
  1
51
  0
POINT
  8
_0-7_
 62
    7
 10
1338.7362267624646
 20
1125.1572796023977
  0
LINE
  8
_0-7_
  6
CONTINUOUS
 62
    7
 10
655.73622691147636
 20
1666.1572796023979
 11
510.98492503725299
 21
1666.1572796023979
  0
LINE
  8
_0-7_
  6
CONTINUOUS
 62
    7
 10
582.73622683697056
 20
1793.1572796023977
 11
510.98492503725299
 21
1793.1572796023977
  0
LINE
  8
_0-7_
  6
CONTINUOUS
 62
    7
 10
520.98492500000009
 20
1666.1572796023979
 11
520.98492500000009
 21
1793.1572796023977
  0
CIRCLE
  8
_0-7_
  6
CONTINUOUS
 62
    7
 10
520.98492500000009
 20
1666.1572796023979
 40
3.751708984375
  0
CIRCLE
  8
_0-7_
  6
CONTINUOUS
 62
    7
 10
520.98492500000009
 20
1793.1572796023977
 40
3.751708984375
  0
TEXT
  8
_0-7_
 62
    7
 10
509.07048057418206
 20
1692.615612935731
 40
38.006293402777779
 41
1
 50
90
  1
127
  0
POINT
  8
_0-7_
 62
    7
 10
520.98492500000009
 20
1666.1572796023979
  0
LINE
  8
_0-7_
  6
CONTINUOUS
 62
    7
 10
653.73622676246464
 20
1271.1572796769037
 11
653.73622676246464
 21
1115.1572796396506
  0
LINE
  8
_0-7_
  6
CONTINUOUS
 62
    7
 10
602.73622676246475
 20
1214.1572796769035
 11
602.73622676246475
 21
1115.1572796396506
  0
LINE
  8
_0-7_
  6
CONTINUOUS
 62
    7
 10
653.73622676246464
 20
1125.1572796023977
 11
602.73622676246475
 21
1125.1572796023977
  0
CIRCLE
  8
_0-7_
  6
CONTINUOUS
 62
    7
 10
653.73622676246464
 20
1125.1572796023977
 40
3.751708984375
  0
CIRCLE
  8
_0-7_
  6
CONTINUOUS
 62
    7
 10
602.73622676246475
 20
1125.1572796023977
 40
3.751708984375
  0
TEXT
  8
_0-7_
 62
    7
 10
603.5417823180203
 20
1137.0717240282158
 40
38.006293402777779
 41
1
 50
0
  1
51
  0
POINT
  8
_0-7_
 62
    7
 10
653.73622676246464
 20
1125.1572796023977
  0
LINE
  8
_0-7_
  6
CONTINUOUS
 62
    7
 10
1098.7362266879588
 20
1475.1572796023979
 11
1524.9849249627471
 21
1475.1572796023979
  0
LINE
  8
_0-7_
  6
CONTINUOUS
 62
    7
 10
1409.7362266879588
 20
1793.1572796023977
 11
1524.9849249627471
 21
1793.1572796023977
  0
LINE
  8
_0-7_
  6
CONTINUOUS
 62
    7
 10
1514.984925
 20
1475.1572796023979
 11
1514.984925
 21
1793.1572796023977
  0
CIRCLE
  8
_0-7_
  6
CONTINUOUS
 62
    7
 10
1514.984925
 20
1475.1572796023979
 40
3.751708984375
  0
CIRCLE
  8
_0-7_
  6
CONTINUOUS
 62
    7
 10
1514.984925
 20
1793.1572796023977
 40
3.751708984375
  0
TEXT
  8
_0-7_
 62
    7
 10
1503.0704805741821
 20
1597.1156129357312
 40
38.006293402777779
 41
1
 50
90
  1
318
  0
POINT
  8
_0-7_
 62
    7
 10
1514.984925
 20
1475.1572796023979
  0
LINE
  8
_0-7_
  6
CONTINUOUS
 62
    7
 10
655.73622691147636
 20
1666.1572796023979
 11
510.98492503725299
 21
1666.1572796023979
  0
LINE
  8
_0-7_
  6
CONTINUOUS
 62
    7
 10
653.98492507450578
 20
1282.1572796023977
 11
510.98492503725299
 21
1282.1572796023977
  0
LINE
  8
_0-7_
  6
CONTINUOUS
 62
    7
 10
520.98492500000009
 20
1666.1572796023979
 11
520.98492500000009
 21
1282.1572796023977
  0
CIRCLE
  8
_0-7_
  6
CONTINUOUS
 62
    7
 10
520.98492500000009
 20
1666.1572796023979
 40
3.751708984375
  0
CIRCLE
  8
_0-7_
  6
CONTINUOUS
 62
    7
 10
520.98492500000009
 20
1282.1572796023977
 40
3.751708984375
  0
TEXT
  8
_0-7_
 62
    7
 10
509.07048057418206
 20
1437.1156129357312
 40
38.006293402777779
 41
1
 50
90
  1
384
  0
POINT
  8
_0-7_
 62
    7
 10
520.98492500000009
 20
1666.1572796023979
  0
LINE
  8
_0-7_
  6
CONTINUOUS
 62
    7
 10
582.73622683697056
 20
1234.1572796023977
 11
510.98492503725299
 21
1234.1572796023977
  0
LINE
  8
_0-7_
  6
CONTINUOUS
 62
    7
 10
655.73622691147636
 20
1282.1572796023977
 11
510.98492503725299
 21
1282.1572796023977
  0
LINE
  8
_0-7_
  6
CONTINUOUS
 62
    7
 10
520.98492500000009
 20
1234.1572796023977
 11
520.98492500000009
 21
1282.1572796023977
  0
CIRCLE
  8
_0-7_
  6
CONTINUOUS
 62
    7
 10
520.98492500000009
 20
1234.1572796023977
 40
3.751708984375
  0
CIRCLE
  8
_0-7_
  6
CONTINUOUS
 62
    7
 10
520.98492500000009
 20
1282.1572796023977
 40
3.751708984375
  0
TEXT
  8
_0-7_
 62
    7
 10
509.0704805741824
 20
1233.4628351579534
 40
38.006293402777779
 41
1
 50
90
  1
48
  0
POINT
  8
_0-7_
 62
    7
 10
520.98492500000009
 20
1234.1572796023977
  0
LINE
  8
_0-7_
  6
CONTINUOUS
 62
    7
 10
1019.2362267624651
 20
1435.320111028313
 11
1048.3844313899065
 21
1384.8339396641704
  0
LINE
  8
_0-7_
  6
CONTINUOUS
 62
    7
 10
1048.3844313899065
 20
1384.8339396641704
 11
1167.1622090931785
 21
1384.8339396641704
  0
LINE
  8
_0-7_
  6
CONTINUOUS
 62
    7
 10
973.2362267624643
 20
1514.9944481764826
 11
1019.2362267624651
 21
1435.320111028313
  0
CIRCLE
  8
_0-7_
  6
CONTINUOUS
 62
    7
 10
973.2362267624643
 20
1514.9944481764826
 40
3.751708984375
  0
CIRCLE
  8
_0-7_
  6
CONTINUOUS
 62
    7
 10
1019.2362267624651
 20
1435.320111028313
 40
3.751708984375
  0
TEXT
  8
_0-7_
 62
    7
 10
1068.3844313154007
 20
1396.7483840899881
 40
38.006293402777779
 41
1
 50
0
  1
φ92
  0
POINT
  8
_0-7_
 62
    7
 10
973.2362267624643
 20
1514.9944481764826
  0
POINT
  8
_0-7_
 62
    7
 10
1019.2362267624651
 20
1435.320111028313
  0
LINE
  8
_0-7_
  6
CONTINUOUS
 62
    7
 10
841.73622683697045
 20
1731.1572796023979
 11
752.98492503725299
 21
1731.1572796023979
  0
LINE
  8
_0-7_
  6
CONTINUOUS
 62
    7
 10
787.36187777408213
 20
1793.1572796023977
 11
752.98492503725299
 21
1793.1572796023977
  0
LINE
  8
_0-7_
  6
CONTINUOUS
 62
    7
 10
762.98492500000009
 20
1731.1572796023979
 11
762.98492500000009
 21
1793.1572796023977
  0
CIRCLE
  8
_0-7_
  6
CONTINUOUS
 62
    7
 10
762.98492500000009
 20
1731.1572796023979
 40
3.751708984375
  0
CIRCLE
  8
_0-7_
  6
CONTINUOUS
 62
    7
 10
762.98492500000009
 20
1793.1572796023977
 40
3.751708984375
  0
TEXT
  8
_0-7_
 62
    7
 10
751.07048057418206
 20
1737.4628351579531
 40
38.006293402777779
 41
1
 50
90
  1
62
  0
POINT
  8
_0-7_
 62
    7
 10
762.98492500000009
 20
1731.1572796023979
  0
LINE
  8
_f-0_
  6
CONTINUOUS
 62
    7
 10
145.92190945814195
 20
272.17690842700108
 11
2782.5613812702341
 21
272.17690842700108
  0
LINE
  8
_f-0_
  6
CONTINUOUS
 62
    7
 10
93.498778584810225
 20
2041.1430038495319
 11
2835.164073948858
 21
2041.1430038495319
  0
LINE
  8
_f-0_
  6
CONTINUOUS
 62
    7
 10
2835.164073948858
 20
2041.1430038495319
 11
2835.164073948858
 21
102.59178490525528
  0
LINE
  8
_f-0_
  6
CONTINUOUS
 62
    7
 10
2835.164073948858
 20
102.59178490525528
 11
93.498778584810225
 21
102.59178490525528
  0
LINE
  8
_f-0_
  6
CONTINUOUS
 62
    7
 10
93.498778584810225
 20
102.59178490525528
 11
93.498778584810225
 21
2041.1430038495319
  0
LINE
  8
_f-0_
  6
CONTINUOUS
 62
    7
 10
145.92190945814195
 20
154.63137802700089
 11
2782.5613812702341
 21
154.63137802700089
  0
LINE
  8
_f-0_
  6
CONTINUOUS
 62
    7
 10
145.92190945814195
 20
272.17690842700108
 11
145.92190945814195
 21
154.63137802700089
  0
LINE
  8
_f-0_
  6
CONTINUOUS
 62
    7
 10
1084.5597312581417
 20
272.17690842700108
 11
1084.5597312581417
 21
154.63137802700089
  0
LINE
  8
_f-0_
  6
CONTINUOUS
 62
    7
 10
1521.3244371581418
 20
272.17690842700108
 11
1521.3244371581418
 21
154.63137802700089
  0
LINE
  8
_f-0_
  6
CONTINUOUS
 62
    7
 10
1755.1479665581417
 20
272.17690842700108
 11
1755.1479665581417
 21
154.63137802700089
  0
LINE
  8
_f-0_
  6
CONTINUOUS
 62
    7
 10
2026.471495958142
 20
272.17690842700108
 11
2026.471495958142
 21
154.63137802700089
  0
LINE
  8
_f-0_
  6
CONTINUOUS
 62
    7
 10
2782.5613812581419
 20
272.17690842700108
 11
2782.5613812581419
 21
154.63137802700089
  0
TEXT
  8
_f-0_
 62
    7
 10
1568.5886917757796
 20
188.15385166346772
 40
34.616986052576095
 41
1.0000000000000095
 50
0
  1
S=1/10
  0
TEXT
  8
_f-0_
 62
    7
 10
1111.1467034703219
 20
216.01644236760961
 40
34.616986052576095
 41
1.0000000000000056
 50
0
  1
キッチンシンク
  0
TEXT
  8
_f-0_
 62
    7
 10
1118.9898407252256
 20
170.91840315192343
 40
34.616986052576095
 41
1.0000000000000056
 50
0
  1
K-5832
  0
TEXT
  8
_f-0_
 62
    7
 10
2045.705526999735
 20
224.34977570094276
 40
34.616986052576095
 41
1.000000000000008
 50
0
  1
KOHLER　ベーカーズフィールド
  0
TEXT
  8
_f-0_
 62
    7
 10
2174.7535403050106
 20
164.29057734204775
 40
34.616986052575953
 41
1.000000000000012
 50
0
  1
日鉄物産マテックス株式会社
  0
TEXT
  8
_f-0_
 62
    7
 10
1817.2741544507153
 20
193.95761883819773
 40
34.616986052576237
 41
1.0000000000000038
 50
0
  1
19/04/10
  0
LINE
  8
_0-1_レイヤ___1
  6
CONTINUOUS
 62
    5
 10
996.80878350047976
 20
1753.6848649999999
 11
991.3069635004797
 21
1773.582015
  0
LINE
  8
_0-1_レイヤ___1
  6
CONTINUOUS
 62
    5
 10
991.3069635004797
 20
1773.582015
 11
981.99315350047971
 21
1768.078475
  0
LINE
  8
_0-1_レイヤ___1
  6
CONTINUOUS
 62
    5
 10
981.99315350047971
 20
1768.078475
 11
996.80878350047976
 21
1753.6848649999999
  0
LINE
  8
_0-1_レイヤ___1
  6
CONTINUOUS
 62
    5
 10
923.14919350047967
 20
1881.1086150000001
 11
991.72899350047965
 21
1762.1529150000001
  0
LINE
  8
_0-7_
  6
CONTINUOUS
 62
    7
 10
922.87971780751377
 20
1881.1572796023981
 11
996.5356743520374
 21
1753.5814205871977
  0
SOLID
  8
_0-7_
  6
CONTINUOUS
 62
    7
 10
996.5356743520374
 20
1753.5814205871977
 11
981.89555181736841
 21
1768.2215431218672
 12
991.17701758983139
 22
1773.5801998840727
 13
991.17701758983139
 23
1773.5801998840727
  0
LINE
  8
_0-1_レイヤ___1
  6
CONTINUOUS
 62
    5
 10
788.5286435004798
 20
1881.1086150000001
 11
923.14919350047967
 21
1881.1086150000001
  0
TEXT
  8
_0-7_
 62
    7
 10
788.28177156398306
 20
1886.3078351579534
 40
38.006293402777779
 41
1
 50
0
  1
φ35
  0
LINE
  8
_0-7_
  6
CONTINUOUS
 62
    7
 10
788.28177156398397
 20
1881.1572796023981
 11
922.87971780751377
 21
1881.1572796023981
  0
TEXT
  8
_0-7_
 62
    7
 10
1131.5616510664624
 20
1891.8055499520335
 40
38.006293402777779
 41
1
 50
0
  1
【１ホール】
  0
LINE
  8
_0-1_レイヤ___1
  6
CONTINUOUS
 62
    7
 10
1809.0117922204918
 20
1061.7490924536337
 11
1809.0117922204918
 21
1212.8785424536338
  0
LINE
  8
_0-1_レイヤ___1
  6
CONTINUOUS
 62
    7
 10
1809.0117922204918
 20
1212.8785424536338
 11
1809.0117922204918
 21
1217.5345924536339
  0
LINE
  8
_0-1_レイヤ___1
  6
CONTINUOUS
 62
    7
 10
1809.0117922204918
 20
1217.5345924536339
 11
1809.8592822204921
 21
1222.1923624536339
  0
LINE
  8
_0-1_レイヤ___1
  6
CONTINUOUS
 62
    7
 10
1809.8592822204921
 20
1222.1923624536339
 11
1811.127082220492
 21
1226.8484124536337
  0
LINE
  8
_0-1_レイヤ___1
  6
CONTINUOUS
 62
    7
 10
1811.127082220492
 20
1226.8484124536337
 11
1812.8220622204917
 21
1231.5044524536338
  0
LINE
  8
_0-1_レイヤ___1
  6
CONTINUOUS
 62
    7
 10
1812.8220622204917
 20
1231.5044524536338
 11
1814.5136022204917
 21
1235.7384724536337
  0
LINE
  8
_0-1_レイヤ___1
  6
CONTINUOUS
 62
    7
 10
1814.5136022204917
 20
1235.7384724536337
 11
1817.0526422204921
 21
1239.9725024536338
  0
LINE
  8
_0-1_レイヤ___1
  6
CONTINUOUS
 62
    7
 10
1817.0526422204921
 20
1239.9725024536338
 11
1820.0188722204916
 21
1243.7810524536337
  0
LINE
  8
_0-1_レイヤ___1
  6
CONTINUOUS
 62
    7
 10
1820.0188722204916
 20
1243.7810524536337
 11
1823.4054022204919
 21
1247.5913324536339
  0
LINE
  8
_0-1_レイヤ___1
  6
CONTINUOUS
 62
    7
 10
1823.4054022204919
 20
1247.5913324536339
 11
1826.7919222204921
 21
1250.5558324536337
  0
LINE
  8
_0-1_レイヤ___1
  6
CONTINUOUS
 62
    7
 10
1826.7919222204921
 20
1250.5558324536337
 11
1830.6022022204916
 21
1253.5186124536338
  0
LINE
  8
_0-1_レイヤ___1
  6
CONTINUOUS
 62
    7
 10
1830.6022022204916
 20
1253.5186124536338
 11
1834.8327822204919
 21
1256.0576524536339
  0
LINE
  8
_0-1_レイヤ___1
  6
CONTINUOUS
 62
    7
 10
1834.8327822204919
 20
1256.0576524536339
 11
1839.066802220492
 21
1258.174662453634
  0
LINE
  8
_0-1_レイヤ___1
  6
CONTINUOUS
 62
    7
 10
1839.066802220492
 20
1258.174662453634
 11
1843.7245722204921
 21
1259.4441824536339
  0
LINE
  8
_0-1_レイヤ___1
  6
CONTINUOUS
 62
    7
 10
1843.7245722204921
 20
1259.4441824536339
 11
1848.3823422204921
 21
1260.7154224536339
  0
LINE
  8
_0-1_レイヤ___1
  6
CONTINUOUS
 62
    7
 10
1848.3823422204921
 20
1260.7154224536339
 11
1853.0366622204917
 21
1261.5611924536338
  0
LINE
  8
_0-1_レイヤ___1
  6
CONTINUOUS
 62
    7
 10
1853.0366622204917
 20
1261.5611924536338
 11
1858.1181822204917
 21
1261.5611924536338
  0
LINE
  8
_0-1_レイヤ___1
  6
CONTINUOUS
 62
    7
 10
1858.1181822204917
 20
1261.5611924536338
 11
2546.8823422204919
 21
1261.5611924536338
  0
LINE
  8
_0-1_レイヤ___1
  6
CONTINUOUS
 62
    7
 10
2546.8823422204919
 20
1261.5611924536338
 11
2551.536662220492
 21
1261.5611924536338
  0
LINE
  8
_0-1_レイヤ___1
  6
CONTINUOUS
 62
    7
 10
2551.536662220492
 20
1261.5611924536338
 11
2556.6181822204917
 21
1260.7154224536339
  0
LINE
  8
_0-1_レイヤ___1
  6
CONTINUOUS
 62
    7
 10
2556.6181822204917
 20
1260.7154224536339
 11
2561.2759522204919
 21
1259.4441824536339
  0
LINE
  8
_0-1_レイヤ___1
  6
CONTINUOUS
 62
    7
 10
2561.2759522204919
 20
1259.4441824536339
 11
2565.5065222204917
 21
1258.174662453634
  0
LINE
  8
_0-1_レイヤ___1
  6
CONTINUOUS
 62
    7
 10
2565.5065222204917
 20
1258.174662453634
 11
2570.1642922204919
 21
1256.0576524536339
  0
LINE
  8
_0-1_レイヤ___1
  6
CONTINUOUS
 62
    7
 10
2570.1642922204919
 20
1256.0576524536339
 11
2573.9745722204916
 21
1253.5186124536338
  0
LINE
  8
_0-1_レイヤ___1
  6
CONTINUOUS
 62
    7
 10
2573.9745722204916
 20
1253.5186124536338
 11
2578.2085922204919
 21
1250.5558324536337
  0
LINE
  8
_0-1_レイヤ___1
  6
CONTINUOUS
 62
    7
 10
2578.2085922204919
 20
1250.5558324536337
 11
2581.5951222204917
 21
1247.5913324536339
  0
LINE
  8
_0-1_レイヤ___1
  6
CONTINUOUS
 62
    7
 10
2581.5951222204917
 20
1247.5913324536339
 11
2584.9816522204919
 21
1243.7810524536337
  0
LINE
  8
_0-1_レイヤ___1
  6
CONTINUOUS
 62
    7
 10
2584.9816522204919
 20
1243.7810524536337
 11
2587.5206822204918
 21
1239.9725024536338
  0
LINE
  8
_0-1_レイヤ___1
  6
CONTINUOUS
 62
    7
 10
2587.5206822204918
 20
1239.9725024536338
 11
2590.0597222204919
 21
1235.7384724536337
  0
LINE
  8
_0-1_レイヤ___1
  6
CONTINUOUS
 62
    7
 10
2590.0597222204919
 20
1235.7384724536337
 11
2592.1784522204916
 21
1231.5044524536338
  0
LINE
  8
_0-1_レイヤ___1
  6
CONTINUOUS
 62
    7
 10
2592.1784522204916
 20
1231.5044524536338
 11
2593.8700022204916
 21
1226.8484124536337
  0
LINE
  8
_0-1_レイヤ___1
  6
CONTINUOUS
 62
    7
 10
2593.8700022204916
 20
1226.8484124536337
 11
2595.1412422204921
 21
1222.1923624536339
  0
LINE
  8
_0-1_レイヤ___1
  6
CONTINUOUS
 62
    7
 10
2595.1412422204921
 20
1222.1923624536339
 11
2595.5649822204919
 21
1217.5345924536339
  0
LINE
  8
_0-1_レイヤ___1
  6
CONTINUOUS
 62
    7
 10
2595.5649822204919
 20
1217.5345924536339
 11
2595.9887322204918
 21
1212.8785424536338
  0
LINE
  8
_0-1_レイヤ___1
  6
CONTINUOUS
 62
    7
 10
2595.9887322204918
 20
1212.8785424536338
 11
2595.9887322204918
 21
1061.7490924536337
  0
LINE
  8
_0-1_レイヤ___1
  6
CONTINUOUS
 62
    7
 10
1859.8097222204922
 20
1061.7490924536337
 11
1859.8097222204922
 21
1092.6516024536338
  0
LINE
  8
_0-1_レイヤ___1
  6
CONTINUOUS
 62
    7
 10
1859.8097222204922
 20
1092.6516024536338
 11
1860.6572122204921
 21
1101.1179224536338
  0
LINE
  8
_0-1_レイヤ___1
  6
CONTINUOUS
 62
    7
 10
1860.6572122204921
 20
1101.1179224536338
 11
1863.1962522204917
 21
1108.7384724536337
  0
LINE
  8
_0-1_レイヤ___1
  6
CONTINUOUS
 62
    7
 10
1863.1962522204917
 20
1108.7384724536337
 11
1867.0065222204921
 21
1115.9352824536338
  0
LINE
  8
_0-1_レイヤ___1
  6
CONTINUOUS
 62
    7
 10
1867.0065222204921
 20
1115.9352824536338
 11
1872.0880422204918
 21
1122.2845924536339
  0
LINE
  8
_0-1_レイヤ___1
  6
CONTINUOUS
 62
    7
 10
1872.0880422204918
 20
1122.2845924536339
 11
1878.4373522204919
 21
1127.7881324536338
  0
LINE
  8
_0-1_レイヤ___1
  6
CONTINUOUS
 62
    7
 10
1878.4373522204919
 20
1127.7881324536338
 11
1886.0579022204915
 21
1131.5984124536337
  0
LINE
  8
_0-1_レイヤ___1
  6
CONTINUOUS
 62
    7
 10
1886.0579022204915
 20
1131.5984124536337
 11
1893.6784522204921
 21
1134.1391624536336
  0
LINE
  8
_0-1_レイヤ___1
  6
CONTINUOUS
 62
    7
 10
1893.6784522204921
 20
1134.1391624536336
 11
1901.7193122204917
 21
1134.5611924536338
  0
LINE
  8
_0-1_レイヤ___1
  6
CONTINUOUS
 62
    7
 10
1901.7193122204917
 20
1134.5611924536338
 11
2502.854022220492
 21
1134.5611924536338
  0
LINE
  8
_0-1_レイヤ___1
  6
CONTINUOUS
 62
    7
 10
2502.854022220492
 20
1134.5611924536338
 11
2511.3220622204917
 21
1134.1391624536336
  0
LINE
  8
_0-1_レイヤ___1
  6
CONTINUOUS
 62
    7
 10
2511.3220622204917
 20
1134.1391624536336
 11
2518.9426122204918
 21
1131.5984124536337
  0
LINE
  8
_0-1_レイヤ___1
  6
CONTINUOUS
 62
    7
 10
2518.9426122204918
 20
1131.5984124536337
 11
2526.1359722204916
 21
1127.7881324536338
  0
LINE
  8
_0-1_レイヤ___1
  6
CONTINUOUS
 62
    7
 10
2526.1359722204916
 20
1127.7881324536338
 11
2532.4887322204913
 21
1122.2845924536339
  0
LINE
  8
_0-1_レイヤ___1
  6
CONTINUOUS
 62
    7
 10
2532.4887322204913
 20
1122.2845924536339
 11
2537.9905522204917
 21
1115.9352824536338
  0
LINE
  8
_0-1_レイヤ___1
  6
CONTINUOUS
 62
    7
 10
2537.9905522204917
 20
1115.9352824536338
 11
2541.8008222204917
 21
1108.7384724536337
  0
LINE
  8
_0-1_レイヤ___1
  6
CONTINUOUS
 62
    7
 10
2541.8008222204917
 20
1108.7384724536337
 11
2543.9161122204914
 21
1101.1179224536338
  0
LINE
  8
_0-1_レイヤ___1
  6
CONTINUOUS
 62
    7
 10
2543.9161122204914
 20
1101.1179224536338
 11
2544.7636022204915
 21
1092.6516024536338
  0
LINE
  8
_0-1_レイヤ___1
  6
CONTINUOUS
 62
    7
 10
2544.7636022204915
 20
1092.6516024536338
 11
2544.7636022204915
 21
1061.7490924536337
  0
LINE
  8
_0-1_レイヤ___1
  6
CONTINUOUS
 62
    7
 10
1843.7245722204921
 20
1061.7490924536337
 11
1843.7245722204921
 21
1094.7686124536338
  0
LINE
  8
_0-1_レイヤ___1
  6
CONTINUOUS
 62
    7
 10
1843.7245722204921
 20
1094.7686124536338
 11
1844.148322220492
 21
1100.2721524536337
  0
LINE
  8
_0-1_レイヤ___1
  6
CONTINUOUS
 62
    7
 10
1844.148322220492
 20
1100.2721524536337
 11
1844.9958122204919
 21
1105.7756924536338
  0
LINE
  8
_0-1_レイヤ___1
  6
CONTINUOUS
 62
    7
 10
1844.9958122204919
 20
1105.7756924536338
 11
1846.263602220492
 21
1110.8554924536338
  0
LINE
  8
_0-1_レイヤ___1
  6
CONTINUOUS
 62
    7
 10
1846.263602220492
 20
1110.8554924536338
 11
1848.3823422204921
 21
1116.3590324536337
  0
LINE
  8
_0-1_レイヤ___1
  6
CONTINUOUS
 62
    7
 10
1848.3823422204921
 20
1116.3590324536337
 11
1850.4976322204921
 21
1121.0150724536338
  0
LINE
  8
_0-1_レイヤ___1
  6
CONTINUOUS
 62
    7
 10
1850.4976322204921
 20
1121.0150724536338
 11
1853.4604122204917
 21
1125.6711224536339
  0
LINE
  8
_0-1_レイヤ___1
  6
CONTINUOUS
 62
    7
 10
1853.4604122204917
 20
1125.6711224536339
 11
1856.423192220492
 21
1130.3288924536337
  0
LINE
  8
_0-1_レイヤ___1
  6
CONTINUOUS
 62
    7
 10
1856.423192220492
 20
1130.3288924536337
 11
1860.2334722204921
 21
1134.5611924536338
  0
LINE
  8
_0-1_レイヤ___1
  6
CONTINUOUS
 62
    7
 10
1860.2334722204921
 20
1134.5611924536338
 11
1864.4674922204917
 21
1137.947722453634
  0
LINE
  8
_0-1_レイヤ___1
  6
CONTINUOUS
 62
    7
 10
1864.4674922204917
 20
1137.947722453634
 11
1868.7015122204916
 21
1141.3342424536338
  0
LINE
  8
_0-1_レイヤ___1
  6
CONTINUOUS
 62
    7
 10
1868.7015122204916
 20
1141.3342424536338
 11
1873.3592822204919
 21
1144.2987524536338
  0
LINE
  8
_0-1_レイヤ___1
  6
CONTINUOUS
 62
    7
 10
1873.3592822204919
 20
1144.2987524536338
 11
1878.4373522204919
 21
1146.4157624536338
  0
LINE
  8
_0-1_レイヤ___1
  6
CONTINUOUS
 62
    7
 10
1878.4373522204919
 20
1146.4157624536338
 11
1883.5188722204919
 21
1148.5310524536339
  0
LINE
  8
_0-1_レイヤ___1
  6
CONTINUOUS
 62
    7
 10
1883.5188722204919
 20
1148.5310524536339
 11
1889.0206822204918
 21
1149.8022924536338
  0
LINE
  8
_0-1_レイヤ___1
  6
CONTINUOUS
 62
    7
 10
1889.0206822204918
 20
1149.8022924536338
 11
1894.5259522204919
 21
1150.6480624536337
  0
LINE
  8
_0-1_レイヤ___1
  6
CONTINUOUS
 62
    7
 10
1894.5259522204919
 20
1150.6480624536337
 11
1900.0277622204919
 21
1150.6480624536337
  0
LINE
  8
_0-1_レイヤ___1
  6
CONTINUOUS
 62
    7
 10
1900.0277622204919
 20
1150.6480624536337
 11
2504.9693122204917
 21
1150.6480624536337
  0
LINE
  8
_0-1_レイヤ___1
  6
CONTINUOUS
 62
    7
 10
2504.9693122204917
 20
1150.6480624536337
 11
2510.4745722204916
 21
1150.6480624536337
  0
LINE
  8
_0-1_レイヤ___1
  6
CONTINUOUS
 62
    7
 10
2510.4745722204916
 20
1150.6480624536337
 11
2515.9763922204916
 21
1149.8022924536338
  0
LINE
  8
_0-1_レイヤ___1
  6
CONTINUOUS
 62
    7
 10
2515.9763922204916
 20
1149.8022924536338
 11
2521.0579022204915
 21
1148.5310524536339
  0
LINE
  8
_0-1_レイヤ___1
  6
CONTINUOUS
 62
    7
 10
2521.0579022204915
 20
1148.5310524536339
 11
2526.5597222204915
 21
1146.4157624536338
  0
LINE
  8
_0-1_レイヤ___1
  6
CONTINUOUS
 62
    7
 10
2526.5597222204915
 20
1146.4157624536338
 11
2531.2174922204917
 21
1144.2987524536338
  0
LINE
  8
_0-1_レイヤ___1
  6
CONTINUOUS
 62
    7
 10
2531.2174922204917
 20
1144.2987524536338
 11
2535.875262220492
 21
1141.3342424536338
  0
LINE
  8
_0-1_レイヤ___1
  6
CONTINUOUS
 62
    7
 10
2535.875262220492
 20
1141.3342424536338
 11
2540.5295822204921
 21
1137.947722453634
  0
LINE
  8
_0-1_レイヤ___1
  6
CONTINUOUS
 62
    7
 10
2540.5295822204921
 20
1137.947722453634
 11
2544.3398622204913
 21
1134.5611924536338
  0
LINE
  8
_0-1_レイヤ___1
  6
CONTINUOUS
 62
    7
 10
2544.3398622204913
 20
1134.5611924536338
 11
2548.1501322204917
 21
1130.3288924536337
  0
LINE
  8
_0-1_レイヤ___1
  6
CONTINUOUS
 62
    7
 10
2548.1501322204917
 20
1130.3288924536337
 11
2551.536662220492
 21
1125.6711224536339
  0
LINE
  8
_0-1_レイヤ___1
  6
CONTINUOUS
 62
    7
 10
2551.536662220492
 20
1125.6711224536339
 11
2554.4994422204918
 21
1121.0150724536338
  0
LINE
  8
_0-1_レイヤ___1
  6
CONTINUOUS
 62
    7
 10
2554.4994422204918
 20
1121.0150724536338
 11
2556.6181822204917
 21
1116.3590324536337
  0
LINE
  8
_0-1_レイヤ___1
  6
CONTINUOUS
 62
    7
 10
2556.6181822204917
 20
1116.3590324536337
 11
2558.3097222204919
 21
1110.8554924536338
  0
LINE
  8
_0-1_レイヤ___1
  6
CONTINUOUS
 62
    7
 10
2558.3097222204919
 20
1110.8554924536338
 11
2560.0047122204915
 21
1105.7756924536338
  0
LINE
  8
_0-1_レイヤ___1
  6
CONTINUOUS
 62
    7
 10
2560.0047122204915
 20
1105.7756924536338
 11
2560.852202220492
 21
1100.2721524536337
  0
LINE
  8
_0-1_レイヤ___1
  6
CONTINUOUS
 62
    7
 10
2560.852202220492
 20
1100.2721524536337
 11
2560.852202220492
 21
1094.7686124536338
  0
LINE
  8
_0-1_レイヤ___1
  6
CONTINUOUS
 62
    7
 10
2560.852202220492
 20
1094.7686124536338
 11
2560.852202220492
 21
1061.7490924536337
  0
LINE
  8
_0-1_レイヤ___1
  6
CONTINUOUS
 62
    7
 10
2170.1129222204918
 20
1199.7544524536338
 11
2201.8629222204918
 21
1199.7544524536338
  0
LINE
  8
_0-1_レイヤ___1
  6
CONTINUOUS
 62
    7
 10
2212.4462522204922
 20
1199.7544524536338
 11
2215.8327822204919
 21
1199.7544524536338
  0
LINE
  8
_0-1_レイヤ___1
  6
CONTINUOUS
 62
    7
 10
2223.0295822204921
 20
1199.7544524536338
 11
2234.8841622204918
 21
1199.7544524536338
  0
LINE
  8
_0-1_レイヤ___1
  6
CONTINUOUS
 62
    7
 10
2220.0668066519156
 20
1199.7544524536338
 11
2220.0668066519156
 21
1199.7544524536338
  0
LINE
  8
_0-1_レイヤ___1
  6
CONTINUOUS
 62
    7
 10
2220.0668066519156
 20
1199.7544524536338
 11
2219.7999052395262
 21
1202.7683581498557
  0
LINE
  8
_0-1_レイヤ___1
  6
CONTINUOUS
 62
    7
 10
2219.7999052395262
 20
1202.7683581498557
 11
2219.007310666716
 21
1205.6906878466075
  0
LINE
  8
_0-1_レイヤ___1
  6
CONTINUOUS
 62
    7
 10
2219.007310666716
 20
1205.6906878466075
 11
2217.7131055185073
 21
1208.4326480348241
  0
LINE
  8
_0-1_レイヤ___1
  6
CONTINUOUS
 62
    7
 10
2217.7131055185073
 20
1208.4326480348241
 11
2215.9566135634286
 21
1210.910925641685
  0
LINE
  8
_0-1_レイヤ___1
  6
CONTINUOUS
 62
    7
 10
2215.9566135634286
 20
1210.910925641685
 11
2213.7912049207075
 21
1213.0502194561748
  0
LINE
  8
_0-1_レイヤ___1
  6
CONTINUOUS
 62
    7
 10
2213.7912049207075
 20
1213.0502194561748
 11
2211.2826744362037
 21
1214.7855281182751
  0
LINE
  8
_0-1_レイヤ___1
  6
CONTINUOUS
 62
    7
 10
2211.2826744362037
 20
1214.7855281182751
 11
2208.5072425393105
 21
1216.0641251523966
  0
LINE
  8
_0-1_レイヤ___1
  6
CONTINUOUS
 62
    7
 10
2208.5072425393105
 20
1216.0641251523966
 11
2205.5492393237791
 21
1216.8471610346589
  0
LINE
  8
_0-1_レイヤ___1
  6
CONTINUOUS
 62
    7
 10
2205.5492393237791
 20
1216.8471610346589
 11
2202.4985422204918
 21
1217.1108436160143
  0
LINE
  8
_0-1_レイヤ___1
  6
CONTINUOUS
 62
    7
 10
2202.4985422204918
 20
1217.1108436160143
 11
2199.4478451172045
 21
1216.8471610346589
  0
LINE
  8
_0-1_レイヤ___1
  6
CONTINUOUS
 62
    7
 10
2199.4478451172045
 20
1216.8471610346589
 11
2196.4898419016731
 21
1216.0641251523966
  0
LINE
  8
_0-1_レイヤ___1
  6
CONTINUOUS
 62
    7
 10
2196.4898419016731
 20
1216.0641251523966
 11
2193.7144100047799
 21
1214.7855281182751
  0
LINE
  8
_0-1_レイヤ___1
  6
CONTINUOUS
 62
    7
 10
2193.7144100047799
 20
1214.7855281182751
 11
2191.2058795202761
 21
1213.0502194561748
  0
LINE
  8
_0-1_レイヤ___1
  6
CONTINUOUS
 62
    7
 10
2191.2058795202761
 20
1213.0502194561748
 11
2189.040470877555
 21
1210.910925641685
  0
LINE
  8
_0-1_レイヤ___1
  6
CONTINUOUS
 62
    7
 10
2189.040470877555
 20
1210.910925641685
 11
2187.2839789224763
 21
1208.4326480348241
  0
LINE
  8
_0-1_レイヤ___1
  6
CONTINUOUS
 62
    7
 10
2187.2839789224763
 20
1208.4326480348241
 11
2185.9897737742676
 21
1205.6906878466077
  0
LINE
  8
_0-1_レイヤ___1
  6
CONTINUOUS
 62
    7
 10
2185.9897737742676
 20
1205.6906878466077
 11
2185.1971792014574
 21
1202.7683581498557
  0
LINE
  8
_0-1_レイヤ___1
  6
CONTINUOUS
 62
    7
 10
2185.1971792014574
 20
1202.7683581498557
 11
2184.930277789068
 21
1199.7544524536338
  0
LINE
  8
_0-1_レイヤ___1
  6
CONTINUOUS
 62
    7
 10
2184.930277789068
 20
1199.7544524536338
 11
2185.1971792014574
 21
1196.7405467574119
  0
LINE
  8
_0-1_レイヤ___1
  6
CONTINUOUS
 62
    7
 10
2185.1971792014574
 20
1196.7405467574119
 11
2185.9897737742676
 21
1193.8182170606601
  0
LINE
  8
_0-1_レイヤ___1
  6
CONTINUOUS
 62
    7
 10
2185.9897737742676
 20
1193.8182170606601
 11
2187.2839789224763
 21
1191.0762568724435
  0
LINE
  8
_0-1_レイヤ___1
  6
CONTINUOUS
 62
    7
 10
2187.2839789224763
 20
1191.0762568724435
 11
2189.040470877555
 21
1188.5979792655826
  0
LINE
  8
_0-1_レイヤ___1
  6
CONTINUOUS
 62
    7
 10
2189.040470877555
 20
1188.5979792655826
 11
2191.2058795202761
 21
1186.4586854510928
  0
LINE
  8
_0-1_レイヤ___1
  6
CONTINUOUS
 62
    7
 10
2191.2058795202761
 20
1186.4586854510928
 11
2193.7144100047799
 21
1184.7233767889925
  0
LINE
  8
_0-1_レイヤ___1
  6
CONTINUOUS
 62
    7
 10
2193.7144100047799
 20
1184.7233767889925
 11
2196.4898419016731
 21
1183.444779754871
  0
LINE
  8
_0-1_レイヤ___1
  6
CONTINUOUS
 62
    7
 10
2196.4898419016731
 20
1183.444779754871
 11
2199.4478451172045
 21
1182.6617438726089
  0
LINE
  8
_0-1_レイヤ___1
  6
CONTINUOUS
 62
    7
 10
2199.4478451172045
 20
1182.6617438726089
 11
2202.4985422204918
 21
1182.3980612912533
  0
LINE
  8
_0-1_レイヤ___1
  6
CONTINUOUS
 62
    7
 10
2202.4985422204918
 20
1182.3980612912533
 11
2205.5492393237791
 21
1182.6617438726087
  0
LINE
  8
_0-1_レイヤ___1
  6
CONTINUOUS
 62
    7
 10
2205.5492393237791
 20
1182.6617438726087
 11
2208.5072425393105
 21
1183.444779754871
  0
LINE
  8
_0-1_レイヤ___1
  6
CONTINUOUS
 62
    7
 10
2208.5072425393105
 20
1183.444779754871
 11
2211.2826744362037
 21
1184.7233767889925
  0
LINE
  8
_0-1_レイヤ___1
  6
CONTINUOUS
 62
    7
 10
2211.2826744362037
 20
1184.7233767889925
 11
2213.7912049207075
 21
1186.4586854510928
  0
LINE
  8
_0-1_レイヤ___1
  6
CONTINUOUS
 62
    7
 10
2213.7912049207075
 20
1186.4586854510928
 11
2215.9566135634286
 21
1188.5979792655826
  0
LINE
  8
_0-1_レイヤ___1
  6
CONTINUOUS
 62
    7
 10
2215.9566135634286
 20
1188.5979792655826
 11
2217.7131055185073
 21
1191.0762568724433
  0
LINE
  8
_0-1_レイヤ___1
  6
CONTINUOUS
 62
    7
 10
2217.7131055185073
 20
1191.0762568724433
 11
2219.007310666716
 21
1193.8182170606599
  0
LINE
  8
_0-1_レイヤ___1
  6
CONTINUOUS
 62
    7
 10
2219.007310666716
 20
1193.8182170606599
 11
2219.7999052395262
 21
1196.7405467574119
  0
LINE
  8
_0-1_レイヤ___1
  6
CONTINUOUS
 62
    7
 10
2219.7999052395262
 20
1196.7405467574119
 11
2220.0668066519156
 21
1199.7544524536338
  0
LINE
  8
_0-1_レイヤ___1
  6
CONTINUOUS
 62
    7
 10
2220.0668066519156
 20
1199.7544524536338
 11
2220.0668066519156
 21
1199.7544524536338
  0
LINE
  8
_0-1_レイヤ___1
  6
CONTINUOUS
 62
    7
 10
2271.7156722204918
 20
1199.7544524536338
 11
2284.4142922204919
 21
1199.7544524536338
  0
LINE
  8
_0-1_レイヤ___1
  6
CONTINUOUS
 62
    7
 10
2288.648322220492
 20
1199.7544524536338
 11
2289.9161122204919
 21
1199.7544524536338
  0
LINE
  8
_0-1_レイヤ___1
  6
CONTINUOUS
 62
    7
 10
2292.8823422204919
 20
1199.7544524536338
 11
2294.1501322204922
 21
1199.7544524536338
  0
LINE
  8
_0-1_レイヤ___1
  6
CONTINUOUS
 62
    7
 10
2297.1129222204918
 20
1199.7544524536338
 11
2309.8149822204919
 21
1199.7544524536338
  0
LINE
  8
_0-1_レイヤ___1
  6
CONTINUOUS
 62
    7
 10
2314.0490022204922
 20
1199.7544524536338
 11
2315.3168022204918
 21
1199.7544524536338
  0
LINE
  8
_0-1_レイヤ___1
  6
CONTINUOUS
 62
    7
 10
2318.2795822204916
 20
1199.7544524536338
 11
2319.5508222204921
 21
1199.7544524536338
  0
LINE
  8
_0-1_レイヤ___1
  6
CONTINUOUS
 62
    7
 10
2322.513602220492
 20
1199.7544524536338
 11
2335.2156722204923
 21
1199.7544524536338
  0
LINE
  8
_0-1_レイヤ___1
  6
CONTINUOUS
 62
    7
 10
2336.0597222204924
 20
1199.7544524536338
 11
2336.9072122204921
 21
1199.7544524536338
  0
LINE
  8
_0-1_レイヤ___1
  6
CONTINUOUS
 62
    7
 10
2322.0898566519159
 20
1199.7544524536338
 11
2322.0898566519159
 21
1199.7544524536338
  0
LINE
  8
_0-1_レイヤ___1
  6
CONTINUOUS
 62
    7
 10
2322.0898566519159
 20
1199.7544524536338
 11
2321.8229552395264
 21
1202.7683581498557
  0
LINE
  8
_0-1_レイヤ___1
  6
CONTINUOUS
 62
    7
 10
2321.8229552395264
 20
1202.7683581498557
 11
2321.0303606667162
 21
1205.6906878466075
  0
LINE
  8
_0-1_レイヤ___1
  6
CONTINUOUS
 62
    7
 10
2321.0303606667162
 20
1205.6906878466075
 11
2319.7361555185075
 21
1208.4326480348241
  0
LINE
  8
_0-1_レイヤ___1
  6
CONTINUOUS
 62
    7
 10
2319.7361555185075
 20
1208.4326480348241
 11
2317.9796635634289
 21
1210.910925641685
  0
LINE
  8
_0-1_レイヤ___1
  6
CONTINUOUS
 62
    7
 10
2317.9796635634289
 20
1210.910925641685
 11
2315.8142549207078
 21
1213.0502194561748
  0
LINE
  8
_0-1_レイヤ___1
  6
CONTINUOUS
 62
    7
 10
2315.8142549207078
 20
1213.0502194561748
 11
2313.3057244362039
 21
1214.7855281182751
  0
LINE
  8
_0-1_レイヤ___1
  6
CONTINUOUS
 62
    7
 10
2313.3057244362039
 20
1214.7855281182751
 11
2310.5302925393107
 21
1216.0641251523966
  0
LINE
  8
_0-1_レイヤ___1
  6
CONTINUOUS
 62
    7
 10
2310.5302925393107
 20
1216.0641251523966
 11
2307.5722893237794
 21
1216.8471610346589
  0
LINE
  8
_0-1_レイヤ___1
  6
CONTINUOUS
 62
    7
 10
2307.5722893237794
 20
1216.8471610346589
 11
2304.521592220492
 21
1217.1108436160143
  0
LINE
  8
_0-1_レイヤ___1
  6
CONTINUOUS
 62
    7
 10
2304.521592220492
 20
1217.1108436160143
 11
2301.4708951172047
 21
1216.8471610346589
  0
LINE
  8
_0-1_レイヤ___1
  6
CONTINUOUS
 62
    7
 10
2301.4708951172047
 20
1216.8471610346589
 11
2298.5128919016734
 21
1216.0641251523966
  0
LINE
  8
_0-1_レイヤ___1
  6
CONTINUOUS
 62
    7
 10
2298.5128919016734
 20
1216.0641251523966
 11
2295.7374600047801
 21
1214.7855281182751
  0
LINE
  8
_0-1_レイヤ___1
  6
CONTINUOUS
 62
    7
 10
2295.7374600047801
 20
1214.7855281182751
 11
2293.2289295202763
 21
1213.0502194561748
  0
LINE
  8
_0-1_レイヤ___1
  6
CONTINUOUS
 62
    7
 10
2293.2289295202763
 20
1213.0502194561748
 11
2291.0635208775552
 21
1210.910925641685
  0
LINE
  8
_0-1_レイヤ___1
  6
CONTINUOUS
 62
    7
 10
2291.0635208775552
 20
1210.910925641685
 11
2289.3070289224765
 21
1208.4326480348241
  0
LINE
  8
_0-1_レイヤ___1
  6
CONTINUOUS
 62
    7
 10
2289.3070289224765
 20
1208.4326480348241
 11
2288.0128237742679
 21
1205.6906878466077
  0
LINE
  8
_0-1_レイヤ___1
  6
CONTINUOUS
 62
    7
 10
2288.0128237742679
 20
1205.6906878466077
 11
2287.2202292014576
 21
1202.7683581498557
  0
LINE
  8
_0-1_レイヤ___1
  6
CONTINUOUS
 62
    7
 10
2287.2202292014576
 20
1202.7683581498557
 11
2286.9533277890682
 21
1199.7544524536338
  0
LINE
  8
_0-1_レイヤ___1
  6
CONTINUOUS
 62
    7
 10
2286.9533277890682
 20
1199.7544524536338
 11
2287.2202292014576
 21
1196.7405467574119
  0
LINE
  8
_0-1_レイヤ___1
  6
CONTINUOUS
 62
    7
 10
2287.2202292014576
 20
1196.7405467574119
 11
2288.0128237742679
 21
1193.8182170606601
  0
LINE
  8
_0-1_レイヤ___1
  6
CONTINUOUS
 62
    7
 10
2288.0128237742679
 20
1193.8182170606601
 11
2289.3070289224765
 21
1191.0762568724435
  0
LINE
  8
_0-1_レイヤ___1
  6
CONTINUOUS
 62
    7
 10
2289.3070289224765
 20
1191.0762568724435
 11
2291.0635208775552
 21
1188.5979792655826
  0
LINE
  8
_0-1_レイヤ___1
  6
CONTINUOUS
 62
    7
 10
2291.0635208775552
 20
1188.5979792655826
 11
2293.2289295202763
 21
1186.4586854510928
  0
LINE
  8
_0-1_レイヤ___1
  6
CONTINUOUS
 62
    7
 10
2293.2289295202763
 20
1186.4586854510928
 11
2295.7374600047801
 21
1184.7233767889925
  0
LINE
  8
_0-1_レイヤ___1
  6
CONTINUOUS
 62
    7
 10
2295.7374600047801
 20
1184.7233767889925
 11
2298.5128919016734
 21
1183.444779754871
  0
LINE
  8
_0-1_レイヤ___1
  6
CONTINUOUS
 62
    7
 10
2298.5128919016734
 20
1183.444779754871
 11
2301.4708951172047
 21
1182.6617438726089
  0
LINE
  8
_0-1_レイヤ___1
  6
CONTINUOUS
 62
    7
 10
2301.4708951172047
 20
1182.6617438726089
 11
2304.521592220492
 21
1182.3980612912533
  0
LINE
  8
_0-1_レイヤ___1
  6
CONTINUOUS
 62
    7
 10
2304.521592220492
 20
1182.3980612912533
 11
2307.5722893237794
 21
1182.6617438726087
  0
LINE
  8
_0-1_レイヤ___1
  6
CONTINUOUS
 62
    7
 10
2307.5722893237794
 20
1182.6617438726087
 11
2310.5302925393107
 21
1183.444779754871
  0
LINE
  8
_0-1_レイヤ___1
  6
CONTINUOUS
 62
    7
 10
2310.5302925393107
 20
1183.444779754871
 11
2313.3057244362039
 21
1184.7233767889925
  0
LINE
  8
_0-1_レイヤ___1
  6
CONTINUOUS
 62
    7
 10
2313.3057244362039
 20
1184.7233767889925
 11
2315.8142549207078
 21
1186.4586854510928
  0
LINE
  8
_0-1_レイヤ___1
  6
CONTINUOUS
 62
    7
 10
2315.8142549207078
 20
1186.4586854510928
 11
2317.9796635634289
 21
1188.5979792655826
  0
LINE
  8
_0-1_レイヤ___1
  6
CONTINUOUS
 62
    7
 10
2317.9796635634289
 20
1188.5979792655826
 11
2319.7361555185075
 21
1191.0762568724433
  0
LINE
  8
_0-1_レイヤ___1
  6
CONTINUOUS
 62
    7
 10
2319.7361555185075
 20
1191.0762568724433
 11
2321.0303606667162
 21
1193.8182170606599
  0
LINE
  8
_0-1_レイヤ___1
  6
CONTINUOUS
 62
    7
 10
2321.0303606667162
 20
1193.8182170606599
 11
2321.8229552395264
 21
1196.7405467574119
  0
LINE
  8
_0-1_レイヤ___1
  6
CONTINUOUS
 62
    7
 10
2321.8229552395264
 20
1196.7405467574119
 11
2322.0898566519159
 21
1199.7544524536338
  0
LINE
  8
_0-1_レイヤ___1
  6
CONTINUOUS
 62
    7
 10
2322.0898566519159
 20
1199.7544524536338
 11
2322.0898566519159
 21
1199.7544524536338
  0
LINE
  8
_0-1_レイヤ___1
  6
CONTINUOUS
 62
    7
 10
2304.3097222204919
 20
1167.1586824536337
 11
2304.3097222204919
 21
1179.8590324536337
  0
LINE
  8
_0-1_レイヤ___1
  6
CONTINUOUS
 62
    7
 10
2304.3097222204919
 20
1184.0913324536339
 11
2304.3097222204919
 21
1185.3608424536337
  0
LINE
  8
_0-1_レイヤ___1
  6
CONTINUOUS
 62
    7
 10
2304.3097222204919
 20
1188.3253524536337
 11
2304.3097222204919
 21
1189.5948724536338
  0
LINE
  8
_0-1_レイヤ___1
  6
CONTINUOUS
 62
    7
 10
2304.3097222204919
 20
1192.5576524536339
 11
2304.3097222204919
 21
1205.2579924536337
  0
LINE
  8
_0-1_レイヤ___1
  6
CONTINUOUS
 62
    7
 10
2304.3097222204919
 20
1209.4920124536338
 11
2304.3097222204919
 21
1210.7615324536337
  0
LINE
  8
_0-1_レイヤ___1
  6
CONTINUOUS
 62
    7
 10
2304.3097222204919
 20
1213.7243124536337
 11
2304.3097222204919
 21
1214.9955524536338
  0
LINE
  8
_0-1_レイヤ___1
  6
CONTINUOUS
 62
    7
 10
2304.3097222204919
 20
1217.9583424536338
 11
2304.3097222204919
 21
1230.6586824536339
  0
LINE
  8
_0-1_レイヤ___1
  6
CONTINUOUS
 62
    7
 10
2132.8611022204923
 20
1199.7544524536338
 11
2120.1624822204917
 21
1199.7544524536338
  0
LINE
  8
_0-1_レイヤ___1
  6
CONTINUOUS
 62
    7
 10
2115.9284522204916
 20
1199.7544524536338
 11
2114.6572122204916
 21
1199.7544524536338
  0
LINE
  8
_0-1_レイヤ___1
  6
CONTINUOUS
 62
    7
 10
2111.6944322204922
 20
1199.7544524536338
 11
2110.4231922204917
 21
1199.7544524536338
  0
LINE
  8
_0-1_レイヤ___1
  6
CONTINUOUS
 62
    7
 10
2107.4604122204919
 20
1199.7544524536338
 11
2094.7617922204922
 21
1199.7544524536338
  0
LINE
  8
_0-1_レイヤ___1
  6
CONTINUOUS
 62
    7
 10
2090.5277622204921
 20
1199.7544524536338
 11
2089.2565222204917
 21
1199.7544524536338
  0
LINE
  8
_0-1_レイヤ___1
  6
CONTINUOUS
 62
    7
 10
2086.2937422204918
 20
1199.7544524536338
 11
2085.0259522204919
 21
1199.7544524536338
  0
LINE
  8
_0-1_レイヤ___1
  6
CONTINUOUS
 62
    7
 10
2082.0597222204919
 20
1199.7544524536338
 11
2069.3611022204918
 21
1199.7544524536338
  0
LINE
  8
_0-1_レイヤ___1
  6
CONTINUOUS
 62
    7
 10
2068.9373522204919
 20
1199.7544524536338
 11
2068.0898622204923
 21
1199.7544524536338
  0
LINE
  8
_0-1_レイヤ___1
  6
CONTINUOUS
 62
    7
 10
2118.0437466519161
 20
1199.7544524536338
 11
2118.0437466519161
 21
1199.7544524536338
  0
LINE
  8
_0-1_レイヤ___1
  6
CONTINUOUS
 62
    7
 10
2118.0437466519161
 20
1199.7544524536338
 11
2117.7768452395267
 21
1202.7683581498557
  0
LINE
  8
_0-1_レイヤ___1
  6
CONTINUOUS
 62
    7
 10
2117.7768452395267
 20
1202.7683581498557
 11
2116.9842506667164
 21
1205.6906878466075
  0
LINE
  8
_0-1_レイヤ___1
  6
CONTINUOUS
 62
    7
 10
2116.9842506667164
 20
1205.6906878466075
 11
2115.6900455185078
 21
1208.4326480348241
  0
LINE
  8
_0-1_レイヤ___1
  6
CONTINUOUS
 62
    7
 10
2115.6900455185078
 20
1208.4326480348241
 11
2113.9335535634291
 21
1210.910925641685
  0
LINE
  8
_0-1_レイヤ___1
  6
CONTINUOUS
 62
    7
 10
2113.9335535634291
 20
1210.910925641685
 11
2111.768144920708
 21
1213.0502194561748
  0
LINE
  8
_0-1_レイヤ___1
  6
CONTINUOUS
 62
    7
 10
2111.768144920708
 20
1213.0502194561748
 11
2109.2596144362042
 21
1214.7855281182751
  0
LINE
  8
_0-1_レイヤ___1
  6
CONTINUOUS
 62
    7
 10
2109.2596144362042
 20
1214.7855281182751
 11
2106.484182539311
 21
1216.0641251523966
  0
LINE
  8
_0-1_レイヤ___1
  6
CONTINUOUS
 62
    7
 10
2106.484182539311
 20
1216.0641251523966
 11
2103.5261793237796
 21
1216.8471610346589
  0
LINE
  8
_0-1_レイヤ___1
  6
CONTINUOUS
 62
    7
 10
2103.5261793237796
 20
1216.8471610346589
 11
2100.4754822204923
 21
1217.1108436160143
  0
LINE
  8
_0-1_レイヤ___1
  6
CONTINUOUS
 62
    7
 10
2100.4754822204923
 20
1217.1108436160143
 11
2097.4247851172049
 21
1216.8471610346589
  0
LINE
  8
_0-1_レイヤ___1
  6
CONTINUOUS
 62
    7
 10
2097.4247851172049
 20
1216.8471610346589
 11
2094.4667819016736
 21
1216.0641251523966
  0
LINE
  8
_0-1_レイヤ___1
  6
CONTINUOUS
 62
    7
 10
2094.4667819016736
 20
1216.0641251523966
 11
2091.6913500047804
 21
1214.7855281182751
  0
LINE
  8
_0-1_レイヤ___1
  6
CONTINUOUS
 62
    7
 10
2091.6913500047804
 20
1214.7855281182751
 11
2089.1828195202766
 21
1213.0502194561748
  0
LINE
  8
_0-1_レイヤ___1
  6
CONTINUOUS
 62
    7
 10
2089.1828195202766
 20
1213.0502194561748
 11
2087.0174108775554
 21
1210.910925641685
  0
LINE
  8
_0-1_レイヤ___1
  6
CONTINUOUS
 62
    7
 10
2087.0174108775554
 20
1210.910925641685
 11
2085.2609189224768
 21
1208.4326480348241
  0
LINE
  8
_0-1_レイヤ___1
  6
CONTINUOUS
 62
    7
 10
2085.2609189224768
 20
1208.4326480348241
 11
2083.9667137742681
 21
1205.6906878466077
  0
LINE
  8
_0-1_レイヤ___1
  6
CONTINUOUS
 62
    7
 10
2083.9667137742681
 20
1205.6906878466077
 11
2083.1741192014579
 21
1202.7683581498557
  0
LINE
  8
_0-1_レイヤ___1
  6
CONTINUOUS
 62
    7
 10
2083.1741192014579
 20
1202.7683581498557
 11
2082.9072177890685
 21
1199.7544524536338
  0
LINE
  8
_0-1_レイヤ___1
  6
CONTINUOUS
 62
    7
 10
2082.9072177890685
 20
1199.7544524536338
 11
2083.1741192014579
 21
1196.7405467574119
  0
LINE
  8
_0-1_レイヤ___1
  6
CONTINUOUS
 62
    7
 10
2083.1741192014579
 20
1196.7405467574119
 11
2083.9667137742681
 21
1193.8182170606601
  0
LINE
  8
_0-1_レイヤ___1
  6
CONTINUOUS
 62
    7
 10
2083.9667137742681
 20
1193.8182170606601
 11
2085.2609189224768
 21
1191.0762568724435
  0
LINE
  8
_0-1_レイヤ___1
  6
CONTINUOUS
 62
    7
 10
2085.2609189224768
 20
1191.0762568724435
 11
2087.0174108775554
 21
1188.5979792655826
  0
LINE
  8
_0-1_レイヤ___1
  6
CONTINUOUS
 62
    7
 10
2087.0174108775554
 20
1188.5979792655826
 11
2089.1828195202766
 21
1186.4586854510928
  0
LINE
  8
_0-1_レイヤ___1
  6
CONTINUOUS
 62
    7
 10
2089.1828195202766
 20
1186.4586854510928
 11
2091.6913500047804
 21
1184.7233767889925
  0
LINE
  8
_0-1_レイヤ___1
  6
CONTINUOUS
 62
    7
 10
2091.6913500047804
 20
1184.7233767889925
 11
2094.4667819016736
 21
1183.444779754871
  0
LINE
  8
_0-1_レイヤ___1
  6
CONTINUOUS
 62
    7
 10
2094.4667819016736
 20
1183.444779754871
 11
2097.4247851172049
 21
1182.6617438726089
  0
LINE
  8
_0-1_レイヤ___1
  6
CONTINUOUS
 62
    7
 10
2097.4247851172049
 20
1182.6617438726089
 11
2100.4754822204923
 21
1182.3980612912533
  0
LINE
  8
_0-1_レイヤ___1
  6
CONTINUOUS
 62
    7
 10
2100.4754822204923
 20
1182.3980612912533
 11
2103.5261793237796
 21
1182.6617438726087
  0
LINE
  8
_0-1_レイヤ___1
  6
CONTINUOUS
 62
    7
 10
2103.5261793237796
 20
1182.6617438726087
 11
2106.484182539311
 21
1183.444779754871
  0
LINE
  8
_0-1_レイヤ___1
  6
CONTINUOUS
 62
    7
 10
2106.484182539311
 20
1183.444779754871
 11
2109.2596144362042
 21
1184.7233767889925
  0
LINE
  8
_0-1_レイヤ___1
  6
CONTINUOUS
 62
    7
 10
2109.2596144362042
 20
1184.7233767889925
 11
2111.768144920708
 21
1186.4586854510928
  0
LINE
  8
_0-1_レイヤ___1
  6
CONTINUOUS
 62
    7
 10
2111.768144920708
 20
1186.4586854510928
 11
2113.9335535634291
 21
1188.5979792655826
  0
LINE
  8
_0-1_レイヤ___1
  6
CONTINUOUS
 62
    7
 10
2113.9335535634291
 20
1188.5979792655826
 11
2115.6900455185078
 21
1191.0762568724433
  0
LINE
  8
_0-1_レイヤ___1
  6
CONTINUOUS
 62
    7
 10
2115.6900455185078
 20
1191.0762568724433
 11
2116.9842506667164
 21
1193.8182170606599
  0
LINE
  8
_0-1_レイヤ___1
  6
CONTINUOUS
 62
    7
 10
2116.9842506667164
 20
1193.8182170606599
 11
2117.7768452395267
 21
1196.7405467574119
  0
LINE
  8
_0-1_レイヤ___1
  6
CONTINUOUS
 62
    7
 10
2117.7768452395267
 20
1196.7405467574119
 11
2118.0437466519161
 21
1199.7544524536338
  0
LINE
  8
_0-1_レイヤ___1
  6
CONTINUOUS
 62
    7
 10
2118.0437466519161
 20
1199.7544524536338
 11
2118.0437466519161
 21
1199.7544524536338
  0
LINE
  8
_0-1_レイヤ___1
  6
CONTINUOUS
 62
    7
 10
2100.2636022204915
 20
1167.1586824536337
 11
2100.2636022204915
 21
1179.8590324536337
  0
LINE
  8
_0-1_レイヤ___1
  6
CONTINUOUS
 62
    7
 10
2100.2636022204915
 20
1184.0913324536339
 11
2100.2636022204915
 21
1185.3608424536337
  0
LINE
  8
_0-1_レイヤ___1
  6
CONTINUOUS
 62
    7
 10
2100.2636022204915
 20
1188.3253524536337
 11
2100.2636022204915
 21
1189.5948724536338
  0
LINE
  8
_0-1_レイヤ___1
  6
CONTINUOUS
 62
    7
 10
2100.2636022204915
 20
1192.5576524536339
 11
2100.2636022204915
 21
1205.2579924536337
  0
LINE
  8
_0-1_レイヤ___1
  6
CONTINUOUS
 62
    7
 10
2100.2636022204915
 20
1209.4920124536338
 11
2100.2636022204915
 21
1210.7615324536337
  0
LINE
  8
_0-1_レイヤ___1
  6
CONTINUOUS
 62
    7
 10
2100.2636022204915
 20
1213.7243124536337
 11
2100.2636022204915
 21
1214.9955524536338
  0
LINE
  8
_0-1_レイヤ___1
  6
CONTINUOUS
 62
    7
 10
2100.2636022204915
 20
1217.9583424536338
 11
2100.2636022204915
 21
1230.6586824536339
  0
LINE
  8
_0-1_レイヤ___1
  6
CONTINUOUS
 62
    7
 10
2100.2636022204915
 20
1231.5044524536338
 11
2100.2636022204915
 21
1232.3519524536337
  0
LINE
  8
_0-1_レイヤ___1
  6
CONTINUOUS
 62
    7
 10
2202.286662220492
 20
1167.1586824536337
 11
2202.286662220492
 21
1179.8590324536337
  0
LINE
  8
_0-1_レイヤ___1
  6
CONTINUOUS
 62
    7
 10
2202.286662220492
 20
1184.0913324536339
 11
2202.286662220492
 21
1185.3608424536337
  0
LINE
  8
_0-1_レイヤ___1
  6
CONTINUOUS
 62
    7
 10
2202.286662220492
 20
1188.3253524536337
 11
2202.286662220492
 21
1189.5948724536338
  0
LINE
  8
_0-1_レイヤ___1
  6
CONTINUOUS
 62
    7
 10
2202.286662220492
 20
1192.5576524536339
 11
2202.286662220492
 21
1205.2579924536337
  0
LINE
  8
_0-1_レイヤ___1
  6
CONTINUOUS
 62
    7
 10
2202.286662220492
 20
1209.4920124536338
 11
2202.286662220492
 21
1210.7615324536337
  0
LINE
  8
_0-1_レイヤ___1
  6
CONTINUOUS
 62
    7
 10
2202.286662220492
 20
1213.7243124536337
 11
2202.286662220492
 21
1214.9955524536338
  0
LINE
  8
_0-1_レイヤ___1
  6
CONTINUOUS
 62
    7
 10
2202.286662220492
 20
1217.9583424536338
 11
2202.286662220492
 21
1230.6586824536339
  0
LINE
  8
_0-1_レイヤ___1
  6
CONTINUOUS
 62
    7
 10
2373.7387322204922
 20
1199.7544524536338
 11
2386.4373522204919
 21
1199.7544524536338
  0
LINE
  8
_0-1_レイヤ___1
  6
CONTINUOUS
 62
    7
 10
2390.6713722204922
 20
1199.7544524536338
 11
2391.9426122204918
 21
1199.7544524536338
  0
LINE
  8
_0-1_レイヤ___1
  6
CONTINUOUS
 62
    7
 10
2394.9054022204919
 20
1199.7544524536338
 11
2396.1731922204917
 21
1199.7544524536338
  0
LINE
  8
_0-1_レイヤ___1
  6
CONTINUOUS
 62
    7
 10
2399.135972220492
 20
1199.7544524536338
 11
2411.8380422204918
 21
1199.7544524536338
  0
LINE
  8
_0-1_レイヤ___1
  6
CONTINUOUS
 62
    7
 10
2416.0720622204917
 20
1199.7544524536338
 11
2417.3398622204918
 21
1199.7544524536338
  0
LINE
  8
_0-1_レイヤ___1
  6
CONTINUOUS
 62
    7
 10
2420.3026422204921
 20
1199.7544524536338
 11
2421.5738822204917
 21
1199.7544524536338
  0
LINE
  8
_0-1_レイヤ___1
  6
CONTINUOUS
 62
    7
 10
2424.536662220492
 20
1199.7544524536338
 11
2437.2387322204918
 21
1199.7544524536338
  0
LINE
  8
_0-1_レイヤ___1
  6
CONTINUOUS
 62
    7
 10
2438.0827822204919
 20
1199.7544524536338
 11
2438.9302722204916
 21
1199.7544524536338
  0
LINE
  8
_0-1_レイヤ___1
  6
CONTINUOUS
 62
    7
 10
2424.1129166519154
 20
1199.7544524536338
 11
2424.1129166519154
 21
1199.7544524536338
  0
LINE
  8
_0-1_レイヤ___1
  6
CONTINUOUS
 62
    7
 10
2424.1129166519154
 20
1199.7544524536338
 11
2423.846015239526
 21
1202.7683581498557
  0
LINE
  8
_0-1_レイヤ___1
  6
CONTINUOUS
 62
    7
 10
2423.846015239526
 20
1202.7683581498557
 11
2423.0534206667157
 21
1205.6906878466075
  0
LINE
  8
_0-1_レイヤ___1
  6
CONTINUOUS
 62
    7
 10
2423.0534206667157
 20
1205.6906878466075
 11
2421.7592155185071
 21
1208.4326480348241
  0
LINE
  8
_0-1_レイヤ___1
  6
CONTINUOUS
 62
    7
 10
2421.7592155185071
 20
1208.4326480348241
 11
2420.0027235634284
 21
1210.910925641685
  0
LINE
  8
_0-1_レイヤ___1
  6
CONTINUOUS
 62
    7
 10
2420.0027235634284
 20
1210.910925641685
 11
2417.8373149207073
 21
1213.0502194561748
  0
LINE
  8
_0-1_レイヤ___1
  6
CONTINUOUS
 62
    7
 10
2417.8373149207073
 20
1213.0502194561748
 11
2415.3287844362035
 21
1214.7855281182751
  0
LINE
  8
_0-1_レイヤ___1
  6
CONTINUOUS
 62
    7
 10
2415.3287844362035
 20
1214.7855281182751
 11
2412.5533525393103
 21
1216.0641251523966
  0
LINE
  8
_0-1_レイヤ___1
  6
CONTINUOUS
 62
    7
 10
2412.5533525393103
 20
1216.0641251523966
 11
2409.5953493237789
 21
1216.8471610346589
  0
LINE
  8
_0-1_レイヤ___1
  6
CONTINUOUS
 62
    7
 10
2409.5953493237789
 20
1216.8471610346589
 11
2406.5446522204916
 21
1217.1108436160143
  0
LINE
  8
_0-1_レイヤ___1
  6
CONTINUOUS
 62
    7
 10
2406.5446522204916
 20
1217.1108436160143
 11
2403.4939551172042
 21
1216.8471610346589
  0
LINE
  8
_0-1_レイヤ___1
  6
CONTINUOUS
 62
    7
 10
2403.4939551172042
 20
1216.8471610346589
 11
2400.5359519016729
 21
1216.0641251523966
  0
LINE
  8
_0-1_レイヤ___1
  6
CONTINUOUS
 62
    7
 10
2400.5359519016729
 20
1216.0641251523966
 11
2397.7605200047797
 21
1214.7855281182751
  0
LINE
  8
_0-1_レイヤ___1
  6
CONTINUOUS
 62
    7
 10
2397.7605200047797
 20
1214.7855281182751
 11
2395.2519895202759
 21
1213.0502194561748
  0
LINE
  8
_0-1_レイヤ___1
  6
CONTINUOUS
 62
    7
 10
2395.2519895202759
 20
1213.0502194561748
 11
2393.0865808775548
 21
1210.910925641685
  0
LINE
  8
_0-1_レイヤ___1
  6
CONTINUOUS
 62
    7
 10
2393.0865808775548
 20
1210.910925641685
 11
2391.3300889224761
 21
1208.4326480348241
  0
LINE
  8
_0-1_レイヤ___1
  6
CONTINUOUS
 62
    7
 10
2391.3300889224761
 20
1208.4326480348241
 11
2390.0358837742674
 21
1205.6906878466077
  0
LINE
  8
_0-1_レイヤ___1
  6
CONTINUOUS
 62
    7
 10
2390.0358837742674
 20
1205.6906878466077
 11
2389.2432892014572
 21
1202.7683581498557
  0
LINE
  8
_0-1_レイヤ___1
  6
CONTINUOUS
 62
    7
 10
2389.2432892014572
 20
1202.7683581498557
 11
2388.9763877890678
 21
1199.7544524536338
  0
LINE
  8
_0-1_レイヤ___1
  6
CONTINUOUS
 62
    7
 10
2388.9763877890678
 20
1199.7544524536338
 11
2389.2432892014572
 21
1196.7405467574119
  0
LINE
  8
_0-1_レイヤ___1
  6
CONTINUOUS
 62
    7
 10
2389.2432892014572
 20
1196.7405467574119
 11
2390.0358837742674
 21
1193.8182170606601
  0
LINE
  8
_0-1_レイヤ___1
  6
CONTINUOUS
 62
    7
 10
2390.0358837742674
 20
1193.8182170606601
 11
2391.3300889224761
 21
1191.0762568724435
  0
LINE
  8
_0-1_レイヤ___1
  6
CONTINUOUS
 62
    7
 10
2391.3300889224761
 20
1191.0762568724435
 11
2393.0865808775548
 21
1188.5979792655826
  0
LINE
  8
_0-1_レイヤ___1
  6
CONTINUOUS
 62
    7
 10
2393.0865808775548
 20
1188.5979792655826
 11
2395.2519895202759
 21
1186.4586854510928
  0
LINE
  8
_0-1_レイヤ___1
  6
CONTINUOUS
 62
    7
 10
2395.2519895202759
 20
1186.4586854510928
 11
2397.7605200047797
 21
1184.7233767889925
  0
LINE
  8
_0-1_レイヤ___1
  6
CONTINUOUS
 62
    7
 10
2397.7605200047797
 20
1184.7233767889925
 11
2400.5359519016729
 21
1183.444779754871
  0
LINE
  8
_0-1_レイヤ___1
  6
CONTINUOUS
 62
    7
 10
2400.5359519016729
 20
1183.444779754871
 11
2403.4939551172042
 21
1182.6617438726089
  0
LINE
  8
_0-1_レイヤ___1
  6
CONTINUOUS
 62
    7
 10
2403.4939551172042
 20
1182.6617438726089
 11
2406.5446522204916
 21
1182.3980612912533
  0
LINE
  8
_0-1_レイヤ___1
  6
CONTINUOUS
 62
    7
 10
2406.5446522204916
 20
1182.3980612912533
 11
2409.5953493237789
 21
1182.6617438726087
  0
LINE
  8
_0-1_レイヤ___1
  6
CONTINUOUS
 62
    7
 10
2409.5953493237789
 20
1182.6617438726087
 11
2412.5533525393103
 21
1183.444779754871
  0
LINE
  8
_0-1_レイヤ___1
  6
CONTINUOUS
 62
    7
 10
2412.5533525393103
 20
1183.444779754871
 11
2415.3287844362035
 21
1184.7233767889925
  0
LINE
  8
_0-1_レイヤ___1
  6
CONTINUOUS
 62
    7
 10
2415.3287844362035
 20
1184.7233767889925
 11
2417.8373149207073
 21
1186.4586854510928
  0
LINE
  8
_0-1_レイヤ___1
  6
CONTINUOUS
 62
    7
 10
2417.8373149207073
 20
1186.4586854510928
 11
2420.0027235634284
 21
1188.5979792655826
  0
LINE
  8
_0-1_レイヤ___1
  6
CONTINUOUS
 62
    7
 10
2420.0027235634284
 20
1188.5979792655826
 11
2421.7592155185071
 21
1191.0762568724433
  0
LINE
  8
_0-1_レイヤ___1
  6
CONTINUOUS
 62
    7
 10
2421.7592155185071
 20
1191.0762568724433
 11
2423.0534206667157
 21
1193.8182170606599
  0
LINE
  8
_0-1_レイヤ___1
  6
CONTINUOUS
 62
    7
 10
2423.0534206667157
 20
1193.8182170606599
 11
2423.846015239526
 21
1196.7405467574119
  0
LINE
  8
_0-1_レイヤ___1
  6
CONTINUOUS
 62
    7
 10
2423.846015239526
 20
1196.7405467574119
 11
2424.1129166519154
 21
1199.7544524536338
  0
LINE
  8
_0-1_レイヤ___1
  6
CONTINUOUS
 62
    7
 10
2424.1129166519154
 20
1199.7544524536338
 11
2424.1129166519154
 21
1199.7544524536338
  0
LINE
  8
_0-1_レイヤ___1
  6
CONTINUOUS
 62
    7
 10
2406.3327822204919
 20
1167.1586824536337
 11
2406.3327822204919
 21
1179.8590324536337
  0
LINE
  8
_0-1_レイヤ___1
  6
CONTINUOUS
 62
    7
 10
2406.3327822204919
 20
1184.0913324536339
 11
2406.3327822204919
 21
1185.3608424536337
  0
LINE
  8
_0-1_レイヤ___1
  6
CONTINUOUS
 62
    7
 10
2406.3327822204919
 20
1188.3253524536337
 11
2406.3327822204919
 21
1189.5948724536338
  0
LINE
  8
_0-1_レイヤ___1
  6
CONTINUOUS
 62
    7
 10
2406.3327822204919
 20
1192.5576524536339
 11
2406.3327822204919
 21
1205.2579924536337
  0
LINE
  8
_0-1_レイヤ___1
  6
CONTINUOUS
 62
    7
 10
2406.3327822204919
 20
1209.4920124536338
 11
2406.3327822204919
 21
1210.7615324536337
  0
LINE
  8
_0-1_レイヤ___1
  6
CONTINUOUS
 62
    7
 10
2406.3327822204919
 20
1213.7243124536337
 11
2406.3327822204919
 21
1214.9955524536338
  0
LINE
  8
_0-1_レイヤ___1
  6
CONTINUOUS
 62
    7
 10
2406.3327822204919
 20
1217.9583424536338
 11
2406.3327822204919
 21
1230.6586824536339
  0
LINE
  8
_0-1_レイヤ___1
  6
CONTINUOUS
 62
    7
 10
2406.3327822204919
 20
1231.5044524536338
 11
2406.3327822204919
 21
1232.3519524536337
  0
LINE
  8
_0-1_レイヤ___1
  6
CONTINUOUS
 62
    7
 10
2202.286662220492
 20
1061.7490924536337
 11
2202.286662220492
 21
1093.4990924536339
  0
LINE
  8
_0-1_レイヤ___1
  6
CONTINUOUS
 62
    7
 10
2202.286662220492
 20
1104.0824324536338
 11
2202.286662220492
 21
1107.4689624536338
  0
LINE
  8
_0-1_レイヤ___1
  6
CONTINUOUS
 62
    7
 10
2202.286662220492
 20
1114.6657624536338
 11
2202.286662220492
 21
1146.4157624536338
  0
LINE
  8
_0-1_レイヤ___1
  6
CONTINUOUS
 62
    7
 10
2202.286662220492
 20
1156.9990924536339
 11
2202.286662220492
 21
1160.3856224536339
  0
LINE
  8
_0-1_レイヤ___1
  6
CONTINUOUS
 62
    7
 10
2202.286662220492
 20
1167.5824324536338
 11
2202.286662220492
 21
1199.3307024536339
  0
LINE
  8
_0-1_レイヤ___1
  6
CONTINUOUS
 62
    7
 10
2202.286662220492
 20
1209.9140424536338
 11
2202.286662220492
 21
1213.3022924536338
  0
LINE
  8
_0-1_レイヤ___1
  6
CONTINUOUS
 62
    7
 10
2202.286662220492
 20
1220.4973724536339
 11
2202.286662220492
 21
1232.3519524536337
  0
LINE
  8
_0-1_レイヤ___1
  6
CONTINUOUS
 62
    5
 10
2744.9994422204918
 20
1424.9689624536338
 11
1677.3540222204917
 21
1424.9689624536338
  0
LINE
  8
_0-1_レイヤ___1
  6
CONTINUOUS
 62
    5
 10
1677.3540222204917
 20
1424.9689624536338
 11
1677.3540222204917
 21
1003.7509124536339
  0
LINE
  8
_0-1_レイヤ___1
  6
CONTINUOUS
 62
    5
 10
1677.3540222204917
 20
1003.7509124536339
 11
2744.9994422204918
 21
1003.7509124536339
  0
LINE
  8
_0-1_レイヤ___1
  6
CONTINUOUS
 62
    5
 10
2744.9994422204918
 20
1003.7509124536339
 11
2744.9994422204918
 21
1424.9689624536338
  0
LINE
  8
_0-1_レイヤ___1
  6
CONTINUOUS
 62
    5
 10
2100.2636022204915
 20
1252.2473724536337
 11
2100.2636022204915
 21
1333.9512624536337
  0
LINE
  8
_0-1_レイヤ___1
  6
CONTINUOUS
 62
    5
 10
2202.286662220492
 20
1252.2473724536337
 11
2202.286662220492
 21
1333.9512624536337
  0
LINE
  8
_0-1_レイヤ___1
  6
CONTINUOUS
 62
    5
 10
2100.4772047682354
 20
1327.6019480612729
 11
2100.4772047682354
 21
1327.6019480612729
  0
LINE
  8
_0-1_レイヤ___1
  6
CONTINUOUS
 62
    5
 10
2100.4772047682354
 20
1327.6019480612729
 11
2099.8523227493852
 21
1327.5443438977113
  0
LINE
  8
_0-1_レイヤ___1
  6
CONTINUOUS
 62
    5
 10
2099.8523227493852
 20
1327.5443438977113
 11
2099.2463751157311
 21
1327.3727167112647
  0
LINE
  8
_0-1_レイヤ___1
  6
CONTINUOUS
 62
    5
 10
2099.2463751157311
 20
1327.3727167112647
 11
2098.6777732794967
 21
1327.0922813071461
  0
LINE
  8
_0-1_レイヤ___1
  6
CONTINUOUS
 62
    5
 10
2098.6777732794967
 20
1327.0922813071461
 11
2098.1637939197499
 21
1326.711558573202
  0
LINE
  8
_0-1_レイヤ___1
  6
CONTINUOUS
 62
    5
 10
2098.1637939197499
 20
1326.711558573202
 11
2097.7200540392505
 21
1326.2421165770486
  0
LINE
  8
_0-1_レイヤ___1
  6
CONTINUOUS
 62
    5
 10
2097.7200540392505
 20
1326.2421165770486
 11
2097.3600364497242
 21
1325.6982190761896
  0
LINE
  8
_0-1_レイヤ___1
  6
CONTINUOUS
 62
    5
 10
2097.3600364497242
 20
1325.6982190761896
 11
2097.0946801034511
 21
1325.0963921209636
  0
LINE
  8
_0-1_レイヤ___1
  6
CONTINUOUS
 62
    5
 10
2097.0946801034511
 20
1325.0963921209636
 11
2096.9320477187357
 21
1324.4549219188657
  0
LINE
  8
_0-1_レイヤ___1
  6
CONTINUOUS
 62
    5
 10
2096.9320477187357
 20
1324.4549219188657
 11
2096.8770807982919
 21
1323.7932992173871
  0
LINE
  8
_0-1_レイヤ___1
  6
CONTINUOUS
 62
    5
 10
2096.8770807982919
 20
1323.7932992173871
 11
2096.9314494841824
 21
1323.1316270875152
  0
LINE
  8
_0-1_レイヤ___1
  6
CONTINUOUS
 62
    5
 10
2096.9314494841824
 20
1323.1316270875152
 11
2097.0935018113992
 21
1322.4900101020937
  0
LINE
  8
_0-1_レイヤ___1
  6
CONTINUOUS
 62
    5
 10
2097.0935018113992
 20
1322.4900101020937
 11
2097.3583139019811
 21
1321.8879434685507
  0
LINE
  8
_0-1_レイヤ___1
  6
CONTINUOUS
 62
    5
 10
2097.3583139019811
 20
1321.8879434685507
 11
2097.7178395745577
 21
1321.3437206768863
  0
LINE
  8
_0-1_レイヤ___1
  6
CONTINUOUS
 62
    5
 10
2097.7178395745577
 20
1321.3437206768863
 11
2098.1611548234969
 21
1320.8738776612349
  0
LINE
  8
_0-1_レイヤ___1
  6
CONTINUOUS
 62
    5
 10
2098.1611548234969
 20
1320.8738776612349
 11
2098.6747897392875
 21
1320.4926903638752
  0
LINE
  8
_0-1_レイヤ___1
  6
CONTINUOUS
 62
    5
 10
2098.6747897392875
 20
1320.4926903638752
 11
2099.2431377849248
 21
1320.2117409679472
  0
LINE
  8
_0-1_レイヤ___1
  6
CONTINUOUS
 62
    5
 10
2099.2431377849248
 20
1320.2117409679472
 11
2099.8489299926409
 21
1320.0395659786791
  0
LINE
  8
_0-1_レイヤ___1
  6
CONTINUOUS
 62
    5
 10
2099.8489299926409
 20
1320.0395659786791
 11
2100.4737596727491
 21
1319.9813968459951
  0
LINE
  8
_0-1_レイヤ___1
  6
CONTINUOUS
 62
    5
 10
2100.4737596727491
 20
1319.9813968459951
 11
2101.0986416915994
 21
1320.0390010095566
  0
LINE
  8
_0-1_レイヤ___1
  6
CONTINUOUS
 62
    5
 10
2101.0986416915994
 20
1320.0390010095566
 11
2101.7045893252534
 21
1320.2106281960032
  0
LINE
  8
_0-1_レイヤ___1
  6
CONTINUOUS
 62
    5
 10
2101.7045893252534
 20
1320.2106281960032
 11
2102.2731911614878
 21
1320.4910636001218
  0
LINE
  8
_0-1_レイヤ___1
  6
CONTINUOUS
 62
    5
 10
2102.2731911614878
 20
1320.4910636001218
 11
2102.7871705212347
 21
1320.871786334066
  0
LINE
  8
_0-1_レイヤ___1
  6
CONTINUOUS
 62
    5
 10
2102.7871705212347
 20
1320.871786334066
 11
2103.230910401734
 21
1321.3412283302193
  0
LINE
  8
_0-1_レイヤ___1
  6
CONTINUOUS
 62
    5
 10
2103.230910401734
 20
1321.3412283302193
 11
2103.5909279912603
 21
1321.8851258310783
  0
LINE
  8
_0-1_レイヤ___1
  6
CONTINUOUS
 62
    5
 10
2103.5909279912603
 20
1321.8851258310783
 11
2103.8562843375335
 21
1322.4869527863043
  0
LINE
  8
_0-1_レイヤ___1
  6
CONTINUOUS
 62
    5
 10
2103.8562843375335
 20
1322.4869527863043
 11
2104.0189167222488
 21
1323.1284229884022
  0
LINE
  8
_0-1_レイヤ___1
  6
CONTINUOUS
 62
    5
 10
2104.0189167222488
 20
1323.1284229884022
 11
2104.0738836426926
 21
1323.7900456898808
  0
LINE
  8
_0-1_レイヤ___1
  6
CONTINUOUS
 62
    5
 10
2104.0738836426926
 20
1323.7900456898808
 11
2104.0195149568021
 21
1324.4517178197527
  0
LINE
  8
_0-1_レイヤ___1
  6
CONTINUOUS
 62
    5
 10
2104.0195149568021
 20
1324.4517178197527
 11
2103.8574626295854
 21
1325.0933348051742
  0
LINE
  8
_0-1_レイヤ___1
  6
CONTINUOUS
 62
    5
 10
2103.8574626295854
 20
1325.0933348051742
 11
2103.5926505390034
 21
1325.6954014387172
  0
LINE
  8
_0-1_レイヤ___1
  6
CONTINUOUS
 62
    5
 10
2103.5926505390034
 20
1325.6954014387172
 11
2103.2331248664268
 21
1326.2396242303817
  0
LINE
  8
_0-1_レイヤ___1
  6
CONTINUOUS
 62
    5
 10
2103.2331248664268
 20
1326.2396242303817
 11
2102.7898096174877
 21
1326.709467246033
  0
LINE
  8
_0-1_レイヤ___1
  6
CONTINUOUS
 62
    5
 10
2102.7898096174877
 20
1326.709467246033
 11
2102.2761747016971
 21
1327.0906545433927
  0
LINE
  8
_0-1_レイヤ___1
  6
CONTINUOUS
 62
    5
 10
2102.2761747016971
 20
1327.0906545433927
 11
2101.7078266560598
 21
1327.3716039393207
  0
LINE
  8
_0-1_レイヤ___1
  6
CONTINUOUS
 62
    5
 10
2101.7078266560598
 20
1327.3716039393207
 11
2101.1020344483436
 21
1327.5437789285888
  0
LINE
  8
_0-1_レイヤ___1
  6
CONTINUOUS
 62
    5
 10
2101.1020344483436
 20
1327.5437789285888
 11
2100.4772047682354
 21
1327.6019480612729
  0
LINE
  8
_0-1_レイヤ___1
  6
CONTINUOUS
 62
    5
 10
2100.4772047682354
 20
1327.6019480612729
 11
2100.4772047682354
 21
1327.6019480612729
  0
CIRCLE
  8
_0-1_レイヤ___1
  6
CONTINUOUS
 62
    5
 10
2202.286662220492
 20
1323.791672453634
 40
3.8102799999999997
  0
LINE
  8
_0-1_レイヤ___1
  6
CONTINUOUS
 62
    5
 10
2100.2636022204915
 20
1323.791672453634
 11
2202.286662220492
 21
1323.791672453634
  0
LINE
  8
_0-1_レイヤ___1
  6
CONTINUOUS
 62
    5
 10
1880.9763922204916
 20
1349.6143824536339
 11
2010.5188722204916
 21
1349.6143824536339
  0
LINE
  8
_0-1_レイヤ___1
  6
CONTINUOUS
 62
    5
 10
2084.1784522204921
 20
1222.1923624536339
 11
2078.6731922204917
 21
1242.0877924536339
  0
LINE
  8
_0-1_レイヤ___1
  6
CONTINUOUS
 62
    5
 10
2078.6731922204917
 20
1242.0877924536339
 11
2069.3611022204918
 21
1237.007992453634
  0
LINE
  8
_0-1_レイヤ___1
  6
CONTINUOUS
 62
    5
 10
2069.3611022204918
 20
1237.007992453634
 11
2084.1784522204921
 21
1222.1923624536339
  0
LINE
  8
_0-1_レイヤ___1
  6
CONTINUOUS
 62
    5
 10
2010.5188722204916
 20
1349.6143824536339
 11
2079.0969422204921
 21
1230.6586824536339
  0
LINE
  8
_0-1_レイヤ___1
  6
CONTINUOUS
 62
    5
 10
2304.3097222204919
 20
1252.2473724536337
 11
2304.3097222204919
 21
1333.9512624536337
  0
LINE
  8
_0-1_レイヤ___1
  6
CONTINUOUS
 62
    5
 10
2202.286662220492
 20
1252.2473724536337
 11
2202.286662220492
 21
1333.9512624536337
  0
CIRCLE
  8
_0-1_レイヤ___1
  6
CONTINUOUS
 62
    5
 10
2304.3097222204919
 20
1323.791672453634
 40
3.8102799999999997
  0
CIRCLE
  8
_0-1_レイヤ___1
  6
CONTINUOUS
 62
    5
 10
2202.286662220492
 20
1323.791672453634
 40
3.8102799999999997
  0
LINE
  8
_0-1_レイヤ___1
  6
CONTINUOUS
 62
    5
 10
2304.3097222204919
 20
1323.791672453634
 11
2202.286662220492
 21
1323.791672453634
  0
LINE
  8
_0-1_レイヤ___1
  6
CONTINUOUS
 62
    5
 10
2406.3327822204919
 20
1252.2473724536337
 11
2406.3327822204919
 21
1333.9512624536337
  0
LINE
  8
_0-1_レイヤ___1
  6
CONTINUOUS
 62
    5
 10
2304.3097222204919
 20
1252.2473724536337
 11
2304.3097222204919
 21
1333.9512624536337
  0
CIRCLE
  8
_0-1_レイヤ___1
  6
CONTINUOUS
 62
    5
 10
2406.3345022204921
 20
1323.791672453634
 40
3.8085499999999999
  0
CIRCLE
  8
_0-1_レイヤ___1
  6
CONTINUOUS
 62
    5
 10
2304.3097222204919
 20
1323.791672453634
 40
3.8102799999999997
  0
LINE
  8
_0-1_レイヤ___1
  6
CONTINUOUS
 62
    5
 10
2406.3327822204919
 20
1323.791672453634
 11
2304.3097222204919
 21
1323.791672453634
  0
LINE
  8
_0-1_レイヤ___1
  6
CONTINUOUS
 62
    5
 10
2047.7706822204918
 20
1199.7544524536338
 11
1978.3451222204917
 21
1199.7544524536338
  0
LINE
  8
_0-1_レイヤ___1
  6
CONTINUOUS
 62
    5
 10
2036.339862220492
 20
1261.5611924536338
 11
1978.3451222204917
 21
1261.5611924536338
  0
CIRCLE
  8
_0-1_レイヤ___1
  6
CONTINUOUS
 62
    5
 10
1988.5047122204919
 20
1199.7544524536338
 40
3.8102799999999997
  0
LINE
  8
_0-1_レイヤ___1
  6
CONTINUOUS
 62
    5
 10
1992.3149878281308
 20
1261.7730624536339
 11
1992.3149878281308
 21
1261.7730624536339
  0
LINE
  8
_0-1_レイヤ___1
  6
CONTINUOUS
 62
    5
 10
1992.3149878281308
 20
1261.7730624536339
 11
1992.257101180008
 21
1262.3979183031131
  0
LINE
  8
_0-1_レイヤ___1
  6
CONTINUOUS
 62
    5
 10
1992.257101180008
 20
1262.3979183031131
 11
1992.0852000921507
 21
1263.0037882237982
  0
LINE
  8
_0-1_レイヤ___1
  6
CONTINUOUS
 62
    5
 10
1992.0852000921507
 20
1263.0037882237982
 11
1991.8045076921273
 21
1263.5722631647341
  0
LINE
  8
_0-1_レイヤ___1
  6
CONTINUOUS
 62
    5
 10
1991.8045076921273
 20
1263.5722631647341
 11
1991.4235526764755
 21
1264.0860703025028
  0
LINE
  8
_0-1_レイヤ___1
  6
CONTINUOUS
 62
    5
 10
1991.4235526764755
 20
1264.0860703025028
 11
1990.953910170573
 21
1264.529597867222
  0
LINE
  8
_0-1_レイヤ___1
  6
CONTINUOUS
 62
    5
 10
1990.953910170573
 20
1264.529597867222
 11
1990.4098500243113
 21
1264.8893694982735
  0
LINE
  8
_0-1_レイヤ___1
  6
CONTINUOUS
 62
    5
 10
1990.4098500243113
 20
1264.8893694982735
 11
1989.8079032299268
 21
1265.1544537167013
  0
LINE
  8
_0-1_レイヤ___1
  6
CONTINUOUS
 62
    5
 10
1989.8079032299268
 20
1265.1544537167013
 11
1989.1663596361673
 21
1265.3167960726671
  0
LINE
  8
_0-1_レイヤ___1
  6
CONTINUOUS
 62
    5
 10
1989.1663596361673
 20
1265.3167960726671
 11
1988.5047122204919
 21
1265.3714638758345
  0
LINE
  8
_0-1_レイヤ___1
  6
CONTINUOUS
 62
    5
 10
1988.5047122204919
 20
1265.3714638758345
 11
1987.8430648048165
 21
1265.3167960726671
  0
LINE
  8
_0-1_レイヤ___1
  6
CONTINUOUS
 62
    5
 10
1987.8430648048165
 20
1265.3167960726671
 11
1987.2015212110571
 21
1265.1544537167013
  0
LINE
  8
_0-1_レイヤ___1
  6
CONTINUOUS
 62
    5
 10
1987.2015212110571
 20
1265.1544537167013
 11
1986.5995744166726
 21
1264.8893694982735
  0
LINE
  8
_0-1_レイヤ___1
  6
CONTINUOUS
 62
    5
 10
1986.5995744166726
 20
1264.8893694982735
 11
1986.0555142704109
 21
1264.529597867222
  0
LINE
  8
_0-1_レイヤ___1
  6
CONTINUOUS
 62
    5
 10
1986.0555142704109
 20
1264.529597867222
 11
1985.5858717645083
 21
1264.0860703025028
  0
LINE
  8
_0-1_レイヤ___1
  6
CONTINUOUS
 62
    5
 10
1985.5858717645083
 20
1264.0860703025028
 11
1985.2049167488565
 21
1263.5722631647341
  0
LINE
  8
_0-1_レイヤ___1
  6
CONTINUOUS
 62
    5
 10
1985.2049167488565
 20
1263.5722631647341
 11
1984.9242243488331
 21
1263.0037882237982
  0
LINE
  8
_0-1_レイヤ___1
  6
CONTINUOUS
 62
    5
 10
1984.9242243488331
 20
1263.0037882237982
 11
1984.7523232609758
 21
1262.3979183031131
  0
LINE
  8
_0-1_レイヤ___1
  6
CONTINUOUS
 62
    5
 10
1984.7523232609758
 20
1262.3979183031131
 11
1984.694436612853
 21
1261.7730624536339
  0
LINE
  8
_0-1_レイヤ___1
  6
CONTINUOUS
 62
    5
 10
1984.694436612853
 20
1261.7730624536339
 11
1984.7523232609758
 21
1261.1482066041547
  0
LINE
  8
_0-1_レイヤ___1
  6
CONTINUOUS
 62
    5
 10
1984.7523232609758
 20
1261.1482066041547
 11
1984.9242243488331
 21
1260.5423366834696
  0
LINE
  8
_0-1_レイヤ___1
  6
CONTINUOUS
 62
    5
 10
1984.9242243488331
 20
1260.5423366834696
 11
1985.2049167488565
 21
1259.9738617425337
  0
LINE
  8
_0-1_レイヤ___1
  6
CONTINUOUS
 62
    5
 10
1985.2049167488565
 20
1259.9738617425337
 11
1985.5858717645083
 21
1259.460054604765
  0
LINE
  8
_0-1_レイヤ___1
  6
CONTINUOUS
 62
    5
 10
1985.5858717645083
 20
1259.460054604765
 11
1986.0555142704109
 21
1259.0165270400457
  0
LINE
  8
_0-1_レイヤ___1
  6
CONTINUOUS
 62
    5
 10
1986.0555142704109
 20
1259.0165270400457
 11
1986.5995744166726
 21
1258.6567554089943
  0
LINE
  8
_0-1_レイヤ___1
  6
CONTINUOUS
 62
    5
 10
1986.5995744166726
 20
1258.6567554089943
 11
1987.2015212110568
 21
1258.3916711905665
  0
LINE
  8
_0-1_レイヤ___1
  6
CONTINUOUS
 62
    5
 10
1987.2015212110568
 20
1258.3916711905665
 11
1987.8430648048165
 21
1258.2293288346007
  0
LINE
  8
_0-1_レイヤ___1
  6
CONTINUOUS
 62
    5
 10
1987.8430648048165
 20
1258.2293288346007
 11
1988.5047122204919
 21
1258.1746610314333
  0
LINE
  8
_0-1_レイヤ___1
  6
CONTINUOUS
 62
    5
 10
1988.5047122204919
 20
1258.1746610314333
 11
1989.166359636167
 21
1258.2293288346007
  0
LINE
  8
_0-1_レイヤ___1
  6
CONTINUOUS
 62
    5
 10
1989.166359636167
 20
1258.2293288346007
 11
1989.8079032299268
 21
1258.3916711905665
  0
LINE
  8
_0-1_レイヤ___1
  6
CONTINUOUS
 62
    5
 10
1989.8079032299268
 20
1258.3916711905665
 11
1990.4098500243113
 21
1258.6567554089943
  0
LINE
  8
_0-1_レイヤ___1
  6
CONTINUOUS
 62
    5
 10
1990.4098500243113
 20
1258.6567554089943
 11
1990.953910170573
 21
1259.0165270400457
  0
LINE
  8
_0-1_レイヤ___1
  6
CONTINUOUS
 62
    5
 10
1990.953910170573
 20
1259.0165270400457
 11
1991.4235526764755
 21
1259.460054604765
  0
LINE
  8
_0-1_レイヤ___1
  6
CONTINUOUS
 62
    5
 10
1991.4235526764755
 20
1259.460054604765
 11
1991.8045076921273
 21
1259.9738617425337
  0
LINE
  8
_0-1_レイヤ___1
  6
CONTINUOUS
 62
    5
 10
1991.8045076921273
 20
1259.9738617425337
 11
1992.0852000921507
 21
1260.5423366834696
  0
LINE
  8
_0-1_レイヤ___1
  6
CONTINUOUS
 62
    5
 10
1992.0852000921507
 20
1260.5423366834696
 11
1992.257101180008
 21
1261.1482066041547
  0
LINE
  8
_0-1_レイヤ___1
  6
CONTINUOUS
 62
    5
 10
1992.257101180008
 20
1261.1482066041547
 11
1992.3149878281308
 21
1261.7730624536339
  0
LINE
  8
_0-1_レイヤ___1
  6
CONTINUOUS
 62
    5
 10
1992.3149878281308
 20
1261.7730624536339
 11
1992.3149878281308
 21
1261.7730624536339
  0
LINE
  8
_0-1_レイヤ___1
  6
CONTINUOUS
 62
    5
 10
1988.5047122204919
 20
1199.7544524536338
 11
1988.5047122204919
 21
1261.5611924536338
  0
LINE
  8
_0-7_
  6
CONTINUOUS
 62
    7
 10
1677.2636022204917
 20
1424.9467270560317
 11
2744.7636022204915
 21
1424.9467270560317
  0
LINE
  8
_0-7_
  6
CONTINUOUS
 62
    7
 10
2744.7636022204915
 20
1424.9467270560317
 11
2744.7636022204915
 21
1003.9467270560315
  0
LINE
  8
_0-7_
  6
CONTINUOUS
 62
    7
 10
2744.7636022204915
 20
1003.9467270560315
 11
1677.2636022204917
 21
1003.9467270560315
  0
LINE
  8
_0-7_
  6
CONTINUOUS
 62
    7
 10
1677.2636022204917
 20
1003.9467270560315
 11
1677.2636022204917
 21
1424.9467270560317
  0
TEXT
  8
_0-7_
 62
    7
 10
1880.8951950681826
 20
1354.9050080091886
 40
38.006293402777779
 41
1
 50
0
  1
φ35
  0
LINE
  8
_0-7_
  6
CONTINUOUS
 62
    7
 10
1880.8951950681826
 20
1349.7544524536331
 11
2010.249904765061
 21
1349.7544524536331
  0
LINE
  8
_0-7_
  6
CONTINUOUS
 62
    7
 10
2010.249904765061
 20
1349.7544524536331
 11
2083.9058613095849
 21
1222.1785934384334
  0
SOLID
  8
_0-7_
  6
CONTINUOUS
 62
    7
 10
2083.9058613095849
 20
1222.1785934384334
 11
2069.2657387749159
 21
1236.8187159731028
 12
2078.5472045473789
 22
1242.1773727353084
 13
2078.5472045473789
 23
1242.1773727353084
  0
LINE
  8
_0-7_
  6
CONTINUOUS
 62
    7
 10
2100.2636022204915
 20
1252.2544523791275
 11
2100.2636022204915
 21
1333.7544524163804
  0
LINE
  8
_0-7_
  6
CONTINUOUS
 62
    7
 10
2202.263602220492
 20
1252.2544523791275
 11
2202.263602220492
 21
1333.7544524163804
  0
LINE
  8
_0-7_
  6
CONTINUOUS
 62
    7
 10
2100.2636022204915
 20
1323.7544524536333
 11
2202.263602220492
 21
1323.7544524536333
  0
CIRCLE
  8
_0-7_
  6
CONTINUOUS
 62
    7
 10
2100.2636022204915
 20
1323.7544524536333
 40
3.751708984375
  0
CIRCLE
  8
_0-7_
  6
CONTINUOUS
 62
    7
 10
2202.263602220492
 20
1323.7544524536333
 40
3.751708984375
  0
TEXT
  8
_0-7_
 62
    7
 10
2114.2219355538255
 20
1335.6688968794513
 40
38.006293402777779
 41
1
 50
0
  1
102
  0
POINT
  8
_0-7_
 62
    7
 10
2100.2636022204915
 20
1323.7544524536333
  0
LINE
  8
_0-7_
  6
CONTINUOUS
 62
    7
 10
2304.263602220492
 20
1252.2544523791275
 11
2304.263602220492
 21
1333.7544524163804
  0
LINE
  8
_0-7_
  6
CONTINUOUS
 62
    7
 10
2202.263602220492
 20
1252.2544523791275
 11
2202.263602220492
 21
1333.7544524163804
  0
LINE
  8
_0-7_
  6
CONTINUOUS
 62
    7
 10
2304.263602220492
 20
1323.7544524536333
 11
2202.263602220492
 21
1323.7544524536333
  0
CIRCLE
  8
_0-7_
  6
CONTINUOUS
 62
    7
 10
2304.263602220492
 20
1323.7544524536333
 40
3.751708984375
  0
CIRCLE
  8
_0-7_
  6
CONTINUOUS
 62
    7
 10
2202.263602220492
 20
1323.7544524536333
 40
3.751708984375
  0
TEXT
  8
_0-7_
 62
    7
 10
2216.2219355538255
 20
1335.6688968794513
 40
38.006293402777779
 41
1
 50
0
  1
102
  0
POINT
  8
_0-7_
 62
    7
 10
2304.263602220492
 20
1323.7544524536333
  0
LINE
  8
_0-7_
  6
CONTINUOUS
 62
    7
 10
2406.263602220492
 20
1252.2544523791275
 11
2406.263602220492
 21
1333.7544524163804
  0
LINE
  8
_0-7_
  6
CONTINUOUS
 62
    7
 10
2304.263602220492
 20
1252.2544523791275
 11
2304.263602220492
 21
1333.7544524163804
  0
LINE
  8
_0-7_
  6
CONTINUOUS
 62
    7
 10
2406.263602220492
 20
1323.7544524536333
 11
2304.263602220492
 21
1323.7544524536333
  0
CIRCLE
  8
_0-7_
  6
CONTINUOUS
 62
    7
 10
2406.263602220492
 20
1323.7544524536333
 40
3.751708984375
  0
CIRCLE
  8
_0-7_
  6
CONTINUOUS
 62
    7
 10
2304.263602220492
 20
1323.7544524536333
 40
3.751708984375
  0
TEXT
  8
_0-7_
 62
    7
 10
2318.221935553825
 20
1335.6688968794513
 40
38.006293402777779
 41
1
 50
0
  1
102
  0
POINT
  8
_0-7_
 62
    7
 10
2406.263602220492
 20
1323.7544524536333
  0
LINE
  8
_0-7_
  6
CONTINUOUS
 62
    7
 10
2047.7636022949973
 20
1199.7544524536333
 11
1978.2093484460274
 21
1199.7544524536333
  0
LINE
  8
_0-7_
  6
CONTINUOUS
 62
    7
 10
2036.2636022949978
 20
1261.7544524536333
 11
1978.2093484460274
 21
1261.7544524536333
  0
LINE
  8
_0-7_
  6
CONTINUOUS
 62
    7
 10
1988.2093484087745
 20
1199.7544524536333
 11
1988.2093484087745
 21
1261.7544524536333
  0
CIRCLE
  8
_0-7_
  6
CONTINUOUS
 62
    7
 10
1988.2093484087745
 20
1199.7544524536333
 40
3.751708984375
  0
CIRCLE
  8
_0-7_
  6
CONTINUOUS
 62
    7
 10
1988.2093484087745
 20
1261.7544524536333
 40
3.751708984375
  0
TEXT
  8
_0-7_
 62
    7
 10
1976.2949039829564
 20
1206.0600080091888
 40
38.006293402777779
 41
1
 50
90
  1
62
  0
POINT
  8
_0-7_
 62
    7
 10
1988.2093484087745
 20
1199.7544524536333
  0
TEXT
  8
_0-7_
 62
    7
 10
2493.3263569488154
 20
1364.9768393361596
 40
38.006293402777779
 41
1
 50
0
  1
【４ホール】
  0
CIRCLE
  8
_0-1_レイヤ___1
  6
CONTINUOUS
 62
    5
 10
1990.8847050000004
 20
865.27331310999853
 40
3.5983999999999998
  0
LINE
  8
_0-1_レイヤ___1
  6
CONTINUOUS
 62
    5
 10
2553.7047906076386
 20
865.27331310999853
 11
2553.7047906076386
 21
865.27331310999853
  0
LINE
  8
_0-1_レイヤ___1
  6
CONTINUOUS
 62
    5
 10
2553.7047906076386
 20
865.27331310999853
 11
2553.6469039595158
 21
865.89786989484583
  0
LINE
  8
_0-1_レイヤ___1
  6
CONTINUOUS
 62
    5
 10
2553.6469039595158
 20
865.89786989484583
 11
2553.4750028716589
 21
866.50344983782657
  0
LINE
  8
_0-1_レイヤ___1
  6
CONTINUOUS
 62
    5
 10
2553.4750028716589
 20
866.50344983782657
 11
2553.1943104716356
 21
867.07165269881148
  0
LINE
  8
_0-1_レイヤ___1
  6
CONTINUOUS
 62
    5
 10
2553.1943104716356
 20
867.07165269881148
 11
2552.8133554559836
 21
867.58521392139403
  0
LINE
  8
_0-1_レイヤ___1
  6
CONTINUOUS
 62
    5
 10
2552.8133554559836
 20
867.58521392139403
 11
2552.3437129500812
 21
868.02852920770056
  0
LINE
  8
_0-1_レイヤ___1
  6
CONTINUOUS
 62
    5
 10
2552.3437129500812
 20
868.02852920770056
 11
2551.7996528038193
 21
868.38812864708507
  0
LINE
  8
_0-1_レイヤ___1
  6
CONTINUOUS
 62
    5
 10
2551.7996528038193
 20
868.38812864708507
 11
2551.197706009435
 21
868.65308599254786
  0
LINE
  8
_0-1_レイヤ___1
  6
CONTINUOUS
 62
    5
 10
2551.197706009435
 20
868.65308599254786
 11
2550.5561624156753
 21
868.81535064922207
  0
LINE
  8
_0-1_レイヤ___1
  6
CONTINUOUS
 62
    5
 10
2550.5561624156753
 20
868.81535064922207
 11
2549.894515
 21
868.86999228762443
  0
LINE
  8
_0-1_レイヤ___1
  6
CONTINUOUS
 62
    5
 10
2549.894515
 20
868.86999228762443
 11
2549.2328675843246
 21
868.81535064922207
  0
LINE
  8
_0-1_レイヤ___1
  6
CONTINUOUS
 62
    5
 10
2549.2328675843246
 20
868.81535064922207
 11
2548.5913239905649
 21
868.65308599254786
  0
LINE
  8
_0-1_レイヤ___1
  6
CONTINUOUS
 62
    5
 10
2548.5913239905649
 20
868.65308599254786
 11
2547.9893771961806
 21
868.38812864708507
  0
LINE
  8
_0-1_レイヤ___1
  6
CONTINUOUS
 62
    5
 10
2547.9893771961806
 20
868.38812864708507
 11
2547.4453170499187
 21
868.02852920770056
  0
LINE
  8
_0-1_レイヤ___1
  6
CONTINUOUS
 62
    5
 10
2547.4453170499187
 20
868.02852920770056
 11
2546.9756745440163
 21
867.58521392139403
  0
LINE
  8
_0-1_レイヤ___1
  6
CONTINUOUS
 62
    5
 10
2546.9756745440163
 20
867.58521392139403
 11
2546.5947195283643
 21
867.07165269881148
  0
LINE
  8
_0-1_レイヤ___1
  6
CONTINUOUS
 62
    5
 10
2546.5947195283643
 20
867.07165269881148
 11
2546.314027128341
 21
866.50344983782657
  0
LINE
  8
_0-1_レイヤ___1
  6
CONTINUOUS
 62
    5
 10
2546.314027128341
 20
866.50344983782657
 11
2546.1421260404841
 21
865.89786989484583
  0
LINE
  8
_0-1_レイヤ___1
  6
CONTINUOUS
 62
    5
 10
2546.1421260404841
 20
865.89786989484583
 11
2546.0842393923613
 21
865.27331310999853
  0
LINE
  8
_0-1_レイヤ___1
  6
CONTINUOUS
 62
    5
 10
2546.0842393923613
 20
865.27331310999853
 11
2546.1421260404841
 21
864.64875632515123
  0
LINE
  8
_0-1_レイヤ___1
  6
CONTINUOUS
 62
    5
 10
2546.1421260404841
 20
864.64875632515123
 11
2546.314027128341
 21
864.04317638217049
  0
LINE
  8
_0-1_レイヤ___1
  6
CONTINUOUS
 62
    5
 10
2546.314027128341
 20
864.04317638217049
 11
2546.5947195283643
 21
863.47497352118558
  0
LINE
  8
_0-1_レイヤ___1
  6
CONTINUOUS
 62
    5
 10
2546.5947195283643
 20
863.47497352118558
 11
2546.9756745440163
 21
862.96141229860302
  0
LINE
  8
_0-1_レイヤ___1
  6
CONTINUOUS
 62
    5
 10
2546.9756745440163
 20
862.96141229860302
 11
2547.4453170499187
 21
862.51809701229649
  0
LINE
  8
_0-1_レイヤ___1
  6
CONTINUOUS
 62
    5
 10
2547.4453170499187
 20
862.51809701229649
 11
2547.9893771961806
 21
862.15849757291198
  0
LINE
  8
_0-1_レイヤ___1
  6
CONTINUOUS
 62
    5
 10
2547.9893771961806
 20
862.15849757291198
 11
2548.5913239905649
 21
861.89354022744919
  0
LINE
  8
_0-1_レイヤ___1
  6
CONTINUOUS
 62
    5
 10
2548.5913239905649
 20
861.89354022744919
 11
2549.2328675843246
 21
861.73127557077498
  0
LINE
  8
_0-1_レイヤ___1
  6
CONTINUOUS
 62
    5
 10
2549.2328675843246
 20
861.73127557077498
 11
2549.894515
 21
861.67663393237262
  0
LINE
  8
_0-1_レイヤ___1
  6
CONTINUOUS
 62
    5
 10
2549.894515
 20
861.67663393237262
 11
2550.5561624156753
 21
861.73127557077498
  0
LINE
  8
_0-1_レイヤ___1
  6
CONTINUOUS
 62
    5
 10
2550.5561624156753
 20
861.73127557077498
 11
2551.197706009435
 21
861.89354022744919
  0
LINE
  8
_0-1_レイヤ___1
  6
CONTINUOUS
 62
    5
 10
2551.197706009435
 20
861.89354022744919
 11
2551.7996528038193
 21
862.15849757291198
  0
LINE
  8
_0-1_レイヤ___1
  6
CONTINUOUS
 62
    5
 10
2551.7996528038193
 20
862.15849757291198
 11
2552.3437129500812
 21
862.51809701229649
  0
LINE
  8
_0-1_レイヤ___1
  6
CONTINUOUS
 62
    5
 10
2552.3437129500812
 20
862.51809701229649
 11
2552.8133554559836
 21
862.96141229860302
  0
LINE
  8
_0-1_レイヤ___1
  6
CONTINUOUS
 62
    5
 10
2552.8133554559836
 20
862.96141229860302
 11
2553.1943104716356
 21
863.47497352118558
  0
LINE
  8
_0-1_レイヤ___1
  6
CONTINUOUS
 62
    5
 10
2553.1943104716356
 20
863.47497352118558
 11
2553.4750028716589
 21
864.04317638217049
  0
LINE
  8
_0-1_レイヤ___1
  6
CONTINUOUS
 62
    5
 10
2553.4750028716589
 20
864.04317638217049
 11
2553.6469039595158
 21
864.64875632515123
  0
LINE
  8
_0-1_レイヤ___1
  6
CONTINUOUS
 62
    5
 10
2553.6469039595158
 20
864.64875632515123
 11
2553.7047906076386
 21
865.27331310999853
  0
LINE
  8
_0-1_レイヤ___1
  6
CONTINUOUS
 62
    5
 10
2553.7047906076386
 20
865.27331310999853
 11
2553.7047906076386
 21
865.27331310999853
  0
CIRCLE
  8
_0-1_レイヤ___1
  6
CONTINUOUS
 62
    5
 10
2231.9724950000004
 20
797.32914310999854
 40
3.8085499999999999
  0
CIRCLE
  8
_0-1_レイヤ___1
  6
CONTINUOUS
 62
    5
 10
2549.894515
 20
797.32914310999854
 40
3.8102799999999997
  0
LINE
  8
_0-1_レイヤ___1
  6
CONTINUOUS
 62
    5
 10
2231.970765
 20
797.32914310999854
 11
2549.894515
 21
797.32914310999854
  0
CIRCLE
  8
_0-7_
  6
CONTINUOUS
 62
    7
 10
1990.7362267624649
 20
865.30336771239627
 40
3.751708984375
  0
CIRCLE
  8
_0-7_
  6
CONTINUOUS
 62
    7
 10
2549.7362267624649
 20
865.30336771239627
 40
3.751708984375
  0
TEXT
  8
_0-7_
 62
    7
 10
2233.1945600957984
 20
877.2178121382143
 40
38.006293402777779
 41
1
 50
0
  1
559
  0
POINT
  8
_0-7_
 62
    7
 10
1990.7362267624649
 20
865.30336771239627
  0
CIRCLE
  8
_0-7_
  6
CONTINUOUS
 62
    7
 10
2231.7362267624644
 20
797.30336771239638
 40
3.751708984375
  0
CIRCLE
  8
_0-7_
  6
CONTINUOUS
 62
    7
 10
2549.7362267624649
 20
797.30336771239638
 40
3.751708984375
  0
TEXT
  8
_0-7_
 62
    7
 10
2353.6945600957979
 20
809.2178121382143
 40
38.006293402777779
 41
1
 50
0
  1
318
  0
POINT
  8
_0-7_
 62
    7
 10
2231.7362267624644
 20
797.30336771239638
  0
LINE
  8
_0-7_
  6
CONTINUOUS
 62
    7
 10
1990.7362267624649
 20
754.157279527892
 11
1990.7362267624649
 21
865.30336771239627
  0
LINE
  8
_0-7_
  6
CONTINUOUS
 62
    7
 10
1990.7362267624649
 20
865.30336771239627
 11
2549.7362267624649
 21
865.30336771239627
  0
LINE
  8
_0-1_レイヤ___1
  6
CONTINUOUS
 62
    5
 10
1991.0965850000002
 20
865.48346310999864
 11
2549.894515
 21
865.48346310999864
  0
LINE
  8
_0-1_レイヤ___1
  6
CONTINUOUS
 62
    5
 10
2549.894515
 20
754.19721500000014
 11
2549.894515
 21
865.48346310999864
  0
LINE
  8
_0-7_
  6
CONTINUOUS
 62
    7
 10
2231.7362267624644
 20
650.15727952789211
 11
2231.7362267624644
 21
797.30336771239638
  0
LINE
  8
_0-1_レイヤ___1
  6
CONTINUOUS
 62
    5
 10
2231.970765
 20
650.05542500000001
 11
2231.970765
 21
797.30336771239638
  0
LINE
  8
_0-7_
  6
CONTINUOUS
 62
    7
 10
2231.970765
 20
797.30336771239638
 11
2549.7362267624649
 21
797.30336771239638
  0
LINE
  8
_0-1_レイヤ___1
  6
CONTINUOUS
 62
    5
 10
1677.3540222204917
 20
1942.0157879939723
 11
1677.3540222204917
 21
1520.7977379939723
  0
LINE
  8
_0-7_
  6
CONTINUOUS
 62
    7
 10
1677.2636022204917
 20
1520.9935525963697
 11
1677.2636022204917
 21
1941.9935525963701
  0
LINE
  8
_0-7_
  6
CONTINUOUS
 62
    7
 10
2744.9994422204918
 20
1942.0157879939723
 11
1677.3540222204917
 21
1942.0157879939723
  0
LINE
  8
_0-7_
  6
CONTINUOUS
 62
    7
 10
2744.9994422204918
 20
1520.7977379939723
 11
2744.9994422204918
 21
1942.0157879939723
  0
LINE
  8
_0-7_
  6
CONTINUOUS
 62
    7
 10
1677.3540222204917
 20
1520.7977379939723
 11
2744.9994422204918
 21
1520.7977379939723
  0
TEXT
  8
_0-7_
 62
    7
 10
2493.3263569488154
 20
1882.0236648764981
 40
38.006293402777779
 41
1
 50
0
  1
【３ホール】
  0
LINE
  8
_0-1_レイヤ___1
  6
CONTINUOUS
 62
    5
 10
2084.1767322204919
 20
1755.3421247232757
 11
2078.6749122204919
 21
1775.2392747232761
  0
LINE
  8
_0-1_レイヤ___1
  6
CONTINUOUS
 62
    5
 10
2078.6749122204919
 20
1775.2392747232761
 11
2069.3611022204918
 21
1769.735734723276
  0
LINE
  8
_0-1_レイヤ___1
  6
CONTINUOUS
 62
    5
 10
2069.3611022204918
 20
1769.735734723276
 11
2084.1767322204919
 21
1755.3421247232757
  0
LINE
  8
_0-1_レイヤ___1
  6
CONTINUOUS
 62
    5
 10
2010.5171422204921
 20
1882.7658747232761
 11
2079.0969422204921
 21
1763.8101747232758
  0
LINE
  8
_0-7_
  6
CONTINUOUS
 62
    7
 10
2010.2476665275258
 20
1882.8145393256739
 11
2083.9036230720494
 21
1755.2386803104737
  0
SOLID
  8
_0-7_
  6
CONTINUOUS
 62
    7
 10
2083.9036230720494
 20
1755.2386803104737
 11
2069.2635005373809
 21
1769.8788028451429
 12
2078.5449663098439
 22
1775.2374596073487
 13
2078.5449663098439
 23
1775.2374596073487
  0
TEXT
  8
_0-7_
 62
    7
 10
2114.21969731629
 20
1868.7289837514918
 40
38.006293402777779
 41
1
 50
0
  1
102
  0
LINE
  8
_0-1_レイヤ___1
  6
CONTINUOUS
 62
    7
 10
1809.010062220492
 20
1745.6062847232761
 11
1809.010062220492
 21
1750.6860847232758
  0
LINE
  8
_0-1_レイヤ___1
  6
CONTINUOUS
 62
    7
 10
1809.010062220492
 20
1750.6860847232758
 11
1809.8575622204919
 21
1755.3421247232757
  0
LINE
  8
_0-1_レイヤ___1
  6
CONTINUOUS
 62
    7
 10
1809.8575622204919
 20
1755.3421247232757
 11
1811.127082220492
 21
1759.9998947232757
  0
LINE
  8
_0-1_レイヤ___1
  6
CONTINUOUS
 62
    7
 10
1811.127082220492
 20
1759.9998947232757
 11
1812.8203422204922
 21
1764.6559447232762
  0
LINE
  8
_0-1_レイヤ___1
  6
CONTINUOUS
 62
    7
 10
1812.8203422204922
 20
1764.6559447232762
 11
1814.5136022204917
 21
1768.8899647232761
  0
LINE
  8
_0-1_レイヤ___1
  6
CONTINUOUS
 62
    7
 10
1814.5136022204917
 20
1768.8899647232761
 11
1817.0543622204918
 21
1773.1222647232762
  0
LINE
  8
_0-1_レイヤ___1
  6
CONTINUOUS
 62
    7
 10
1817.0543622204918
 20
1773.1222647232762
 11
1820.0171422204921
 21
1776.9325447232764
  0
LINE
  8
_0-1_レイヤ___1
  6
CONTINUOUS
 62
    7
 10
1820.0171422204921
 20
1776.9325447232764
 11
1823.4036722204919
 21
1780.3190747232759
  0
LINE
  8
_0-1_レイヤ___1
  6
CONTINUOUS
 62
    7
 10
1823.4036722204919
 20
1780.3190747232759
 11
1826.7902022204919
 21
1783.7056047232761
  0
LINE
  8
_0-1_レイヤ___1
  6
CONTINUOUS
 62
    7
 10
1826.7902022204919
 20
1783.7056047232761
 11
1830.600482220492
 21
1786.6701047232759
  0
LINE
  8
_0-1_レイヤ___1
  6
CONTINUOUS
 62
    7
 10
1830.600482220492
 20
1786.6701047232759
 11
1834.8345022204921
 21
1789.2091447232758
  0
LINE
  8
_0-1_レイヤ___1
  6
CONTINUOUS
 62
    7
 10
1834.8345022204921
 20
1789.2091447232758
 11
1839.066802220492
 21
1790.902404723276
  0
LINE
  8
_0-1_レイヤ___1
  6
CONTINUOUS
 62
    7
 10
1839.066802220492
 20
1790.902404723276
 11
1843.7245722204921
 21
1792.5956647232761
  0
LINE
  8
_0-1_レイヤ___1
  6
CONTINUOUS
 62
    7
 10
1843.7245722204921
 20
1792.5956647232761
 11
1848.3806222204919
 21
1793.8669047232759
  0
LINE
  8
_0-1_レイヤ___1
  6
CONTINUOUS
 62
    7
 10
1848.3806222204919
 20
1793.8669047232759
 11
1853.0366622204917
 21
1794.7126847232762
  0
LINE
  8
_0-1_レイヤ___1
  6
CONTINUOUS
 62
    7
 10
1853.0366622204917
 20
1794.7126847232762
 11
1858.1181822204919
 21
1794.7126847232762
  0
LINE
  8
_0-1_レイヤ___1
  6
CONTINUOUS
 62
    7
 10
1858.1181822204919
 20
1794.7126847232762
 11
2202.286662220492
 21
1794.7126847232762
  0
LINE
  8
_0-1_レイヤ___1
  6
CONTINUOUS
 62
    7
 10
2202.286662220492
 20
1794.7126847232762
 11
2546.8806222204921
 21
1794.7126847232762
  0
LINE
  8
_0-1_レイヤ___1
  6
CONTINUOUS
 62
    7
 10
2546.8806222204921
 20
1794.7126847232762
 11
2551.536662220492
 21
1794.7126847232762
  0
LINE
  8
_0-1_レイヤ___1
  6
CONTINUOUS
 62
    7
 10
2551.536662220492
 20
1794.7126847232762
 11
2556.6181822204917
 21
1793.8669047232759
  0
LINE
  8
_0-1_レイヤ___1
  6
CONTINUOUS
 62
    7
 10
2556.6181822204917
 20
1793.8669047232759
 11
2561.2742222204915
 21
1792.5956647232761
  0
LINE
  8
_0-1_レイヤ___1
  6
CONTINUOUS
 62
    7
 10
2561.2742222204915
 20
1792.5956647232761
 11
2565.5082522204921
 21
1790.902404723276
  0
LINE
  8
_0-1_レイヤ___1
  6
CONTINUOUS
 62
    7
 10
2565.5082522204921
 20
1790.902404723276
 11
2570.1642922204919
 21
1789.2091447232758
  0
LINE
  8
_0-1_レイヤ___1
  6
CONTINUOUS
 62
    7
 10
2570.1642922204919
 20
1789.2091447232758
 11
2573.9745722204916
 21
1786.6701047232759
  0
LINE
  8
_0-1_レイヤ___1
  6
CONTINUOUS
 62
    7
 10
2573.9745722204916
 20
1786.6701047232759
 11
2578.2068722204917
 21
1783.7056047232761
  0
LINE
  8
_0-1_レイヤ___1
  6
CONTINUOUS
 62
    7
 10
2578.2068722204917
 20
1783.7056047232761
 11
2581.593402220492
 21
1780.3190747232759
  0
LINE
  8
_0-1_レイヤ___1
  6
CONTINUOUS
 62
    7
 10
2581.593402220492
 20
1780.3190747232759
 11
2584.9799322204922
 21
1776.9325447232764
  0
LINE
  8
_0-1_レイヤ___1
  6
CONTINUOUS
 62
    7
 10
2584.9799322204922
 20
1776.9325447232764
 11
2587.5206822204923
 21
1773.1222647232762
  0
LINE
  8
_0-1_レイヤ___1
  6
CONTINUOUS
 62
    7
 10
2587.5206822204923
 20
1773.1222647232762
 11
2590.0614422204922
 21
1768.8899647232761
  0
LINE
  8
_0-1_レイヤ___1
  6
CONTINUOUS
 62
    7
 10
2590.0614422204922
 20
1768.8899647232761
 11
2592.1767322204919
 21
1764.6559447232762
  0
LINE
  8
_0-1_レイヤ___1
  6
CONTINUOUS
 62
    7
 10
2592.1767322204919
 20
1764.6559447232762
 11
2593.8700022204921
 21
1759.9998947232757
  0
LINE
  8
_0-1_レイヤ___1
  6
CONTINUOUS
 62
    7
 10
2593.8700022204921
 20
1759.9998947232757
 11
2595.1412422204921
 21
1755.3421247232757
  0
LINE
  8
_0-1_レイヤ___1
  6
CONTINUOUS
 62
    7
 10
2595.1412422204921
 20
1755.3421247232757
 11
2595.5632622204921
 21
1750.6860847232758
  0
LINE
  8
_0-1_レイヤ___1
  6
CONTINUOUS
 62
    7
 10
2595.5632622204921
 20
1750.6860847232758
 11
2595.987012220492
 21
1745.6062847232761
  0
LINE
  8
_0-1_レイヤ___1
  6
CONTINUOUS
 62
    7
 10
1859.8114422204917
 20
1625.803094723276
 11
1860.6572122204921
 21
1633.8456647232761
  0
LINE
  8
_0-1_レイヤ___1
  6
CONTINUOUS
 62
    7
 10
1860.6572122204921
 20
1633.8456647232761
 11
1863.1979722204919
 21
1641.8899647232756
  0
LINE
  8
_0-1_レイヤ___1
  6
CONTINUOUS
 62
    7
 10
1863.1979722204919
 20
1641.8899647232756
 11
1867.0082522204921
 21
1649.086774723276
  0
LINE
  8
_0-1_レイヤ___1
  6
CONTINUOUS
 62
    7
 10
1867.0082522204921
 20
1649.086774723276
 11
1872.0880422204918
 21
1655.4360847232761
  0
LINE
  8
_0-1_レイヤ___1
  6
CONTINUOUS
 62
    7
 10
1872.0880422204918
 20
1655.4360847232761
 11
1878.4373522204919
 21
1660.9396247232758
  0
LINE
  8
_0-1_レイヤ___1
  6
CONTINUOUS
 62
    7
 10
1878.4373522204919
 20
1660.9396247232758
 11
1886.057902220492
 21
1664.7498947232759
  0
LINE
  8
_0-1_レイヤ___1
  6
CONTINUOUS
 62
    7
 10
1886.057902220492
 20
1664.7498947232759
 11
1893.6767322204919
 21
1666.8669047232761
  0
LINE
  8
_0-1_レイヤ___1
  6
CONTINUOUS
 62
    7
 10
1893.6767322204919
 20
1666.8669047232761
 11
1901.7210322204919
 21
1667.7126847232762
  0
LINE
  8
_0-1_レイヤ___1
  6
CONTINUOUS
 62
    7
 10
1901.7210322204919
 20
1667.7126847232762
 11
2202.286662220492
 21
1667.7126847232762
  0
LINE
  8
_0-1_レイヤ___1
  6
CONTINUOUS
 62
    7
 10
2202.286662220492
 20
1667.7126847232762
 11
2502.854022220492
 21
1667.7126847232762
  0
LINE
  8
_0-1_レイヤ___1
  6
CONTINUOUS
 62
    7
 10
2502.854022220492
 20
1667.7126847232762
 11
2511.320342220492
 21
1666.8669047232761
  0
LINE
  8
_0-1_レイヤ___1
  6
CONTINUOUS
 62
    7
 10
2511.320342220492
 20
1666.8669047232761
 11
2518.9408922204921
 21
1664.7498947232759
  0
LINE
  8
_0-1_レイヤ___1
  6
CONTINUOUS
 62
    7
 10
2518.9408922204921
 20
1664.7498947232759
 11
2526.137702220492
 21
1660.9396247232758
  0
LINE
  8
_0-1_レイヤ___1
  6
CONTINUOUS
 62
    7
 10
2526.137702220492
 20
1660.9396247232758
 11
2532.487012220492
 21
1655.4360847232761
  0
LINE
  8
_0-1_レイヤ___1
  6
CONTINUOUS
 62
    7
 10
2532.487012220492
 20
1655.4360847232761
 11
2537.9905522204922
 21
1649.086774723276
  0
LINE
  8
_0-1_レイヤ___1
  6
CONTINUOUS
 62
    7
 10
2537.9905522204922
 20
1649.086774723276
 11
2541.8008222204917
 21
1641.8899647232756
  0
LINE
  8
_0-1_レイヤ___1
  6
CONTINUOUS
 62
    7
 10
2541.8008222204917
 20
1641.8899647232756
 11
2543.9178322204916
 21
1633.8456647232761
  0
LINE
  8
_0-1_レイヤ___1
  6
CONTINUOUS
 62
    7
 10
2543.9178322204916
 20
1633.8456647232761
 11
2544.763602220492
 21
1625.803094723276
  0
LINE
  8
_0-1_レイヤ___1
  6
CONTINUOUS
 62
    7
 10
1843.7245722204921
 20
1627.9201047232759
 11
1844.1465922204918
 21
1633.4236447232756
  0
LINE
  8
_0-1_レイヤ___1
  6
CONTINUOUS
 62
    7
 10
1844.1465922204918
 20
1633.4236447232756
 11
1844.9940922204919
 21
1638.9254647232758
  0
LINE
  8
_0-1_レイヤ___1
  6
CONTINUOUS
 62
    7
 10
1844.9940922204919
 20
1638.9254647232758
 11
1846.263602220492
 21
1644.0069747232758
  0
LINE
  8
_0-1_レイヤ___1
  6
CONTINUOUS
 62
    7
 10
1846.263602220492
 20
1644.0069747232758
 11
1848.3806222204919
 21
1649.086774723276
  0
LINE
  8
_0-1_レイヤ___1
  6
CONTINUOUS
 62
    7
 10
1848.3806222204919
 20
1649.086774723276
 11
1850.4976322204921
 21
1654.1665647232758
  0
LINE
  8
_0-1_レイヤ___1
  6
CONTINUOUS
 62
    7
 10
1850.4976322204921
 20
1654.1665647232758
 11
1853.4604122204919
 21
1658.8226147232758
  0
LINE
  8
_0-1_レイヤ___1
  6
CONTINUOUS
 62
    7
 10
1853.4604122204919
 20
1658.8226147232758
 11
1856.4249122204922
 21
1663.4786547232761
  0
LINE
  8
_0-1_レイヤ___1
  6
CONTINUOUS
 62
    7
 10
1856.4249122204922
 20
1663.4786547232761
 11
1860.2334722204921
 21
1667.2889347232758
  0
LINE
  8
_0-1_レイヤ___1
  6
CONTINUOUS
 62
    7
 10
1860.2334722204921
 20
1667.2889347232758
 11
1864.4674922204922
 21
1671.0992047232758
  0
LINE
  8
_0-1_レイヤ___1
  6
CONTINUOUS
 62
    7
 10
1864.4674922204922
 20
1671.0992047232758
 11
1868.7015122204916
 21
1674.485734723276
  0
LINE
  8
_0-1_レイヤ___1
  6
CONTINUOUS
 62
    7
 10
1868.7015122204916
 20
1674.485734723276
 11
1873.3575622204921
 21
1677.0264947232761
  0
LINE
  8
_0-1_レイヤ___1
  6
CONTINUOUS
 62
    7
 10
1873.3575622204921
 20
1677.0264947232761
 11
1878.4373522204919
 21
1679.565534723276
  0
LINE
  8
_0-1_レイヤ___1
  6
CONTINUOUS
 62
    7
 10
1878.4373522204919
 20
1679.565534723276
 11
1883.5171422204919
 21
1681.258794723276
  0
LINE
  8
_0-1_レイヤ___1
  6
CONTINUOUS
 62
    7
 10
1883.5171422204919
 20
1681.258794723276
 11
1889.0206822204918
 21
1682.5300347232758
  0
LINE
  8
_0-1_レイヤ___1
  6
CONTINUOUS
 62
    7
 10
1889.0206822204918
 20
1682.5300347232758
 11
1894.524222220492
 21
1683.3758047232759
  0
LINE
  8
_0-1_レイヤ___1
  6
CONTINUOUS
 62
    7
 10
1894.524222220492
 20
1683.3758047232759
 11
1900.0277622204919
 21
1683.7995547232758
  0
LINE
  8
_0-1_レイヤ___1
  6
CONTINUOUS
 62
    7
 10
1900.0277622204919
 20
1683.7995547232758
 11
2202.286662220492
 21
1683.7995547232758
  0
LINE
  8
_0-1_レイヤ___1
  6
CONTINUOUS
 62
    7
 10
2202.286662220492
 20
1683.7995547232758
 11
2504.9710322204919
 21
1683.7995547232758
  0
LINE
  8
_0-1_レイヤ___1
  6
CONTINUOUS
 62
    7
 10
2504.9710322204919
 20
1683.7995547232758
 11
2510.4745722204921
 21
1683.3758047232759
  0
LINE
  8
_0-1_レイヤ___1
  6
CONTINUOUS
 62
    7
 10
2510.4745722204921
 20
1683.3758047232759
 11
2515.9781122204918
 21
1682.5300347232758
  0
LINE
  8
_0-1_レイヤ___1
  6
CONTINUOUS
 62
    7
 10
2515.9781122204918
 20
1682.5300347232758
 11
2521.057902220492
 21
1681.258794723276
  0
LINE
  8
_0-1_レイヤ___1
  6
CONTINUOUS
 62
    7
 10
2521.057902220492
 20
1681.258794723276
 11
2526.5614422204917
 21
1679.565534723276
  0
LINE
  8
_0-1_レイヤ___1
  6
CONTINUOUS
 62
    7
 10
2526.5614422204917
 20
1679.565534723276
 11
2531.2174922204922
 21
1677.0264947232761
  0
LINE
  8
_0-1_レイヤ___1
  6
CONTINUOUS
 62
    7
 10
2531.2174922204922
 20
1677.0264947232761
 11
2535.8735422204923
 21
1674.485734723276
  0
LINE
  8
_0-1_レイヤ___1
  6
CONTINUOUS
 62
    7
 10
2535.8735422204923
 20
1674.485734723276
 11
2540.5313022204923
 21
1671.0992047232758
  0
LINE
  8
_0-1_レイヤ___1
  6
CONTINUOUS
 62
    7
 10
2540.5313022204923
 20
1671.0992047232758
 11
2544.3415822204915
 21
1667.2889347232758
  0
LINE
  8
_0-1_レイヤ___1
  6
CONTINUOUS
 62
    7
 10
2544.3415822204915
 20
1667.2889347232758
 11
2548.1501322204917
 21
1663.4786547232761
  0
LINE
  8
_0-1_レイヤ___1
  6
CONTINUOUS
 62
    7
 10
2548.1501322204917
 20
1663.4786547232761
 11
2551.536662220492
 21
1658.8226147232758
  0
LINE
  8
_0-1_レイヤ___1
  6
CONTINUOUS
 62
    7
 10
2551.536662220492
 20
1658.8226147232758
 11
2554.5011722204918
 21
1654.1665647232758
  0
LINE
  8
_0-1_レイヤ___1
  6
CONTINUOUS
 62
    7
 10
2554.5011722204918
 20
1654.1665647232758
 11
2556.6181822204917
 21
1649.086774723276
  0
LINE
  8
_0-1_レイヤ___1
  6
CONTINUOUS
 62
    7
 10
2556.6181822204917
 20
1649.086774723276
 11
2558.3114422204922
 21
1644.0069747232758
  0
LINE
  8
_0-1_レイヤ___1
  6
CONTINUOUS
 62
    7
 10
2558.3114422204922
 20
1644.0069747232758
 11
2560.0047122204924
 21
1638.9254647232758
  0
LINE
  8
_0-1_レイヤ___1
  6
CONTINUOUS
 62
    7
 10
2560.0047122204924
 20
1638.9254647232758
 11
2560.8504822204918
 21
1633.4236447232756
  0
LINE
  8
_0-1_レイヤ___1
  6
CONTINUOUS
 62
    7
 10
2560.8504822204918
 20
1633.4236447232756
 11
2560.8504822204918
 21
1627.9201047232759
  0
LINE
  8
_0-1_レイヤ___1
  6
CONTINUOUS
 62
    7
 10
2170.114642220492
 20
1732.905944723276
 11
2201.864642220492
 21
1732.905944723276
  0
LINE
  8
_0-1_レイヤ___1
  6
CONTINUOUS
 62
    7
 10
2212.4479722204924
 20
1732.905944723276
 11
2215.8345022204917
 21
1732.905944723276
  0
LINE
  8
_0-1_レイヤ___1
  6
CONTINUOUS
 62
    7
 10
2223.0313022204919
 20
1732.905944723276
 11
2234.8841622204918
 21
1732.905944723276
  0
CIRCLE
  8
_0-1_レイヤ___1
  6
CONTINUOUS
 62
    7
 10
2202.4985422204918
 20
1732.6940747232761
 40
17.568259999999999
  0
LINE
  8
_0-1_レイヤ___1
  6
CONTINUOUS
 62
    7
 10
2271.713952220492
 20
1732.905944723276
 11
2284.4142922204919
 21
1732.905944723276
  0
LINE
  8
_0-1_レイヤ___1
  6
CONTINUOUS
 62
    7
 10
2288.646592220492
 20
1732.905944723276
 11
2289.9178322204921
 21
1732.905944723276
  0
LINE
  8
_0-1_レイヤ___1
  6
CONTINUOUS
 62
    7
 10
2292.8806222204917
 20
1732.905944723276
 11
2294.1501322204922
 21
1732.905944723276
  0
LINE
  8
_0-1_レイヤ___1
  6
CONTINUOUS
 62
    7
 10
2297.114642220492
 20
1732.905944723276
 11
2309.8132622204917
 21
1732.905944723276
  0
LINE
  8
_0-1_レイヤ___1
  6
CONTINUOUS
 62
    7
 10
2314.047282220492
 20
1732.905944723276
 11
2315.3168022204918
 21
1732.905944723276
  0
LINE
  8
_0-1_レイヤ___1
  6
CONTINUOUS
 62
    7
 10
2318.2813022204919
 20
1732.905944723276
 11
2319.5508222204921
 21
1732.905944723276
  0
LINE
  8
_0-1_レイヤ___1
  6
CONTINUOUS
 62
    7
 10
2322.513602220492
 20
1732.905944723276
 11
2335.213952220492
 21
1732.905944723276
  0
LINE
  8
_0-1_レイヤ___1
  6
CONTINUOUS
 62
    7
 10
2336.0614422204917
 20
1732.905944723276
 11
2336.9072122204921
 21
1732.905944723276
  0
CIRCLE
  8
_0-1_レイヤ___1
  6
CONTINUOUS
 62
    7
 10
2304.5224522204921
 20
1732.6940747232761
 40
17.569130000000001
  0
LINE
  8
_0-1_レイヤ___1
  6
CONTINUOUS
 62
    7
 10
2304.3114422204922
 20
1700.3101747232763
 11
2304.3114422204922
 21
1713.008794723276
  0
LINE
  8
_0-1_レイヤ___1
  6
CONTINUOUS
 62
    7
 10
2304.3114422204922
 20
1717.2428147232763
 11
2304.3114422204922
 21
1718.5123347232757
  0
LINE
  8
_0-1_レイヤ___1
  6
CONTINUOUS
 62
    7
 10
2304.3114422204922
 20
1721.4768447232757
 11
2304.3114422204922
 21
1722.746354723276
  0
LINE
  8
_0-1_レイヤ___1
  6
CONTINUOUS
 62
    7
 10
2304.3114422204922
 20
1725.709144723276
 11
2304.3114422204922
 21
1738.4094847232757
  0
LINE
  8
_0-1_レイヤ___1
  6
CONTINUOUS
 62
    7
 10
2304.3114422204922
 20
1742.6435047232758
 11
2304.3114422204922
 21
1743.9130247232761
  0
LINE
  8
_0-1_レイヤ___1
  6
CONTINUOUS
 62
    7
 10
2304.3114422204922
 20
1746.8758047232757
 11
2304.3114422204922
 21
1748.1453247232757
  0
LINE
  8
_0-1_レイヤ___1
  6
CONTINUOUS
 62
    7
 10
2304.3114422204922
 20
1751.1098247232758
 11
2304.3114422204922
 21
1763.8101747232758
  0
LINE
  8
_0-1_レイヤ___1
  6
CONTINUOUS
 62
    7
 10
2304.3114422204922
 20
1764.6559447232762
 11
2304.3114422204922
 21
1765.5034347232759
  0
LINE
  8
_0-1_レイヤ___1
  6
CONTINUOUS
 62
    7
 10
2132.8611022204923
 20
1732.905944723276
 11
2120.1607522204922
 21
1732.905944723276
  0
LINE
  8
_0-1_レイヤ___1
  6
CONTINUOUS
 62
    7
 10
2115.9267322204919
 20
1732.905944723276
 11
2114.6572122204916
 21
1732.905944723276
  0
LINE
  8
_0-1_レイヤ___1
  6
CONTINUOUS
 62
    7
 10
2111.6944322204922
 20
1732.905944723276
 11
2110.4249122204919
 21
1732.905944723276
  0
LINE
  8
_0-1_レイヤ___1
  6
CONTINUOUS
 62
    7
 10
2107.4604122204919
 20
1732.905944723276
 11
2094.7600622204918
 21
1732.905944723276
  0
LINE
  8
_0-1_レイヤ___1
  6
CONTINUOUS
 62
    7
 10
2090.5277622204921
 20
1732.905944723276
 11
2089.2582522204921
 21
1732.905944723276
  0
LINE
  8
_0-1_レイヤ___1
  6
CONTINUOUS
 62
    7
 10
2086.2937422204918
 20
1732.905944723276
 11
2085.0242222204915
 21
1732.905944723276
  0
LINE
  8
_0-1_レイヤ___1
  6
CONTINUOUS
 62
    7
 10
2082.0614422204922
 20
1732.905944723276
 11
2069.3611022204918
 21
1732.905944723276
  0
CIRCLE
  8
_0-1_レイヤ___1
  6
CONTINUOUS
 62
    7
 10
2100.4754822204923
 20
1732.6940747232761
 40
17.568259999999999
  0
LINE
  8
_0-1_レイヤ___1
  6
CONTINUOUS
 62
    7
 10
2100.263602220492
 20
1700.3101747232763
 11
2100.263602220492
 21
1713.008794723276
  0
LINE
  8
_0-1_レイヤ___1
  6
CONTINUOUS
 62
    7
 10
2100.263602220492
 20
1717.2428147232763
 11
2100.263602220492
 21
1718.5123347232757
  0
LINE
  8
_0-1_レイヤ___1
  6
CONTINUOUS
 62
    7
 10
2100.263602220492
 20
1721.4768447232757
 11
2100.263602220492
 21
1722.746354723276
  0
LINE
  8
_0-1_レイヤ___1
  6
CONTINUOUS
 62
    7
 10
2100.263602220492
 20
1725.709144723276
 11
2100.263602220492
 21
1738.4094847232757
  0
LINE
  8
_0-1_レイヤ___1
  6
CONTINUOUS
 62
    7
 10
2100.263602220492
 20
1742.6435047232758
 11
2100.263602220492
 21
1743.9130247232761
  0
LINE
  8
_0-1_レイヤ___1
  6
CONTINUOUS
 62
    7
 10
2100.263602220492
 20
1746.8758047232757
 11
2100.263602220492
 21
1748.1453247232757
  0
LINE
  8
_0-1_レイヤ___1
  6
CONTINUOUS
 62
    7
 10
2100.263602220492
 20
1751.1098247232758
 11
2100.263602220492
 21
1763.8101747232758
  0
LINE
  8
_0-1_レイヤ___1
  6
CONTINUOUS
 62
    7
 10
2100.263602220492
 20
1764.6559447232762
 11
2100.263602220492
 21
1765.5034347232759
  0
LINE
  8
_0-1_レイヤ___1
  6
CONTINUOUS
 62
    7
 10
2202.286662220492
 20
1700.3101747232763
 11
2202.286662220492
 21
1713.008794723276
  0
LINE
  8
_0-1_レイヤ___1
  6
CONTINUOUS
 62
    7
 10
2202.286662220492
 20
1717.2428147232763
 11
2202.286662220492
 21
1718.5123347232757
  0
LINE
  8
_0-1_レイヤ___1
  6
CONTINUOUS
 62
    7
 10
2202.286662220492
 20
1721.4768447232757
 11
2202.286662220492
 21
1722.746354723276
  0
LINE
  8
_0-1_レイヤ___1
  6
CONTINUOUS
 62
    7
 10
2202.286662220492
 20
1725.709144723276
 11
2202.286662220492
 21
1738.4094847232757
  0
LINE
  8
_0-1_レイヤ___1
  6
CONTINUOUS
 62
    7
 10
2202.286662220492
 20
1742.6435047232758
 11
2202.286662220492
 21
1743.9130247232761
  0
LINE
  8
_0-1_レイヤ___1
  6
CONTINUOUS
 62
    7
 10
2202.286662220492
 20
1746.8758047232757
 11
2202.286662220492
 21
1748.1453247232757
  0
LINE
  8
_0-1_レイヤ___1
  6
CONTINUOUS
 62
    7
 10
2202.286662220492
 20
1751.1098247232758
 11
2202.286662220492
 21
1763.8101747232758
  0
LINE
  8
_0-1_レイヤ___1
  6
CONTINUOUS
 62
    7
 10
2202.286662220492
 20
1595.322614723276
 11
2202.286662220492
 21
1598.7091447232756
  0
LINE
  8
_0-1_レイヤ___1
  6
CONTINUOUS
 62
    7
 10
2202.286662220492
 20
1648.2392747232757
 11
2202.286662220492
 21
1651.6258047232759
  0
LINE
  8
_0-1_レイヤ___1
  6
CONTINUOUS
 62
    7
 10
2202.286662220492
 20
1658.8226147232758
 11
2202.286662220492
 21
1690.5726147232758
  0
LINE
  8
_0-1_レイヤ___1
  6
CONTINUOUS
 62
    7
 10
2202.286662220492
 20
1701.1559447232758
 11
2202.286662220492
 21
1704.542474723276
  0
LINE
  8
_0-1_レイヤ___1
  6
CONTINUOUS
 62
    7
 10
2202.286662220492
 20
1711.7392747232759
 11
2202.286662220492
 21
1743.4892747232761
  0
LINE
  8
_0-1_レイヤ___1
  6
CONTINUOUS
 62
    7
 10
2202.286662220492
 20
1754.072614723276
 11
2202.286662220492
 21
1757.4591447232756
  0
LINE
  8
_0-1_レイヤ___1
  6
CONTINUOUS
 62
    5
 10
2100.263602220492
 20
1785.3988647232763
 11
2100.263602220492
 21
1866.6790047232757
  0
LINE
  8
_0-1_レイヤ___1
  6
CONTINUOUS
 62
    5
 10
2202.286662220492
 20
1785.3988647232763
 11
2202.286662220492
 21
1866.6790047232757
  0
LINE
  8
_0-1_レイヤ___1
  6
CONTINUOUS
 62
    5
 10
2100.4754822204923
 20
1860.7534403309151
 11
2100.4754822204923
 21
1860.7534403309151
  0
LINE
  8
_0-1_レイヤ___1
  6
CONTINUOUS
 62
    5
 10
2100.4754822204923
 20
1860.7534403309151
 11
2099.8506263710133
 21
1860.6955536827923
  0
LINE
  8
_0-1_レイヤ___1
  6
CONTINUOUS
 62
    5
 10
2099.8506263710133
 20
1860.6955536827923
 11
2099.2447564503282
 21
1860.5236525949349
  0
LINE
  8
_0-1_レイヤ___1
  6
CONTINUOUS
 62
    5
 10
2099.2447564503282
 20
1860.5236525949349
 11
2098.6762815093921
 21
1860.2429601949116
  0
LINE
  8
_0-1_レイヤ___1
  6
CONTINUOUS
 62
    5
 10
2098.6762815093921
 20
1860.2429601949116
 11
2098.1624743716234
 21
1859.8620051792598
  0
LINE
  8
_0-1_レイヤ___1
  6
CONTINUOUS
 62
    5
 10
2098.1624743716234
 20
1859.8620051792598
 11
2097.7189468069041
 21
1859.3923626733572
  0
LINE
  8
_0-1_レイヤ___1
  6
CONTINUOUS
 62
    5
 10
2097.7189468069041
 20
1859.3923626733572
 11
2097.3591751758527
 21
1858.8483025270955
  0
LINE
  8
_0-1_レイヤ___1
  6
CONTINUOUS
 62
    5
 10
2097.3591751758527
 20
1858.8483025270955
 11
2097.0940909574251
 21
1858.246355732711
  0
LINE
  8
_0-1_レイヤ___1
  6
CONTINUOUS
 62
    5
 10
2097.0940909574251
 20
1858.246355732711
 11
2096.9317486014588
 21
1857.6048121389515
  0
LINE
  8
_0-1_レイヤ___1
  6
CONTINUOUS
 62
    5
 10
2096.9317486014588
 20
1857.6048121389515
 11
2096.8770807982919
 21
1856.9431647232761
  0
LINE
  8
_0-1_レイヤ___1
  6
CONTINUOUS
 62
    5
 10
2096.8770807982919
 20
1856.9431647232761
 11
2096.9317486014588
 21
1856.2815173076008
  0
LINE
  8
_0-1_レイヤ___1
  6
CONTINUOUS
 62
    5
 10
2096.9317486014588
 20
1856.2815173076008
 11
2097.0940909574251
 21
1855.6399737138413
  0
LINE
  8
_0-1_レイヤ___1
  6
CONTINUOUS
 62
    5
 10
2097.0940909574251
 20
1855.6399737138413
 11
2097.3591751758527
 21
1855.0380269194568
  0
LINE
  8
_0-1_レイヤ___1
  6
CONTINUOUS
 62
    5
 10
2097.3591751758527
 20
1855.0380269194568
 11
2097.7189468069041
 21
1854.4939667731951
  0
LINE
  8
_0-1_レイヤ___1
  6
CONTINUOUS
 62
    5
 10
2097.7189468069041
 20
1854.4939667731951
 11
2098.1624743716234
 21
1854.0243242672925
  0
LINE
  8
_0-1_レイヤ___1
  6
CONTINUOUS
 62
    5
 10
2098.1624743716234
 20
1854.0243242672925
 11
2098.6762815093921
 21
1853.6433692516407
  0
LINE
  8
_0-1_レイヤ___1
  6
CONTINUOUS
 62
    5
 10
2098.6762815093921
 20
1853.6433692516407
 11
2099.2447564503282
 21
1853.3626768516174
  0
LINE
  8
_0-1_レイヤ___1
  6
CONTINUOUS
 62
    5
 10
2099.2447564503282
 20
1853.3626768516174
 11
2099.8506263710133
 21
1853.19077576376
  0
LINE
  8
_0-1_レイヤ___1
  6
CONTINUOUS
 62
    5
 10
2099.8506263710133
 20
1853.19077576376
 11
2100.4754822204923
 21
1853.1328891156372
  0
LINE
  8
_0-1_レイヤ___1
  6
CONTINUOUS
 62
    5
 10
2100.4754822204923
 20
1853.1328891156372
 11
2101.1003380699713
 21
1853.19077576376
  0
LINE
  8
_0-1_レイヤ___1
  6
CONTINUOUS
 62
    5
 10
2101.1003380699713
 20
1853.19077576376
 11
2101.7062079906564
 21
1853.3626768516174
  0
LINE
  8
_0-1_レイヤ___1
  6
CONTINUOUS
 62
    5
 10
2101.7062079906564
 20
1853.3626768516174
 11
2102.2746829315925
 21
1853.6433692516407
  0
LINE
  8
_0-1_レイヤ___1
  6
CONTINUOUS
 62
    5
 10
2102.2746829315925
 20
1853.6433692516407
 11
2102.7884900693612
 21
1854.0243242672925
  0
LINE
  8
_0-1_レイヤ___1
  6
CONTINUOUS
 62
    5
 10
2102.7884900693612
 20
1854.0243242672925
 11
2103.2320176340804
 21
1854.4939667731951
  0
LINE
  8
_0-1_レイヤ___1
  6
CONTINUOUS
 62
    5
 10
2103.2320176340804
 20
1854.4939667731951
 11
2103.5917892651319
 21
1855.0380269194568
  0
LINE
  8
_0-1_レイヤ___1
  6
CONTINUOUS
 62
    5
 10
2103.5917892651319
 20
1855.0380269194568
 11
2103.8568734835594
 21
1855.6399737138411
  0
LINE
  8
_0-1_レイヤ___1
  6
CONTINUOUS
 62
    5
 10
2103.8568734835594
 20
1855.6399737138411
 11
2104.0192158395257
 21
1856.2815173076008
  0
LINE
  8
_0-1_レイヤ___1
  6
CONTINUOUS
 62
    5
 10
2104.0192158395257
 20
1856.2815173076008
 11
2104.0738836426926
 21
1856.9431647232761
  0
LINE
  8
_0-1_レイヤ___1
  6
CONTINUOUS
 62
    5
 10
2104.0738836426926
 20
1856.9431647232761
 11
2104.0192158395257
 21
1857.6048121389513
  0
LINE
  8
_0-1_レイヤ___1
  6
CONTINUOUS
 62
    5
 10
2104.0192158395257
 20
1857.6048121389513
 11
2103.8568734835594
 21
1858.246355732711
  0
LINE
  8
_0-1_レイヤ___1
  6
CONTINUOUS
 62
    5
 10
2103.8568734835594
 20
1858.246355732711
 11
2103.5917892651319
 21
1858.8483025270955
  0
LINE
  8
_0-1_レイヤ___1
  6
CONTINUOUS
 62
    5
 10
2103.5917892651319
 20
1858.8483025270955
 11
2103.2320176340804
 21
1859.3923626733572
  0
LINE
  8
_0-1_レイヤ___1
  6
CONTINUOUS
 62
    5
 10
2103.2320176340804
 20
1859.3923626733572
 11
2102.7884900693612
 21
1859.8620051792598
  0
LINE
  8
_0-1_レイヤ___1
  6
CONTINUOUS
 62
    5
 10
2102.7884900693612
 20
1859.8620051792598
 11
2102.2746829315925
 21
1860.2429601949116
  0
LINE
  8
_0-1_レイヤ___1
  6
CONTINUOUS
 62
    5
 10
2102.2746829315925
 20
1860.2429601949116
 11
2101.7062079906564
 21
1860.5236525949349
  0
LINE
  8
_0-1_レイヤ___1
  6
CONTINUOUS
 62
    5
 10
2101.7062079906564
 20
1860.5236525949349
 11
2101.1003380699717
 21
1860.6955536827923
  0
LINE
  8
_0-1_レイヤ___1
  6
CONTINUOUS
 62
    5
 10
2101.1003380699717
 20
1860.6955536827923
 11
2100.4754822204923
 21
1860.7534403309151
  0
LINE
  8
_0-1_レイヤ___1
  6
CONTINUOUS
 62
    5
 10
2100.4754822204923
 20
1860.7534403309151
 11
2100.4754822204923
 21
1860.7534403309151
  0
CIRCLE
  8
_0-1_レイヤ___1
  6
CONTINUOUS
 62
    5
 10
2202.2875222204921
 20
1856.9431647232761
 40
3.8094099999999997
  0
LINE
  8
_0-1_レイヤ___1
  6
CONTINUOUS
 62
    5
 10
2100.263602220492
 20
1856.9431647232761
 11
2202.286662220492
 21
1856.9431647232761
  0
LINE
  8
_0-1_レイヤ___1
  6
CONTINUOUS
 62
    5
 10
1875.896592220492
 20
1882.7658747232761
 11
2010.5171422204921
 21
1882.7658747232761
  0
LINE
  8
_0-1_レイヤ___1
  6
CONTINUOUS
 62
    5
 10
2304.3114422204922
 20
1785.3988647232763
 11
2304.3114422204922
 21
1866.6790047232757
  0
LINE
  8
_0-1_レイヤ___1
  6
CONTINUOUS
 62
    5
 10
2202.286662220492
 20
1785.3988647232763
 11
2202.286662220492
 21
1866.6790047232757
  0
CIRCLE
  8
_0-1_レイヤ___1
  6
CONTINUOUS
 62
    5
 10
2304.3105822204921
 20
1856.9431647232761
 40
3.8094099999999997
  0
CIRCLE
  8
_0-1_レイヤ___1
  6
CONTINUOUS
 62
    5
 10
2202.2875222204921
 20
1856.9431647232761
 40
3.8094099999999997
  0
LINE
  8
_0-1_レイヤ___1
  6
CONTINUOUS
 62
    5
 10
2304.3114422204922
 20
1856.9431647232761
 11
2202.286662220492
 21
1856.9431647232761
  0
LINE
  8
_0-1_レイヤ___1
  6
CONTINUOUS
 62
    5
 10
2047.7706822204918
 20
1732.905944723276
 11
1959.293742220492
 21
1732.905944723276
  0
LINE
  8
_0-1_レイヤ___1
  6
CONTINUOUS
 62
    5
 10
1993.5845022204921
 20
1794.7126847232762
 11
1959.293742220492
 21
1794.7126847232762
  0
CIRCLE
  8
_0-1_レイヤ___1
  6
CONTINUOUS
 62
    5
 10
1969.0313022204919
 20
1732.905944723276
 40
3.8102799999999997
  0
CIRCLE
  8
_0-1_レイヤ___1
  6
CONTINUOUS
 62
    5
 10
1969.0313022204919
 20
1794.7126847232762
 40
3.8102799999999997
  0
LINE
  8
_0-1_レイヤ___1
  6
CONTINUOUS
 62
    5
 10
1969.0313022204919
 20
1732.905944723276
 11
1969.0313022204919
 21
1794.7126847232762
  0
TEXT
  8
_0-7_
 62
    7
 10
1875.6497202839955
 20
1887.9650948812291
 40
38.006293402777779
 41
1
 50
0
  1
φ35
  0
LINE
  8
_0-7_
  6
CONTINUOUS
 62
    7
 10
1875.649720283996
 20
1882.8145393256739
 11
2010.2476665275258
 21
1882.8145393256739
  0
LINE
  8
_0-7_
  6
CONTINUOUS
 62
    7
 10
2100.2613639829565
 20
1785.3145392511681
 11
2100.2613639829565
 21
1866.8145392884207
  0
LINE
  8
_0-7_
  6
CONTINUOUS
 62
    7
 10
2202.2613639829565
 20
1785.3145392511681
 11
2202.2613639829565
 21
1866.8145392884207
  0
LINE
  8
_0-7_
  6
CONTINUOUS
 62
    7
 10
2100.2613639829565
 20
1856.8145393256736
 11
2202.2613639829565
 21
1856.8145393256736
  0
CIRCLE
  8
_0-7_
  6
CONTINUOUS
 62
    7
 10
2100.2613639829565
 20
1856.8145393256736
 40
3.751708984375
  0
CIRCLE
  8
_0-7_
  6
CONTINUOUS
 62
    7
 10
2202.2613639829565
 20
1856.8145393256736
 40
3.751708984375
  0
POINT
  8
_0-7_
 62
    7
 10
2100.2613639829565
 20
1856.8145393256736
  0
LINE
  8
_0-7_
  6
CONTINUOUS
 62
    7
 10
2304.2613639829565
 20
1785.3145392511681
 11
2304.2613639829565
 21
1866.8145392884207
  0
LINE
  8
_0-7_
  6
CONTINUOUS
 62
    7
 10
2202.2613639829565
 20
1785.3145392511681
 11
2202.2613639829565
 21
1866.8145392884207
  0
LINE
  8
_0-7_
  6
CONTINUOUS
 62
    7
 10
2304.2613639829565
 20
1856.8145393256736
 11
2202.2613639829565
 21
1856.8145393256736
  0
CIRCLE
  8
_0-7_
  6
CONTINUOUS
 62
    7
 10
2304.2613639829565
 20
1856.8145393256736
 40
3.751708984375
  0
CIRCLE
  8
_0-7_
  6
CONTINUOUS
 62
    7
 10
2202.2613639829565
 20
1856.8145393256736
 40
3.751708984375
  0
TEXT
  8
_0-7_
 62
    7
 10
2216.21969731629
 20
1868.7289837514918
 40
38.006293402777779
 41
1
 50
0
  1
102
  0
POINT
  8
_0-7_
 62
    7
 10
2304.2613639829565
 20
1856.8145393256736
  0
LINE
  8
_0-7_
  6
CONTINUOUS
 62
    7
 10
2047.7613640574623
 20
1732.8145393256739
 11
1959.0100622577449
 21
1732.8145393256739
  0
LINE
  8
_0-7_
  6
CONTINUOUS
 62
    7
 10
1993.3870149945737
 20
1794.8145393256736
 11
1959.0100622577449
 21
1794.8145393256736
  0
LINE
  8
_0-7_
  6
CONTINUOUS
 62
    7
 10
1969.010062220492
 20
1732.8145393256739
 11
1969.010062220492
 21
1794.8145393256736
  0
CIRCLE
  8
_0-7_
  6
CONTINUOUS
 62
    7
 10
1969.010062220492
 20
1732.8145393256739
 40
3.751708984375
  0
CIRCLE
  8
_0-7_
  6
CONTINUOUS
 62
    7
 10
1969.010062220492
 20
1794.8145393256736
 40
3.751708984375
  0
TEXT
  8
_0-7_
 62
    7
 10
1957.0956177946737
 20
1739.1200948812293
 40
38.006293402777779
 41
1
 50
90
  1
62
  0
POINT
  8
_0-7_
 62
    7
 10
1969.010062220492
 20
1732.8145393256739
  0
LINE
  8
_0-1_レイヤ___1
  6
CONTINUOUS
 62
    7
 10
1809.010062220492
 20
1594.9005847232756
 11
1809.010062220492
 21
1745.6062847232761
  0
LINE
  8
_0-1_レイヤ___1
  6
CONTINUOUS
 62
    7
 10
2595.987012220492
 20
1745.6062847232761
 11
2595.987012220492
 21
1594.9005847232756
  0
LINE
  8
_0-1_レイヤ___1
  6
CONTINUOUS
 62
    7
 10
2202.286662220492
 20
1594.9005847232756
 11
2202.286662220492
 21
1637.6559447232762
  0
LINE
  8
_0-1_レイヤ___1
  6
CONTINUOUS
 62
    7
 10
1843.7245722204921
 20
1594.9005847232756
 11
1843.7245722204921
 21
1627.9201047232759
  0
LINE
  8
_0-1_レイヤ___1
  6
CONTINUOUS
 62
    7
 10
1859.8114422204917
 20
1594.9005847232756
 11
1859.8114422204917
 21
1625.803094723276
  0
LINE
  8
_0-1_レイヤ___1
  6
CONTINUOUS
 62
    7
 10
2544.763602220492
 20
1625.803094723276
 11
2544.763602220492
 21
1594.9005847232756
  0
LINE
  8
_0-1_レイヤ___1
  6
CONTINUOUS
 62
    7
 10
2560.8504822204918
 20
1627.9201047232759
 11
2560.8504822204918
 21
1594.9005847232756
  0
ENDSEC
  0
EOF
