  0
SECTION
  2
HEADER
  9
$ACADVER
  1
AC1009
  9
$INSBASE
 10
0
 20
0
 30
0
  9
$EXTMIN
 10
0
 20
0
  9
$EXTMAX
 10
2970
 20
2100
  9
$LIMMIN
 10
0
 20
0
  9
$LIMMAX
 10
2970
 20
2100
  9
$LTSCALE
 40
10
  0
ENDSEC
  0
SECTION
  2
TABLES
  0
TABLE
  2
LTYPE
 70
     9
  0
LTYPE
  2
CONTINUOUS
 70
    64
  3
実線
 72
    65
 73
     0
 40
0.0
  0
LTYPE
  2
DASHED1
 70
    64
  3
--  --  --  --  --  --  --  --  
 72
    65
 73
     2
 40
2.5
 49
1.25
 49
-1.25
  0
LTYPE
  2
DASHED2
 70
    64
  3
----    ----    ----    ----    
 72
    65
 73
     2
 40
5.0
 49
2.5
 49
-2.5
  0
LTYPE
  2
DASHED3
 70
    64
  3
------  ------  ------  ------  
 72
    65
 73
     2
 40
5.0
 49
3.75
 49
-1.25
  0
LTYPE
  2
CENTER1
 70
    64
  3
----- - ----- - ----- - ----- - 
 72
    65
 73
     4
 40
10.0
 49
6.25
 49
-1.25
 49
1.25
 49
-1.25
  0
LTYPE
  2
CENTER2
 70
    64
  3
----------  --  ----------  --  
 72
    65
 73
     4
 40
20.0
 49
12.5
 49
-2.5
 49
2.5
 49
-2.5
  0
LTYPE
  2
PHANTOM1
 70
    64
  3
--- - - --- - - --- - - --- - - 
 72
    65
 73
     6
 40
10.0
 49
3.25
 49
-1.25
 49
1.25
 49
-1.25
 49
1.25
 49
-1.25
  0
LTYPE
  2
PHANTOM2
 70
    64
  3
--------  -  -  --------  -  -  
 72
    65
 73
     6
 40
20.0
 49
10.0
 49
-2.5
 49
1.25
 49
-2.5
 49
1.25
 49
-2.5
  0
LTYPE
  2
DOT
 70
    64
  3
-   -   -   -   -   -   -   -   
 72
    65
 73
     2
 40
2.5
 49
0.625
 49
-1.875
  0
LTYPE
  2
DUMMY
 70
    64
  3
ダミー
 72
    65
 73
     0
 40
0.0
  0
LTYPE
  2
RAND1
 70
    64
  3
ランダム線1
 72
    65
 73
     4
 40
10.0
 49
1.0
 49
-2.0
 49
3.0
 49
-4.0
  0
LTYPE
  2
RAND2
 70
    64
  3
ランダム線2
 72
    65
 73
     4
 40
14.0
 49
2.0
 49
-3.0
 49
4.0
 49
-5.0
  0
LTYPE
  2
RAND3
 70
    64
  3
ランダム線3
 72
    65
 73
     4
 40
18.0
 49
3.0
 49
-4.0
 49
5.0
 49
-6.0
  0
LTYPE
  2
RAND4
 70
    64
  3
ランダム線4
 72
    65
 73
     4
 40
22.0
 49
4.0
 49
-5.0
 49
6.0
 49
-7.0
  0
LTYPE
  2
RAND5
 70
    64
  3
ランダム線5
 72
    65
 73
     4
 40
26.0
 49
5.0
 49
-6.0
 49
7.0
 49
-8.0
  0
LTYPE
  2
LONG1
 70
    64
  3
----------  --  ----------  --  
 72
    65
 73
     4
 40
40.0
 49
32.5
 49
-2.5
 49
2.5
 49
-2.5
  0
LTYPE
  2
LONG2
 70
    64
  3
--------  -  -  --------  -  -  
 72
    65
 73
     6
 40
40.0
 49
30.0
 49
-2.5
 49
1.25
 49
-2.5
 49
1.25
 49
-2.5
  0
LTYPE
  2
LONG3
 70
    64
  3
+++++++++++++++..+++++++++++++++
 72
    65
 73
     2
 40
40.0
 49
37.5
 49
-2.5
  0
LTYPE
  2
LONG4
 70
    64
  3
+++++++++++++++..+++++++++++++++
 72
    65
 73
     2
 40
80.0
 49
75.0
 49
-5.0
  0
LTYPE
  2
LONG5
 70
    64
  3
----------  --  ----------  --  
 72
    65
 73
     4
 40
60.0
 49
37.5
 49
-7.5
 49
7.5
 49
-7.5
  0
LTYPE
  2
dashed
 70
   64
  3
-------   -------------   ------
 72
   65
 73
    2
 40
7.5
 49
6
 49
-1.5
  0
LTYPE
  2
dashed_spaced
 70
   64
  3
----        --------        ----
 72
   65
 73
    2
 40
12
 49
6
 49
-6
  0
LTYPE
  2
long_dashed_dotted
 70
   64
  3
------------- --- --------------
 72
   65
 73
    4
 40
15.25
 49
12
 49
-1.5
 49
0.25
 49
-1.5
  0
LTYPE
  2
long_dashed_double-dotted
 70
   64
  3
----------- --- --- ------------
 72
   65
 73
    6
 40
17
 49
12
 49
-1.5
 49
0.25
 49
-1.5
 49
0.25
 49
-1.5
  0
LTYPE
  2
long_dashed_triplicate-dotted
 70
   64
  3
--------- --- --- --- ----------
 72
   65
 73
    8
 40
18.75
 49
12
 49
-1.5
 49
0.25
 49
-1.5
 49
0.25
 49
-1.5
 49
0.25
 49
-1.5
  0
LTYPE
  2
dotted
 70
   64
  3
   -       -       -       -    
 72
   65
 73
    2
 40
1.75
 49
0.25
 49
-1.5
  0
LTYPE
  2
chain
 70
   64
  3
-------------- -- --------------
 72
   65
 73
    4
 40
18.5
 49
12
 49
-1.5
 49
3.5
 49
-1.5
  0
LTYPE
  2
chain_double_dash
 70
   64
  3
------------ -- -- -------------
 72
   65
 73
    6
 40
23.5
 49
12
 49
-1.5
 49
3.5
 49
-1.5
 49
3.5
 49
-1.5
  0
LTYPE
  2
dashed_dotted
 70
   64
  3
-----------     -     ----------
 72
   65
 73
    4
 40
9.25
 49
6
 49
-1.5
 49
0.25
 49
-1.5
  0
LTYPE
  2
double-dashed_dotted
 70
   64
  3
------   -----------   -   -----
 72
   65
 73
    6
 40
16.75
 49
6
 49
-1.5
 49
6
 49
-1.5
 49
0.25
 49
-1.5
  0
LTYPE
  2
dashed_double-dotted
 70
   64
  3
---------    -    -    ---------
 72
   65
 73
    6
 40
11
 49
6
 49
-1.5
 49
0.25
 49
-1.5
 49
0.25
 49
-1.5
  0
LTYPE
  2
double-dashed_double-dotted
 70
   64
  3
-----   ---------   -   -   ----
 72
   65
 73
    8
 40
18.5
 49
6
 49
-1.5
 49
6
 49
-1.5
 49
0.25
 49
-1.5
 49
0.25
 49
-1.5
  0
LTYPE
  2
dashed_triplicate-dotted
 70
   64
  3
-------    -    -    -    ------
 72
   65
 73
    8
 40
12.75
 49
6
 49
-1.5
 49
0.25
 49
-1.5
 49
0.25
 49
-1.5
 49
0.25
 49
-1.5
  0
LTYPE
  2
double-dashed_triplicate-dotted
 70
   64
  3
-----  ---------  -  -  -  -----
 72
   65
 73
   10
 40
20.25
 49
6
 49
-1.5
 49
6
 49
-1.5
 49
0.25
 49
-1.5
 49
0.25
 49
-1.5
 49
0.25
 49
-1.5
  0
LTYPE
  2
undefined
 70
   64
  3
--------------------------------
 72
   65
 73
    0
 40
0
  0
LTYPE
  2
_
 70
   64
  3
                                
 72
   65
 73
    0
 40
0
  0
LTYPE
  2
__18
 70
   64
  3
                                
 72
   65
 73
    0
 40
0
  0
LTYPE
  2
__19
 70
   64
  3
                                
 72
   65
 73
    0
 40
0
  0
LTYPE
  2
__20
 70
   64
  3
                                
 72
   65
 73
    0
 40
0
  0
LTYPE
  2
__21
 70
   64
  3
                                
 72
   65
 73
    0
 40
0
  0
LTYPE
  2
__22
 70
   64
  3
                                
 72
   65
 73
    0
 40
0
  0
LTYPE
  2
__23
 70
   64
  3
                                
 72
   65
 73
    0
 40
0
  0
LTYPE
  2
__24
 70
   64
  3
                                
 72
   65
 73
    0
 40
0
  0
LTYPE
  2
__25
 70
   64
  3
                                
 72
   65
 73
    0
 40
0
  0
LTYPE
  2
__26
 70
   64
  3
                                
 72
   65
 73
    0
 40
0
  0
LTYPE
  2
__27
 70
   64
  3
                                
 72
   65
 73
    0
 40
0
  0
LTYPE
  2
__28
 70
   64
  3
                                
 72
   65
 73
    0
 40
0
  0
LTYPE
  2
__29
 70
   64
  3
                                
 72
   65
 73
    0
 40
0
  0
LTYPE
  2
__30
 70
   64
  3
                                
 72
   65
 73
    0
 40
0
  0
LTYPE
  2
__31
 70
   64
  3
                                
 72
   65
 73
    0
 40
0
  0
LTYPE
  2
__32
 70
   64
  3
                                
 72
   65
 73
    0
 40
0
  0
ENDTAB
  0
TABLE
  2
STYLE
  5
3
100
AcDbSymbolTable
 70
     1
  0
STYLE
  5
10
100
AcDbSymbolTableRecord
100
AcDbTextStyleTableRecord
  2
STANDARD
 70
     0
 40
0.0
 41
1.0
 50
0.0
 71
     0
 42
0.2
  3
txt
  4
bigfont.shx
  0
STYLE
  5
26
100
AcDbSymbolTableRecord
100
AcDbTextStyleTableRecord
  2
TATEGAKI
 70
    68
 40
0.0
 41
1.0
 50
0.0
 71
     0
 42
1.0
  3
txt
  4
bigfont.shx
  0
ENDTAB
  0
TABLE
  2
LAYER
 70
    4
  0
LAYER
  2
_0-1_レイヤ___1
 70
   64
 62
    7
  6
CONTINUOUS
  0
LAYER
  2
_0-7_
 70
   64
 62
    7
  6
CONTINUOUS
  0
LAYER
  2
_f-0_
 70
   64
 62
    7
  6
CONTINUOUS
  0
LAYER
  2
ADD_LINE
 70
   64
 62
    7
  6
CONTINUOUS
  0
ENDTAB
  0
ENDSEC
  0
SECTION
  2
BLOCKS
  0
ENDSEC
  0
SECTION
  2
ENTITIES
  0
CIRCLE
  8
_0-1_レイヤ___1
  6
CONTINUOUS
 62
    7
 10
920.48492500000009
 20
1475.316045
 40
45.94557378472259
  0
LINE
  8
_0-1_レイヤ___1
  6
CONTINUOUS
 62
    7
 10
602.98492500000009
 20
1513.6547350000001
 11
602.98492500000009
 21
1633.8816750000001
  0
LINE
  8
_0-1_レイヤ___1
  6
CONTINUOUS
 62
    7
 10
602.98492500000009
 20
1633.8816750000001
 11
602.98492500000009
 21
1754.1086150000001
  0
LINE
  8
_0-1_レイヤ___1
  6
CONTINUOUS
 62
    7
 10
602.98492500000009
 20
1754.1086150000001
 11
603.40867500000013
 21
1757.918895
  0
LINE
  8
_0-1_レイヤ___1
  6
CONTINUOUS
 62
    7
 10
603.40867500000013
 20
1757.918895
 11
603.83242500000028
 21
1761.7291650000002
  0
LINE
  8
_0-1_レイヤ___1
  6
CONTINUOUS
 62
    7
 10
603.83242500000028
 20
1761.7291650000002
 11
604.89006500000016
 21
1765.327565
  0
LINE
  8
_0-1_レイヤ___1
  6
CONTINUOUS
 62
    7
 10
604.89006500000016
 20
1765.327565
 11
605.94943500000011
 21
1768.9259749999999
  0
LINE
  8
_0-1_レイヤ___1
  6
CONTINUOUS
 62
    7
 10
605.94943500000011
 20
1768.9259749999999
 11
607.64269500000012
 21
1772.3125050000001
  0
LINE
  8
_0-1_レイヤ___1
  6
CONTINUOUS
 62
    7
 10
607.64269500000012
 20
1772.3125050000001
 11
609.33596500000021
 21
1775.6990250000001
  0
LINE
  8
_0-1_レイヤ___1
  6
CONTINUOUS
 62
    7
 10
609.33596500000021
 20
1775.6990250000001
 11
611.87672500000019
 21
1778.6618150000002
  0
LINE
  8
_0-1_レイヤ___1
  6
CONTINUOUS
 62
    7
 10
611.87672500000019
 20
1778.6618150000002
 11
614.4157550000001
 21
1781.626315
  0
LINE
  8
_0-1_レイヤ___1
  6
CONTINUOUS
 62
    7
 10
614.4157550000001
 20
1781.626315
 11
617.37853500000017
 21
1784.1670750000001
  0
LINE
  8
_0-1_レイヤ___1
  6
CONTINUOUS
 62
    7
 10
617.37853500000017
 20
1784.1670750000001
 11
620.34304500000019
 21
1786.7061050000002
  0
LINE
  8
_0-1_レイヤ___1
  6
CONTINUOUS
 62
    7
 10
620.34304500000019
 20
1786.7061050000002
 11
623.72957500000007
 21
1788.399375
  0
LINE
  8
_0-1_レイヤ___1
  6
CONTINUOUS
 62
    7
 10
623.72957500000007
 20
1788.399375
 11
627.11610500000006
 21
1790.092635
  0
LINE
  8
_0-1_レイヤ___1
  6
CONTINUOUS
 62
    7
 10
627.11610500000006
 20
1790.092635
 11
630.71450500000026
 21
1791.1502849999999
  0
LINE
  8
_0-1_レイヤ___1
  6
CONTINUOUS
 62
    7
 10
630.71450500000026
 20
1791.1502849999999
 11
634.31290500000023
 21
1792.2096450000001
  0
LINE
  8
_0-1_レイヤ___1
  6
CONTINUOUS
 62
    7
 10
634.31290500000023
 20
1792.2096450000001
 11
638.1214550000002
 21
1792.6316750000001
  0
LINE
  8
_0-1_レイヤ___1
  6
CONTINUOUS
 62
    7
 10
638.1214550000002
 20
1792.6316750000001
 11
641.93173500000012
 21
1793.055425
  0
LINE
  8
_0-1_レイヤ___1
  6
CONTINUOUS
 62
    7
 10
641.93173500000012
 20
1793.055425
 11
781.20833500000015
 21
1793.055425
  0
LINE
  8
_0-1_レイヤ___1
  6
CONTINUOUS
 62
    7
 10
781.20833500000015
 20
1793.055425
 11
920.48492500000009
 21
1793.055425
  0
LINE
  8
_0-1_レイヤ___1
  6
CONTINUOUS
 62
    7
 10
920.48492500000009
 20
1793.055425
 11
1059.5496550000003
 21
1793.055425
  0
LINE
  8
_0-1_レイヤ___1
  6
CONTINUOUS
 62
    7
 10
1059.5496550000003
 20
1793.055425
 11
1198.6161050000001
 21
1793.055425
  0
LINE
  8
_0-1_レイヤ___1
  6
CONTINUOUS
 62
    7
 10
1198.6161050000001
 20
1793.055425
 11
1202.424655
 21
1792.6316750000001
  0
LINE
  8
_0-1_レイヤ___1
  6
CONTINUOUS
 62
    7
 10
1202.424655
 20
1792.6316750000001
 11
1206.2349250000002
 21
1792.2096450000001
  0
LINE
  8
_0-1_レイヤ___1
  6
CONTINUOUS
 62
    7
 10
1206.2349250000002
 20
1792.2096450000001
 11
1210.0452050000001
 21
1791.1502849999999
  0
LINE
  8
_0-1_レイヤ___1
  6
CONTINUOUS
 62
    7
 10
1210.0452050000001
 20
1791.1502849999999
 11
1213.855485
 21
1790.092635
  0
LINE
  8
_0-1_レイヤ___1
  6
CONTINUOUS
 62
    7
 10
1213.855485
 20
1790.092635
 11
1217.2420050000001
 21
1788.399375
  0
LINE
  8
_0-1_レイヤ___1
  6
CONTINUOUS
 62
    7
 10
1217.2420050000001
 20
1788.399375
 11
1220.6285350000003
 21
1786.7061050000002
  0
LINE
  8
_0-1_レイヤ___1
  6
CONTINUOUS
 62
    7
 10
1220.6285350000003
 20
1786.7061050000002
 11
1223.5913250000001
 21
1784.1670750000001
  0
LINE
  8
_0-1_レイヤ___1
  6
CONTINUOUS
 62
    7
 10
1223.5913250000001
 20
1784.1670750000001
 11
1226.5558250000001
 21
1781.626315
  0
LINE
  8
_0-1_レイヤ___1
  6
CONTINUOUS
 62
    7
 10
1226.5558250000001
 20
1781.626315
 11
1228.8829850000002
 21
1778.6618150000002
  0
LINE
  8
_0-1_レイヤ___1
  6
CONTINUOUS
 62
    7
 10
1228.8829850000002
 20
1778.6618150000002
 11
1231.2118750000002
 21
1775.6990250000001
  0
LINE
  8
_0-1_レイヤ___1
  6
CONTINUOUS
 62
    7
 10
1231.2118750000002
 20
1775.6990250000001
 11
1233.1170050000001
 21
1772.3125050000001
  0
LINE
  8
_0-1_レイヤ___1
  6
CONTINUOUS
 62
    7
 10
1233.1170050000001
 20
1772.3125050000001
 11
1235.0221450000001
 21
1768.9259749999999
  0
LINE
  8
_0-1_レイヤ___1
  6
CONTINUOUS
 62
    7
 10
1235.0221450000001
 20
1768.9259749999999
 11
1236.0797950000001
 21
1765.327565
  0
LINE
  8
_0-1_レイヤ___1
  6
CONTINUOUS
 62
    7
 10
1236.0797950000001
 20
1765.327565
 11
1237.1391550000001
 21
1761.7291650000002
  0
LINE
  8
_0-1_レイヤ___1
  6
CONTINUOUS
 62
    7
 10
1237.1391550000001
 20
1761.7291650000002
 11
1237.561185
 21
1757.918895
  0
LINE
  8
_0-1_レイヤ___1
  6
CONTINUOUS
 62
    7
 10
1237.561185
 20
1757.918895
 11
1237.9849250000002
 21
1754.1086150000001
  0
LINE
  8
_0-1_レイヤ___1
  6
CONTINUOUS
 62
    7
 10
1237.9849250000002
 20
1754.1086150000001
 11
1237.9849250000002
 21
1633.8816750000001
  0
LINE
  8
_0-1_レイヤ___1
  6
CONTINUOUS
 62
    7
 10
1237.9849250000002
 20
1633.8816750000001
 11
1237.9849250000002
 21
1513.6547350000001
  0
LINE
  8
_0-1_レイヤ___1
  6
CONTINUOUS
 62
    7
 10
1237.9849250000002
 20
1513.6547350000001
 11
1237.9849250000002
 21
1393.4277850000001
  0
LINE
  8
_0-1_レイヤ___1
  6
CONTINUOUS
 62
    7
 10
1237.9849250000002
 20
1393.4277850000001
 11
1237.9849250000002
 21
1273.202565
  0
LINE
  8
_0-1_レイヤ___1
  6
CONTINUOUS
 62
    7
 10
1237.9849250000002
 20
1273.202565
 11
1237.561185
 21
1269.3922949999999
  0
LINE
  8
_0-1_レイヤ___1
  6
CONTINUOUS
 62
    7
 10
1237.561185
 20
1269.3922949999999
 11
1237.1391550000001
 21
1265.5820150000002
  0
LINE
  8
_0-1_レイヤ___1
  6
CONTINUOUS
 62
    7
 10
1237.1391550000001
 20
1265.5820150000002
 11
1236.0797950000001
 21
1261.9836150000001
  0
LINE
  8
_0-1_レイヤ___1
  6
CONTINUOUS
 62
    7
 10
1236.0797950000001
 20
1261.9836150000001
 11
1235.0221450000001
 21
1258.385215
  0
LINE
  8
_0-1_レイヤ___1
  6
CONTINUOUS
 62
    7
 10
1235.0221450000001
 20
1258.385215
 11
1233.1170050000001
 21
1254.998685
  0
LINE
  8
_0-1_レイヤ___1
  6
CONTINUOUS
 62
    7
 10
1233.1170050000001
 20
1254.998685
 11
1231.2118750000002
 21
1251.612155
  0
LINE
  8
_0-1_レイヤ___1
  6
CONTINUOUS
 62
    7
 10
1231.2118750000002
 20
1251.612155
 11
1228.8829850000002
 21
1248.647655
  0
LINE
  8
_0-1_レイヤ___1
  6
CONTINUOUS
 62
    7
 10
1228.8829850000002
 20
1248.647655
 11
1226.5558250000001
 21
1245.6848650000002
  0
LINE
  8
_0-1_レイヤ___1
  6
CONTINUOUS
 62
    7
 10
1226.5558250000001
 20
1245.6848650000002
 11
1223.5913250000001
 21
1243.145835
  0
LINE
  8
_0-1_レイヤ___1
  6
CONTINUOUS
 62
    7
 10
1223.5913250000001
 20
1243.145835
 11
1220.6285350000003
 21
1240.6050749999999
  0
LINE
  8
_0-1_レイヤ___1
  6
CONTINUOUS
 62
    7
 10
1220.6285350000003
 20
1240.6050749999999
 11
1217.2420050000001
 21
1238.9118149999999
  0
LINE
  8
_0-1_レイヤ___1
  6
CONTINUOUS
 62
    7
 10
1217.2420050000001
 20
1238.9118149999999
 11
1213.855485
 21
1237.2185450000002
  0
LINE
  8
_0-1_レイヤ___1
  6
CONTINUOUS
 62
    7
 10
1213.855485
 20
1237.2185450000002
 11
1210.0452050000001
 21
1236.159175
  0
LINE
  8
_0-1_レイヤ___1
  6
CONTINUOUS
 62
    7
 10
1210.0452050000001
 20
1236.159175
 11
1206.2349250000002
 21
1235.101535
  0
LINE
  8
_0-1_レイヤ___1
  6
CONTINUOUS
 62
    7
 10
1206.2349250000002
 20
1235.101535
 11
1202.424655
 21
1234.6777850000001
  0
LINE
  8
_0-1_レイヤ___1
  6
CONTINUOUS
 62
    7
 10
1202.424655
 20
1234.6777850000001
 11
1198.6161050000001
 21
1234.2557650000001
  0
LINE
  8
_0-1_レイヤ___1
  6
CONTINUOUS
 62
    7
 10
1198.6161050000001
 20
1234.2557650000001
 11
1059.5496550000003
 21
1234.2557650000001
  0
LINE
  8
_0-1_レイヤ___1
  6
CONTINUOUS
 62
    7
 10
1059.5496550000003
 20
1234.2557650000001
 11
920.48492500000009
 21
1234.2557650000001
  0
LINE
  8
_0-1_レイヤ___1
  6
CONTINUOUS
 62
    7
 10
920.48492500000009
 20
1234.2557650000001
 11
781.20833500000015
 21
1234.2557650000001
  0
LINE
  8
_0-1_レイヤ___1
  6
CONTINUOUS
 62
    7
 10
781.20833500000015
 20
1234.2557650000001
 11
641.93173500000012
 21
1234.2557650000001
  0
LINE
  8
_0-1_レイヤ___1
  6
CONTINUOUS
 62
    7
 10
641.93173500000012
 20
1234.2557650000001
 11
638.1214550000002
 21
1234.6777850000001
  0
LINE
  8
_0-1_レイヤ___1
  6
CONTINUOUS
 62
    7
 10
638.1214550000002
 20
1234.6777850000001
 11
634.31290500000023
 21
1235.101535
  0
LINE
  8
_0-1_レイヤ___1
  6
CONTINUOUS
 62
    7
 10
634.31290500000023
 20
1235.101535
 11
630.71450500000026
 21
1236.159175
  0
LINE
  8
_0-1_レイヤ___1
  6
CONTINUOUS
 62
    7
 10
630.71450500000026
 20
1236.159175
 11
627.11610500000006
 21
1237.2185450000002
  0
LINE
  8
_0-1_レイヤ___1
  6
CONTINUOUS
 62
    7
 10
627.11610500000006
 20
1237.2185450000002
 11
623.72957500000007
 21
1238.9118149999999
  0
LINE
  8
_0-1_レイヤ___1
  6
CONTINUOUS
 62
    7
 10
623.72957500000007
 20
1238.9118149999999
 11
620.34304500000019
 21
1240.6050749999999
  0
LINE
  8
_0-1_レイヤ___1
  6
CONTINUOUS
 62
    7
 10
620.34304500000019
 20
1240.6050749999999
 11
617.37853500000017
 21
1243.145835
  0
LINE
  8
_0-1_レイヤ___1
  6
CONTINUOUS
 62
    7
 10
617.37853500000017
 20
1243.145835
 11
614.4157550000001
 21
1245.6848650000002
  0
LINE
  8
_0-1_レイヤ___1
  6
CONTINUOUS
 62
    7
 10
614.4157550000001
 20
1245.6848650000002
 11
611.87672500000019
 21
1248.647655
  0
LINE
  8
_0-1_レイヤ___1
  6
CONTINUOUS
 62
    7
 10
611.87672500000019
 20
1248.647655
 11
609.33596500000021
 21
1251.612155
  0
LINE
  8
_0-1_レイヤ___1
  6
CONTINUOUS
 62
    7
 10
609.33596500000021
 20
1251.612155
 11
607.64269500000012
 21
1254.998685
  0
LINE
  8
_0-1_レイヤ___1
  6
CONTINUOUS
 62
    7
 10
607.64269500000012
 20
1254.998685
 11
605.94943500000011
 21
1258.385215
  0
LINE
  8
_0-1_レイヤ___1
  6
CONTINUOUS
 62
    7
 10
605.94943500000011
 20
1258.385215
 11
604.89006500000016
 21
1261.9836150000001
  0
LINE
  8
_0-1_レイヤ___1
  6
CONTINUOUS
 62
    7
 10
604.89006500000016
 20
1261.9836150000001
 11
603.83242500000028
 21
1265.5820150000002
  0
LINE
  8
_0-1_レイヤ___1
  6
CONTINUOUS
 62
    7
 10
603.83242500000028
 20
1265.5820150000002
 11
603.40867500000013
 21
1269.3922949999999
  0
LINE
  8
_0-1_レイヤ___1
  6
CONTINUOUS
 62
    7
 10
603.40867500000013
 20
1269.3922949999999
 11
602.98492500000009
 21
1273.202565
  0
LINE
  8
_0-1_レイヤ___1
  6
CONTINUOUS
 62
    7
 10
602.98492500000009
 20
1273.202565
 11
602.98492500000009
 21
1393.4277850000001
  0
LINE
  8
_0-1_レイヤ___1
  6
CONTINUOUS
 62
    7
 10
602.98492500000009
 20
1393.4277850000001
 11
602.98492500000009
 21
1513.6547350000001
  0
LINE
  8
_0-1_レイヤ___1
  6
CONTINUOUS
 62
    7
 10
649.55228500000021
 20
1512.3852149999998
 11
649.55228500000021
 21
1597.6875050000001
  0
LINE
  8
_0-1_レイヤ___1
  6
CONTINUOUS
 62
    7
 10
649.55228500000021
 20
1597.6875050000001
 11
649.55228500000021
 21
1682.988065
  0
LINE
  8
_0-1_レイヤ___1
  6
CONTINUOUS
 62
    7
 10
649.55228500000021
 20
1682.988065
 11
649.76415500000019
 21
1686.1644449999999
  0
LINE
  8
_0-1_レイヤ___1
  6
CONTINUOUS
 62
    7
 10
649.76415500000019
 20
1686.1644449999999
 11
649.97603500000025
 21
1689.339095
  0
LINE
  8
_0-1_レイヤ___1
  6
CONTINUOUS
 62
    7
 10
649.97603500000025
 20
1689.339095
 11
650.3997750000002
 21
1692.3036049999998
  0
LINE
  8
_0-1_レイヤ___1
  6
CONTINUOUS
 62
    7
 10
650.3997750000002
 20
1692.3036049999998
 11
650.82180500000027
 21
1695.2663849999999
  0
LINE
  8
_0-1_レイヤ___1
  6
CONTINUOUS
 62
    7
 10
650.82180500000027
 20
1695.2663849999999
 11
651.66757500000017
 21
1698.441045
  0
LINE
  8
_0-1_レイヤ___1
  6
CONTINUOUS
 62
    7
 10
651.66757500000017
 20
1698.441045
 11
652.51506500000005
 21
1701.6156950000002
  0
LINE
  8
_0-1_レイヤ___1
  6
CONTINUOUS
 62
    7
 10
652.51506500000005
 20
1701.6156950000002
 11
653.36256500000013
 21
1704.5784750000003
  0
LINE
  8
_0-1_レイヤ___1
  6
CONTINUOUS
 62
    7
 10
653.36256500000013
 20
1704.5784750000003
 11
654.20833500000015
 21
1707.542985
  0
LINE
  8
_0-1_レイヤ___1
  6
CONTINUOUS
 62
    7
 10
654.20833500000015
 20
1707.542985
 11
655.69144500000016
 21
1710.293895
  0
LINE
  8
_0-1_レイヤ___1
  6
CONTINUOUS
 62
    7
 10
655.69144500000016
 20
1710.293895
 11
657.17283500000008
 21
1713.0447950000002
  0
LINE
  8
_0-1_レイヤ___1
  6
CONTINUOUS
 62
    7
 10
657.17283500000008
 20
1713.0447950000002
 11
658.65422500000022
 21
1715.5855550000001
  0
LINE
  8
_0-1_レイヤ___1
  6
CONTINUOUS
 62
    7
 10
658.65422500000022
 20
1715.5855550000001
 11
660.13561500000014
 21
1718.126315
  0
LINE
  8
_0-1_レイヤ___1
  6
CONTINUOUS
 62
    7
 10
660.13561500000014
 20
1718.126315
 11
662.04075500000022
 21
1720.6670750000001
  0
LINE
  8
_0-1_レイヤ___1
  6
CONTINUOUS
 62
    7
 10
662.04075500000022
 20
1720.6670750000001
 11
663.94589500000029
 21
1723.2061050000002
  0
LINE
  8
_0-1_レイヤ___1
  6
CONTINUOUS
 62
    7
 10
663.94589500000029
 20
1723.2061050000002
 11
666.06118500000002
 21
1725.5349950000002
  0
LINE
  8
_0-1_レイヤ___1
  6
CONTINUOUS
 62
    7
 10
666.06118500000002
 20
1725.5349950000002
 11
668.17819500000019
 21
1727.862155
  0
LINE
  8
_0-1_レイヤ___1
  6
CONTINUOUS
 62
    7
 10
668.17819500000019
 20
1727.862155
 11
670.50707500000021
 21
1729.979165
  0
LINE
  8
_0-1_レイヤ___1
  6
CONTINUOUS
 62
    7
 10
670.50707500000021
 20
1729.979165
 11
672.83596500000021
 21
1732.0961750000001
  0
LINE
  8
_0-1_レイヤ___1
  6
CONTINUOUS
 62
    7
 10
672.83596500000021
 20
1732.0961750000001
 11
675.37672500000008
 21
1733.999595
  0
LINE
  8
_0-1_レイヤ___1
  6
CONTINUOUS
 62
    7
 10
675.37672500000008
 20
1733.999595
 11
677.91575500000022
 21
1735.9047350000001
  0
LINE
  8
_0-1_レイヤ___1
  6
CONTINUOUS
 62
    7
 10
677.91575500000022
 20
1735.9047350000001
 11
680.4547950000001
 21
1737.3861250000002
  0
LINE
  8
_0-1_レイヤ___1
  6
CONTINUOUS
 62
    7
 10
680.4547950000001
 20
1737.3861250000002
 11
682.99554500000011
 21
1738.8692349999999
  0
LINE
  8
_0-1_レイヤ___1
  6
CONTINUOUS
 62
    7
 10
682.99554500000011
 20
1738.8692349999999
 11
685.7464550000002
 21
1740.350625
  0
LINE
  8
_0-1_レイヤ___1
  6
CONTINUOUS
 62
    7
 10
685.7464550000002
 20
1740.350625
 11
688.49908500000015
 21
1741.832015
  0
LINE
  8
_0-1_レイヤ___1
  6
CONTINUOUS
 62
    7
 10
688.49908500000015
 20
1741.832015
 11
691.46187500000008
 21
1742.6777849999999
  0
LINE
  8
_0-1_レイヤ___1
  6
CONTINUOUS
 62
    7
 10
691.46187500000008
 20
1742.6777849999999
 11
694.42637500000023
 21
1743.5252850000002
  0
LINE
  8
_0-1_レイヤ___1
  6
CONTINUOUS
 62
    7
 10
694.42637500000023
 20
1743.5252850000002
 11
697.60103500000014
 21
1744.3727749999998
  0
LINE
  8
_0-1_レイヤ___1
  6
CONTINUOUS
 62
    7
 10
697.60103500000014
 20
1744.3727749999998
 11
700.77568500000007
 21
1745.2185449999999
  0
LINE
  8
_0-1_レイヤ___1
  6
CONTINUOUS
 62
    7
 10
700.77568500000007
 20
1745.2185449999999
 11
703.7401950000002
 21
1745.6422950000001
  0
LINE
  8
_0-1_レイヤ___1
  6
CONTINUOUS
 62
    7
 10
703.7401950000002
 20
1745.6422950000001
 11
706.70297500000015
 21
1746.066045
  0
LINE
  8
_0-1_レイヤ___1
  6
CONTINUOUS
 62
    7
 10
706.70297500000015
 20
1746.066045
 11
709.87762500000019
 21
1746.2779150000001
  0
LINE
  8
_0-1_レイヤ___1
  6
CONTINUOUS
 62
    7
 10
709.87762500000019
 20
1746.2779150000001
 11
713.0522850000001
 21
1746.488065
  0
LINE
  8
_0-1_レイヤ___1
  6
CONTINUOUS
 62
    7
 10
713.0522850000001
 20
1746.488065
 11
816.76860500000021
 21
1746.488065
  0
LINE
  8
_0-1_レイヤ___1
  6
CONTINUOUS
 62
    7
 10
816.76860500000021
 20
1746.488065
 11
920.48492500000009
 21
1746.488065
  0
LINE
  8
_0-1_レイヤ___1
  6
CONTINUOUS
 62
    7
 10
920.48492500000009
 20
1746.488065
 11
1024.2029750000002
 21
1746.488065
  0
LINE
  8
_0-1_レイヤ___1
  6
CONTINUOUS
 62
    7
 10
1024.2029750000002
 20
1746.488065
 11
1127.9192950000001
 21
1746.488065
  0
LINE
  8
_0-1_レイヤ___1
  6
CONTINUOUS
 62
    7
 10
1127.9192950000001
 20
1746.488065
 11
1130.882075
 21
1746.2779150000001
  0
LINE
  8
_0-1_レイヤ___1
  6
CONTINUOUS
 62
    7
 10
1130.882075
 20
1746.2779150000001
 11
1133.844865
 21
1746.066045
  0
LINE
  8
_0-1_レイヤ___1
  6
CONTINUOUS
 62
    7
 10
1133.844865
 20
1746.066045
 11
1137.0195150000002
 21
1745.6422950000001
  0
LINE
  8
_0-1_レイヤ___1
  6
CONTINUOUS
 62
    7
 10
1137.0195150000002
 20
1745.6422950000001
 11
1140.1958950000001
 21
1745.2185449999999
  0
LINE
  8
_0-1_レイヤ___1
  6
CONTINUOUS
 62
    7
 10
1140.1958950000001
 20
1745.2185449999999
 11
1143.1586750000001
 21
1744.3727749999998
  0
LINE
  8
_0-1_レイヤ___1
  6
CONTINUOUS
 62
    7
 10
1143.1586750000001
 20
1744.3727749999998
 11
1146.1214550000002
 21
1743.5252850000002
  0
LINE
  8
_0-1_レイヤ___1
  6
CONTINUOUS
 62
    7
 10
1146.1214550000002
 20
1743.5252850000002
 11
1149.084245
 21
1742.6777849999999
  0
LINE
  8
_0-1_レイヤ___1
  6
CONTINUOUS
 62
    7
 10
1149.084245
 20
1742.6777849999999
 11
1152.0487450000001
 21
1741.832015
  0
LINE
  8
_0-1_レイヤ___1
  6
CONTINUOUS
 62
    7
 10
1152.0487450000001
 20
1741.832015
 11
1154.7996550000003
 21
1740.350625
  0
LINE
  8
_0-1_レイヤ___1
  6
CONTINUOUS
 62
    7
 10
1154.7996550000003
 20
1740.350625
 11
1157.5522850000002
 21
1738.8692349999999
  0
LINE
  8
_0-1_レイヤ___1
  6
CONTINUOUS
 62
    7
 10
1157.5522850000002
 20
1738.8692349999999
 11
1160.3049150000002
 21
1737.3861250000002
  0
LINE
  8
_0-1_レイヤ___1
  6
CONTINUOUS
 62
    7
 10
1160.3049150000002
 20
1737.3861250000002
 11
1163.0558250000001
 21
1735.9047350000001
  0
LINE
  8
_0-1_レイヤ___1
  6
CONTINUOUS
 62
    7
 10
1163.0558250000001
 20
1735.9047350000001
 11
1165.5965850000002
 21
1733.999595
  0
LINE
  8
_0-1_レイヤ___1
  6
CONTINUOUS
 62
    7
 10
1165.5965850000002
 20
1733.999595
 11
1168.1356150000001
 21
1732.0961750000001
  0
LINE
  8
_0-1_レイヤ___1
  6
CONTINUOUS
 62
    7
 10
1168.1356150000001
 20
1732.0961750000001
 11
1170.4645050000001
 21
1729.979165
  0
LINE
  8
_0-1_レイヤ___1
  6
CONTINUOUS
 62
    7
 10
1170.4645050000001
 20
1729.979165
 11
1172.7916650000002
 21
1727.862155
  0
LINE
  8
_0-1_レイヤ___1
  6
CONTINUOUS
 62
    7
 10
1172.7916650000002
 20
1727.862155
 11
1174.9086750000001
 21
1725.5349950000002
  0
LINE
  8
_0-1_レイヤ___1
  6
CONTINUOUS
 62
    7
 10
1174.9086750000001
 20
1725.5349950000002
 11
1177.0256850000001
 21
1723.2061050000002
  0
LINE
  8
_0-1_レイヤ___1
  6
CONTINUOUS
 62
    7
 10
1177.0256850000001
 20
1723.2061050000002
 11
1178.7189550000003
 21
1720.6670750000001
  0
LINE
  8
_0-1_レイヤ___1
  6
CONTINUOUS
 62
    7
 10
1178.7189550000003
 20
1720.6670750000001
 11
1180.4122150000003
 21
1718.126315
  0
LINE
  8
_0-1_レイヤ___1
  6
CONTINUOUS
 62
    7
 10
1180.4122150000003
 20
1718.126315
 11
1182.105485
 21
1715.5855550000001
  0
LINE
  8
_0-1_レイヤ___1
  6
CONTINUOUS
 62
    7
 10
1182.105485
 20
1715.5855550000001
 11
1183.7987450000001
 21
1713.0447950000002
  0
LINE
  8
_0-1_レイヤ___1
  6
CONTINUOUS
 62
    7
 10
1183.7987450000001
 20
1713.0447950000002
 11
1185.0682650000001
 21
1710.293895
  0
LINE
  8
_0-1_レイヤ___1
  6
CONTINUOUS
 62
    7
 10
1185.0682650000001
 20
1710.293895
 11
1186.3395050000001
 21
1707.542985
  0
LINE
  8
_0-1_レイヤ___1
  6
CONTINUOUS
 62
    7
 10
1186.3395050000001
 20
1707.542985
 11
1187.3971450000001
 21
1704.5784750000003
  0
LINE
  8
_0-1_レイヤ___1
  6
CONTINUOUS
 62
    7
 10
1187.3971450000001
 20
1704.5784750000003
 11
1188.4547950000001
 21
1701.6156950000002
  0
LINE
  8
_0-1_レイヤ___1
  6
CONTINUOUS
 62
    7
 10
1188.4547950000001
 20
1701.6156950000002
 11
1189.3022850000002
 21
1698.441045
  0
LINE
  8
_0-1_レイヤ___1
  6
CONTINUOUS
 62
    7
 10
1189.3022850000002
 20
1698.441045
 11
1190.1497750000001
 21
1695.2663849999999
  0
LINE
  8
_0-1_レイヤ___1
  6
CONTINUOUS
 62
    7
 10
1190.1497750000001
 20
1695.2663849999999
 11
1190.5735250000002
 21
1692.3036049999998
  0
LINE
  8
_0-1_レイヤ___1
  6
CONTINUOUS
 62
    7
 10
1190.5735250000002
 20
1692.3036049999998
 11
1190.9955450000002
 21
1689.339095
  0
LINE
  8
_0-1_レイヤ___1
  6
CONTINUOUS
 62
    7
 10
1190.9955450000002
 20
1689.339095
 11
1190.9955450000002
 21
1686.1644449999999
  0
LINE
  8
_0-1_レイヤ___1
  6
CONTINUOUS
 62
    7
 10
1190.9955450000002
 20
1686.1644449999999
 11
1190.9955450000002
 21
1682.988065
  0
LINE
  8
_0-1_レイヤ___1
  6
CONTINUOUS
 62
    7
 10
1190.9955450000002
 20
1682.988065
 11
1190.9955450000002
 21
1597.6875050000001
  0
LINE
  8
_0-1_レイヤ___1
  6
CONTINUOUS
 62
    7
 10
1190.9955450000002
 20
1597.6875050000001
 11
1190.9955450000002
 21
1512.3852149999998
  0
LINE
  8
_0-1_レイヤ___1
  6
CONTINUOUS
 62
    7
 10
1190.9955450000002
 20
1512.3852149999998
 11
1190.9955450000002
 21
1426.8727749999998
  0
LINE
  8
_0-1_レイヤ___1
  6
CONTINUOUS
 62
    7
 10
1190.9955450000002
 20
1426.8727749999998
 11
1190.9955450000002
 21
1341.3586150000001
  0
LINE
  8
_0-1_レイヤ___1
  6
CONTINUOUS
 62
    7
 10
1190.9955450000002
 20
1341.3586150000001
 11
1190.9955450000002
 21
1338.395835
  0
LINE
  8
_0-1_レイヤ___1
  6
CONTINUOUS
 62
    7
 10
1190.9955450000002
 20
1338.395835
 11
1190.9955450000002
 21
1335.433055
  0
LINE
  8
_0-1_レイヤ___1
  6
CONTINUOUS
 62
    7
 10
1190.9955450000002
 20
1335.433055
 11
1190.5735250000002
 21
1332.2566750000001
  0
LINE
  8
_0-1_レイヤ___1
  6
CONTINUOUS
 62
    7
 10
1190.5735250000002
 20
1332.2566750000001
 11
1190.1497750000001
 21
1329.082015
  0
LINE
  8
_0-1_レイヤ___1
  6
CONTINUOUS
 62
    7
 10
1190.1497750000001
 20
1329.082015
 11
1189.3022850000002
 21
1326.1175149999999
  0
LINE
  8
_0-1_レイヤ___1
  6
CONTINUOUS
 62
    7
 10
1189.3022850000002
 20
1326.1175149999999
 11
1188.4547950000001
 21
1323.1547350000001
  0
LINE
  8
_0-1_レイヤ___1
  6
CONTINUOUS
 62
    7
 10
1188.4547950000001
 20
1323.1547350000001
 11
1187.3971450000001
 21
1320.191945
  0
LINE
  8
_0-1_レイヤ___1
  6
CONTINUOUS
 62
    7
 10
1187.3971450000001
 20
1320.191945
 11
1186.3395050000001
 21
1317.229165
  0
LINE
  8
_0-1_レイヤ___1
  6
CONTINUOUS
 62
    7
 10
1186.3395050000001
 20
1317.229165
 11
1185.0682650000001
 21
1314.476535
  0
LINE
  8
_0-1_レイヤ___1
  6
CONTINUOUS
 62
    7
 10
1185.0682650000001
 20
1314.476535
 11
1183.7987450000001
 21
1311.725625
  0
LINE
  8
_0-1_レイヤ___1
  6
CONTINUOUS
 62
    7
 10
1183.7987450000001
 20
1311.725625
 11
1182.105485
 21
1308.9747149999998
  0
LINE
  8
_0-1_レイヤ___1
  6
CONTINUOUS
 62
    7
 10
1182.105485
 20
1308.9747149999998
 11
1180.4122150000003
 21
1306.2220849999999
  0
LINE
  8
_0-1_レイヤ___1
  6
CONTINUOUS
 62
    7
 10
1180.4122150000003
 20
1306.2220849999999
 11
1178.7189550000003
 21
1303.683055
  0
LINE
  8
_0-1_レイヤ___1
  6
CONTINUOUS
 62
    7
 10
1178.7189550000003
 20
1303.683055
 11
1177.0256850000001
 21
1301.1422949999999
  0
LINE
  8
_0-1_レイヤ___1
  6
CONTINUOUS
 62
    7
 10
1177.0256850000001
 20
1301.1422949999999
 11
1174.9086750000001
 21
1299.0252850000002
  0
LINE
  8
_0-1_レイヤ___1
  6
CONTINUOUS
 62
    7
 10
1174.9086750000001
 20
1299.0252850000002
 11
1172.7916650000002
 21
1296.9082750000002
  0
LINE
  8
_0-1_レイヤ___1
  6
CONTINUOUS
 62
    7
 10
1172.7916650000002
 20
1296.9082750000002
 11
1170.4645050000001
 21
1294.7912550000001
  0
LINE
  8
_0-1_レイヤ___1
  6
CONTINUOUS
 62
    7
 10
1170.4645050000001
 20
1294.7912550000001
 11
1168.1356150000001
 21
1292.6759750000001
  0
LINE
  8
_0-1_レイヤ___1
  6
CONTINUOUS
 62
    7
 10
1168.1356150000001
 20
1292.6759750000001
 11
1165.5965850000002
 21
1290.7708350000003
  0
LINE
  8
_0-1_レイヤ___1
  6
CONTINUOUS
 62
    7
 10
1165.5965850000002
 20
1290.7708350000003
 11
1163.0558250000001
 21
1288.865695
  0
LINE
  8
_0-1_レイヤ___1
  6
CONTINUOUS
 62
    7
 10
1163.0558250000001
 20
1288.865695
 11
1160.3049150000002
 21
1287.172435
  0
LINE
  8
_0-1_レイヤ___1
  6
CONTINUOUS
 62
    7
 10
1160.3049150000002
 20
1287.172435
 11
1157.5522850000002
 21
1285.4791649999997
  0
LINE
  8
_0-1_レイヤ___1
  6
CONTINUOUS
 62
    7
 10
1157.5522850000002
 20
1285.4791649999997
 11
1154.7996550000003
 21
1284.2079250000002
  0
LINE
  8
_0-1_レイヤ___1
  6
CONTINUOUS
 62
    7
 10
1154.7996550000003
 20
1284.2079250000002
 11
1152.0487450000001
 21
1282.9384049999999
  0
LINE
  8
_0-1_レイヤ___1
  6
CONTINUOUS
 62
    7
 10
1152.0487450000001
 20
1282.9384049999999
 11
1149.084245
 21
1281.8790450000001
  0
LINE
  8
_0-1_レイヤ___1
  6
CONTINUOUS
 62
    7
 10
1149.084245
 20
1281.8790450000001
 11
1146.1214550000002
 21
1280.8213949999999
  0
LINE
  8
_0-1_レイヤ___1
  6
CONTINUOUS
 62
    7
 10
1146.1214550000002
 20
1280.8213949999999
 11
1143.1586750000001
 21
1280.1875050000001
  0
LINE
  8
_0-1_レイヤ___1
  6
CONTINUOUS
 62
    7
 10
1143.1586750000001
 20
1280.1875050000001
 11
1140.1958950000001
 21
1279.5518850000001
  0
LINE
  8
_0-1_レイヤ___1
  6
CONTINUOUS
 62
    7
 10
1140.1958950000001
 20
1279.5518850000001
 11
1137.0195150000002
 21
1278.9162550000001
  0
LINE
  8
_0-1_レイヤ___1
  6
CONTINUOUS
 62
    7
 10
1137.0195150000002
 20
1278.9162550000001
 11
1133.844865
 21
1278.282365
  0
LINE
  8
_0-1_レイヤ___1
  6
CONTINUOUS
 62
    7
 10
1133.844865
 20
1278.282365
 11
1130.882075
 21
1278.282365
  0
LINE
  8
_0-1_レイヤ___1
  6
CONTINUOUS
 62
    7
 10
1130.882075
 20
1278.282365
 11
1127.9192950000001
 21
1278.282365
  0
LINE
  8
_0-1_レイヤ___1
  6
CONTINUOUS
 62
    7
 10
1127.9192950000001
 20
1278.282365
 11
1024.2029750000002
 21
1278.282365
  0
LINE
  8
_0-1_レイヤ___1
  6
CONTINUOUS
 62
    7
 10
1024.2029750000002
 20
1278.282365
 11
920.48492500000009
 21
1278.282365
  0
LINE
  8
_0-1_レイヤ___1
  6
CONTINUOUS
 62
    7
 10
920.48492500000009
 20
1278.282365
 11
816.76860500000021
 21
1278.282365
  0
LINE
  8
_0-1_レイヤ___1
  6
CONTINUOUS
 62
    7
 10
816.76860500000021
 20
1278.282365
 11
713.0522850000001
 21
1278.282365
  0
LINE
  8
_0-1_レイヤ___1
  6
CONTINUOUS
 62
    7
 10
713.0522850000001
 20
1278.282365
 11
709.87762500000019
 21
1278.282365
  0
LINE
  8
_0-1_レイヤ___1
  6
CONTINUOUS
 62
    7
 10
709.87762500000019
 20
1278.282365
 11
706.70297500000015
 21
1278.282365
  0
LINE
  8
_0-1_レイヤ___1
  6
CONTINUOUS
 62
    7
 10
706.70297500000015
 20
1278.282365
 11
703.7401950000002
 21
1278.9162550000001
  0
LINE
  8
_0-1_レイヤ___1
  6
CONTINUOUS
 62
    7
 10
703.7401950000002
 20
1278.9162550000001
 11
700.77568500000007
 21
1279.5518850000001
  0
LINE
  8
_0-1_レイヤ___1
  6
CONTINUOUS
 62
    7
 10
700.77568500000007
 20
1279.5518850000001
 11
697.60103500000014
 21
1280.1875050000001
  0
LINE
  8
_0-1_レイヤ___1
  6
CONTINUOUS
 62
    7
 10
697.60103500000014
 20
1280.1875050000001
 11
694.42637500000023
 21
1280.8213949999999
  0
LINE
  8
_0-1_レイヤ___1
  6
CONTINUOUS
 62
    7
 10
694.42637500000023
 20
1280.8213949999999
 11
691.46187500000008
 21
1281.8790450000001
  0
LINE
  8
_0-1_レイヤ___1
  6
CONTINUOUS
 62
    7
 10
691.46187500000008
 20
1281.8790450000001
 11
688.49908500000015
 21
1282.9384049999999
  0
LINE
  8
_0-1_レイヤ___1
  6
CONTINUOUS
 62
    7
 10
688.49908500000015
 20
1282.9384049999999
 11
685.7464550000002
 21
1284.2079250000002
  0
LINE
  8
_0-1_レイヤ___1
  6
CONTINUOUS
 62
    7
 10
685.7464550000002
 20
1284.2079250000002
 11
682.99554500000011
 21
1285.4791649999997
  0
LINE
  8
_0-1_レイヤ___1
  6
CONTINUOUS
 62
    7
 10
682.99554500000011
 20
1285.4791649999997
 11
680.4547950000001
 21
1287.172435
  0
LINE
  8
_0-1_レイヤ___1
  6
CONTINUOUS
 62
    7
 10
680.4547950000001
 20
1287.172435
 11
677.91575500000022
 21
1288.865695
  0
LINE
  8
_0-1_レイヤ___1
  6
CONTINUOUS
 62
    7
 10
677.91575500000022
 20
1288.865695
 11
675.37672500000008
 21
1290.7708350000003
  0
LINE
  8
_0-1_レイヤ___1
  6
CONTINUOUS
 62
    7
 10
675.37672500000008
 20
1290.7708350000003
 11
672.83596500000021
 21
1292.6759750000001
  0
LINE
  8
_0-1_レイヤ___1
  6
CONTINUOUS
 62
    7
 10
672.83596500000021
 20
1292.6759750000001
 11
670.50707500000021
 21
1294.7912550000001
  0
LINE
  8
_0-1_レイヤ___1
  6
CONTINUOUS
 62
    7
 10
670.50707500000021
 20
1294.7912550000001
 11
668.17819500000019
 21
1296.9082750000002
  0
LINE
  8
_0-1_レイヤ___1
  6
CONTINUOUS
 62
    7
 10
668.17819500000019
 20
1296.9082750000002
 11
666.06118500000002
 21
1299.0252850000002
  0
LINE
  8
_0-1_レイヤ___1
  6
CONTINUOUS
 62
    7
 10
666.06118500000002
 20
1299.0252850000002
 11
663.94589500000029
 21
1301.1422949999999
  0
LINE
  8
_0-1_レイヤ___1
  6
CONTINUOUS
 62
    7
 10
663.94589500000029
 20
1301.1422949999999
 11
662.04075500000022
 21
1303.683055
  0
LINE
  8
_0-1_レイヤ___1
  6
CONTINUOUS
 62
    7
 10
662.04075500000022
 20
1303.683055
 11
660.13561500000014
 21
1306.2220849999999
  0
LINE
  8
_0-1_レイヤ___1
  6
CONTINUOUS
 62
    7
 10
660.13561500000014
 20
1306.2220849999999
 11
658.65422500000022
 21
1308.9747149999998
  0
LINE
  8
_0-1_レイヤ___1
  6
CONTINUOUS
 62
    7
 10
658.65422500000022
 20
1308.9747149999998
 11
657.17283500000008
 21
1311.725625
  0
LINE
  8
_0-1_レイヤ___1
  6
CONTINUOUS
 62
    7
 10
657.17283500000008
 20
1311.725625
 11
655.69144500000016
 21
1314.476535
  0
LINE
  8
_0-1_レイヤ___1
  6
CONTINUOUS
 62
    7
 10
655.69144500000016
 20
1314.476535
 11
654.20833500000015
 21
1317.229165
  0
LINE
  8
_0-1_レイヤ___1
  6
CONTINUOUS
 62
    7
 10
654.20833500000015
 20
1317.229165
 11
653.36256500000013
 21
1320.191945
  0
LINE
  8
_0-1_レイヤ___1
  6
CONTINUOUS
 62
    7
 10
653.36256500000013
 20
1320.191945
 11
652.51506500000005
 21
1323.1547350000001
  0
LINE
  8
_0-1_レイヤ___1
  6
CONTINUOUS
 62
    7
 10
652.51506500000005
 20
1323.1547350000001
 11
651.66757500000017
 21
1326.1175149999999
  0
LINE
  8
_0-1_レイヤ___1
  6
CONTINUOUS
 62
    7
 10
651.66757500000017
 20
1326.1175149999999
 11
650.82180500000027
 21
1329.082015
  0
LINE
  8
_0-1_レイヤ___1
  6
CONTINUOUS
 62
    7
 10
650.82180500000027
 20
1329.082015
 11
650.3997750000002
 21
1332.2566750000001
  0
LINE
  8
_0-1_レイヤ___1
  6
CONTINUOUS
 62
    7
 10
650.3997750000002
 20
1332.2566750000001
 11
649.97603500000025
 21
1335.433055
  0
LINE
  8
_0-1_レイヤ___1
  6
CONTINUOUS
 62
    7
 10
649.97603500000025
 20
1335.433055
 11
649.76415500000019
 21
1338.395835
  0
LINE
  8
_0-1_レイヤ___1
  6
CONTINUOUS
 62
    7
 10
649.76415500000019
 20
1338.395835
 11
649.55228500000021
 21
1341.3586150000001
  0
LINE
  8
_0-1_レイヤ___1
  6
CONTINUOUS
 62
    7
 10
649.55228500000021
 20
1341.3586150000001
 11
649.55228500000021
 21
1426.8727749999998
  0
LINE
  8
_0-1_レイヤ___1
  6
CONTINUOUS
 62
    7
 10
649.55228500000021
 20
1426.8727749999998
 11
649.55228500000021
 21
1512.3852149999998
  0
LINE
  8
_0-1_レイヤ___1
  6
CONTINUOUS
 62
    7
 10
649.55228500000021
 20
1472.592635
 11
649.55228500000021
 21
1537.997775
  0
LINE
  8
_0-1_レイヤ___1
  6
CONTINUOUS
 62
    7
 10
649.55228500000021
 20
1537.997775
 11
649.55228500000021
 21
1603.4029150000001
  0
LINE
  8
_0-1_レイヤ___1
  6
CONTINUOUS
 62
    7
 10
649.55228500000021
 20
1603.4029150000001
 11
649.76415500000019
 21
1606.577565
  0
LINE
  8
_0-1_レイヤ___1
  6
CONTINUOUS
 62
    7
 10
649.76415500000019
 20
1606.577565
 11
649.97603500000025
 21
1609.752225
  0
LINE
  8
_0-1_レイヤ___1
  6
CONTINUOUS
 62
    7
 10
649.97603500000025
 20
1609.752225
 11
650.3997750000002
 21
1612.9268849999999
  0
LINE
  8
_0-1_レイヤ___1
  6
CONTINUOUS
 62
    7
 10
650.3997750000002
 20
1612.9268849999999
 11
650.82180500000027
 21
1616.101535
  0
LINE
  8
_0-1_レイヤ___1
  6
CONTINUOUS
 62
    7
 10
650.82180500000027
 20
1616.101535
 11
651.66757500000017
 21
1619.0643150000001
  0
LINE
  8
_0-1_レイヤ___1
  6
CONTINUOUS
 62
    7
 10
651.66757500000017
 20
1619.0643150000001
 11
652.51506500000005
 21
1622.0288250000001
  0
LINE
  8
_0-1_レイヤ___1
  6
CONTINUOUS
 62
    7
 10
652.51506500000005
 20
1622.0288250000001
 11
653.36256500000013
 21
1624.9933250000001
  0
LINE
  8
_0-1_レイヤ___1
  6
CONTINUOUS
 62
    7
 10
653.36256500000013
 20
1624.9933250000001
 11
654.20833500000015
 21
1627.9561050000002
  0
LINE
  8
_0-1_レイヤ___1
  6
CONTINUOUS
 62
    7
 10
654.20833500000015
 20
1627.9561050000002
 11
655.69144500000016
 21
1630.7087449999999
  0
LINE
  8
_0-1_レイヤ___1
  6
CONTINUOUS
 62
    7
 10
655.69144500000016
 20
1630.7087449999999
 11
657.17283500000008
 21
1633.4596450000001
  0
LINE
  8
_0-1_レイヤ___1
  6
CONTINUOUS
 62
    7
 10
657.17283500000008
 20
1633.4596450000001
 11
658.65422500000022
 21
1636.2105550000001
  0
LINE
  8
_0-1_レイヤ___1
  6
CONTINUOUS
 62
    7
 10
658.65422500000022
 20
1636.2105550000001
 11
660.13561500000014
 21
1638.9614650000001
  0
LINE
  8
_0-1_レイヤ___1
  6
CONTINUOUS
 62
    7
 10
660.13561500000014
 20
1638.9614650000001
 11
662.04075500000022
 21
1641.2903550000001
  0
LINE
  8
_0-1_レイヤ___1
  6
CONTINUOUS
 62
    7
 10
662.04075500000022
 20
1641.2903550000001
 11
663.94589500000029
 21
1643.6192349999999
  0
LINE
  8
_0-1_レイヤ___1
  6
CONTINUOUS
 62
    7
 10
663.94589500000029
 20
1643.6192349999999
 11
666.06118500000002
 21
1645.9463949999999
  0
LINE
  8
_0-1_レイヤ___1
  6
CONTINUOUS
 62
    7
 10
666.06118500000002
 20
1645.9463949999999
 11
668.17819500000019
 21
1648.2752849999999
  0
LINE
  8
_0-1_レイヤ___1
  6
CONTINUOUS
 62
    7
 10
668.17819500000019
 20
1648.2752849999999
 11
670.50707500000021
 21
1650.3922950000001
  0
LINE
  8
_0-1_レイヤ___1
  6
CONTINUOUS
 62
    7
 10
670.50707500000021
 20
1650.3922950000001
 11
672.83596500000021
 21
1652.509305
  0
LINE
  8
_0-1_レイヤ___1
  6
CONTINUOUS
 62
    7
 10
672.83596500000021
 20
1652.509305
 11
675.37672500000008
 21
1654.4144449999999
  0
LINE
  8
_0-1_レイヤ___1
  6
CONTINUOUS
 62
    7
 10
675.37672500000008
 20
1654.4144449999999
 11
677.91575500000022
 21
1656.319585
  0
LINE
  8
_0-1_レイヤ___1
  6
CONTINUOUS
 62
    7
 10
677.91575500000022
 20
1656.319585
 11
680.4547950000001
 21
1657.8009750000001
  0
LINE
  8
_0-1_レイヤ___1
  6
CONTINUOUS
 62
    7
 10
680.4547950000001
 20
1657.8009750000001
 11
682.99554500000011
 21
1659.282365
  0
LINE
  8
_0-1_レイヤ___1
  6
CONTINUOUS
 62
    7
 10
682.99554500000011
 20
1659.282365
 11
685.7464550000002
 21
1660.7637550000002
  0
LINE
  8
_0-1_レイヤ___1
  6
CONTINUOUS
 62
    7
 10
685.7464550000002
 20
1660.7637550000002
 11
688.49908500000015
 21
1662.2451449999999
  0
LINE
  8
_0-1_レイヤ___1
  6
CONTINUOUS
 62
    7
 10
688.49908500000015
 20
1662.2451449999999
 11
691.46187500000008
 21
1663.3027849999999
  0
LINE
  8
_0-1_レイヤ___1
  6
CONTINUOUS
 62
    7
 10
691.46187500000008
 20
1663.3027849999999
 11
694.42637500000023
 21
1664.362155
  0
LINE
  8
_0-1_レイヤ___1
  6
CONTINUOUS
 62
    7
 10
694.42637500000023
 20
1664.362155
 11
697.60103500000014
 21
1664.9977749999998
  0
LINE
  8
_0-1_レイヤ___1
  6
CONTINUOUS
 62
    7
 10
697.60103500000014
 20
1664.9977749999998
 11
700.77568500000007
 21
1665.6316749999999
  0
LINE
  8
_0-1_レイヤ___1
  6
CONTINUOUS
 62
    7
 10
700.77568500000007
 20
1665.6316749999999
 11
703.7401950000002
 21
1666.055425
  0
LINE
  8
_0-1_レイヤ___1
  6
CONTINUOUS
 62
    7
 10
703.7401950000002
 20
1666.055425
 11
706.70297500000015
 21
1666.4791650000002
  0
LINE
  8
_0-1_レイヤ___1
  6
CONTINUOUS
 62
    7
 10
706.70297500000015
 20
1666.4791650000002
 11
709.87762500000019
 21
1666.691045
  0
LINE
  8
_0-1_レイヤ___1
  6
CONTINUOUS
 62
    7
 10
709.87762500000019
 20
1666.691045
 11
713.0522850000001
 21
1666.9029150000001
  0
LINE
  8
_0-1_レイヤ___1
  6
CONTINUOUS
 62
    7
 10
713.0522850000001
 20
1666.9029150000001
 11
816.76860500000021
 21
1666.9029150000001
  0
LINE
  8
_0-1_レイヤ___1
  6
CONTINUOUS
 62
    7
 10
816.76860500000021
 20
1666.9029150000001
 11
920.48492500000009
 21
1666.9029150000001
  0
LINE
  8
_0-1_レイヤ___1
  6
CONTINUOUS
 62
    7
 10
920.48492500000009
 20
1666.9029150000001
 11
1024.2029750000002
 21
1666.9029150000001
  0
LINE
  8
_0-1_レイヤ___1
  6
CONTINUOUS
 62
    7
 10
1024.2029750000002
 20
1666.9029150000001
 11
1127.9192950000001
 21
1666.9029150000001
  0
LINE
  8
_0-1_レイヤ___1
  6
CONTINUOUS
 62
    7
 10
1127.9192950000001
 20
1666.9029150000001
 11
1130.882075
 21
1666.691045
  0
LINE
  8
_0-1_レイヤ___1
  6
CONTINUOUS
 62
    7
 10
1130.882075
 20
1666.691045
 11
1133.844865
 21
1666.4791650000002
  0
LINE
  8
_0-1_レイヤ___1
  6
CONTINUOUS
 62
    7
 10
1133.844865
 20
1666.4791650000002
 11
1137.0195150000002
 21
1666.055425
  0
LINE
  8
_0-1_レイヤ___1
  6
CONTINUOUS
 62
    7
 10
1137.0195150000002
 20
1666.055425
 11
1140.1958950000001
 21
1665.6316749999999
  0
LINE
  8
_0-1_レイヤ___1
  6
CONTINUOUS
 62
    7
 10
1140.1958950000001
 20
1665.6316749999999
 11
1143.1586750000001
 21
1664.9977749999998
  0
LINE
  8
_0-1_レイヤ___1
  6
CONTINUOUS
 62
    7
 10
1143.1586750000001
 20
1664.9977749999998
 11
1146.1214550000002
 21
1664.362155
  0
LINE
  8
_0-1_レイヤ___1
  6
CONTINUOUS
 62
    7
 10
1146.1214550000002
 20
1664.362155
 11
1149.084245
 21
1663.3027849999999
  0
LINE
  8
_0-1_レイヤ___1
  6
CONTINUOUS
 62
    7
 10
1149.084245
 20
1663.3027849999999
 11
1152.0487450000001
 21
1662.2451449999999
  0
LINE
  8
_0-1_レイヤ___1
  6
CONTINUOUS
 62
    7
 10
1152.0487450000001
 20
1662.2451449999999
 11
1154.7996550000003
 21
1660.7637550000002
  0
LINE
  8
_0-1_レイヤ___1
  6
CONTINUOUS
 62
    7
 10
1154.7996550000003
 20
1660.7637550000002
 11
1157.5522850000002
 21
1659.282365
  0
LINE
  8
_0-1_レイヤ___1
  6
CONTINUOUS
 62
    7
 10
1157.5522850000002
 20
1659.282365
 11
1160.3049150000002
 21
1657.8009750000001
  0
LINE
  8
_0-1_レイヤ___1
  6
CONTINUOUS
 62
    7
 10
1160.3049150000002
 20
1657.8009750000001
 11
1163.0558250000001
 21
1656.319585
  0
LINE
  8
_0-1_レイヤ___1
  6
CONTINUOUS
 62
    7
 10
1163.0558250000001
 20
1656.319585
 11
1165.5965850000002
 21
1654.4144449999999
  0
LINE
  8
_0-1_レイヤ___1
  6
CONTINUOUS
 62
    7
 10
1165.5965850000002
 20
1654.4144449999999
 11
1168.1356150000001
 21
1652.509305
  0
LINE
  8
_0-1_レイヤ___1
  6
CONTINUOUS
 62
    7
 10
1168.1356150000001
 20
1652.509305
 11
1170.4645050000001
 21
1650.3922950000001
  0
LINE
  8
_0-1_レイヤ___1
  6
CONTINUOUS
 62
    7
 10
1170.4645050000001
 20
1650.3922950000001
 11
1172.7916650000002
 21
1648.2752849999999
  0
LINE
  8
_0-1_レイヤ___1
  6
CONTINUOUS
 62
    7
 10
1172.7916650000002
 20
1648.2752849999999
 11
1174.9086750000001
 21
1645.9463949999999
  0
LINE
  8
_0-1_レイヤ___1
  6
CONTINUOUS
 62
    7
 10
1174.9086750000001
 20
1645.9463949999999
 11
1177.0256850000001
 21
1643.6192349999999
  0
LINE
  8
_0-1_レイヤ___1
  6
CONTINUOUS
 62
    7
 10
1177.0256850000001
 20
1643.6192349999999
 11
1178.7189550000003
 21
1641.2903550000001
  0
LINE
  8
_0-1_レイヤ___1
  6
CONTINUOUS
 62
    7
 10
1178.7189550000003
 20
1641.2903550000001
 11
1180.4122150000003
 21
1638.9614650000001
  0
LINE
  8
_0-1_レイヤ___1
  6
CONTINUOUS
 62
    7
 10
1180.4122150000003
 20
1638.9614650000001
 11
1182.105485
 21
1636.2105550000001
  0
LINE
  8
_0-1_レイヤ___1
  6
CONTINUOUS
 62
    7
 10
1182.105485
 20
1636.2105550000001
 11
1183.7987450000001
 21
1633.4596450000001
  0
LINE
  8
_0-1_レイヤ___1
  6
CONTINUOUS
 62
    7
 10
1183.7987450000001
 20
1633.4596450000001
 11
1185.0682650000001
 21
1630.7087449999999
  0
LINE
  8
_0-1_レイヤ___1
  6
CONTINUOUS
 62
    7
 10
1185.0682650000001
 20
1630.7087449999999
 11
1186.3395050000001
 21
1627.9561050000002
  0
LINE
  8
_0-1_レイヤ___1
  6
CONTINUOUS
 62
    7
 10
1186.3395050000001
 20
1627.9561050000002
 11
1187.3971450000001
 21
1624.9933250000001
  0
LINE
  8
_0-1_レイヤ___1
  6
CONTINUOUS
 62
    7
 10
1187.3971450000001
 20
1624.9933250000001
 11
1188.4547950000001
 21
1622.0288250000001
  0
LINE
  8
_0-1_レイヤ___1
  6
CONTINUOUS
 62
    7
 10
1188.4547950000001
 20
1622.0288250000001
 11
1189.3022850000002
 21
1619.0643150000001
  0
LINE
  8
_0-1_レイヤ___1
  6
CONTINUOUS
 62
    7
 10
1189.3022850000002
 20
1619.0643150000001
 11
1190.1497750000001
 21
1616.101535
  0
LINE
  8
_0-1_レイヤ___1
  6
CONTINUOUS
 62
    7
 10
1190.1497750000001
 20
1616.101535
 11
1190.5735250000002
 21
1612.9268849999999
  0
LINE
  8
_0-1_レイヤ___1
  6
CONTINUOUS
 62
    7
 10
1190.5735250000002
 20
1612.9268849999999
 11
1190.9955450000002
 21
1609.752225
  0
LINE
  8
_0-1_レイヤ___1
  6
CONTINUOUS
 62
    7
 10
1190.9955450000002
 20
1609.752225
 11
1190.9955450000002
 21
1606.577565
  0
LINE
  8
_0-1_レイヤ___1
  6
CONTINUOUS
 62
    7
 10
1190.9955450000002
 20
1606.577565
 11
1190.9955450000002
 21
1603.4029150000001
  0
LINE
  8
_0-1_レイヤ___1
  6
CONTINUOUS
 62
    7
 10
1190.9955450000002
 20
1603.4029150000001
 11
1190.9955450000002
 21
1537.997775
  0
LINE
  8
_0-1_レイヤ___1
  6
CONTINUOUS
 62
    7
 10
1190.9955450000002
 20
1537.997775
 11
1190.9955450000002
 21
1472.592635
  0
LINE
  8
_0-1_レイヤ___1
  6
CONTINUOUS
 62
    7
 10
1190.9955450000002
 20
1472.592635
 11
1190.9955450000002
 21
1406.975625
  0
LINE
  8
_0-1_レイヤ___1
  6
CONTINUOUS
 62
    7
 10
1190.9955450000002
 20
1406.975625
 11
1190.9955450000002
 21
1341.3586150000001
  0
LINE
  8
_0-1_レイヤ___1
  6
CONTINUOUS
 62
    7
 10
1190.9955450000002
 20
1341.3586150000001
 11
1190.9955450000002
 21
1338.395835
  0
LINE
  8
_0-1_レイヤ___1
  6
CONTINUOUS
 62
    7
 10
1190.9955450000002
 20
1338.395835
 11
1190.9955450000002
 21
1335.433055
  0
LINE
  8
_0-1_レイヤ___1
  6
CONTINUOUS
 62
    7
 10
1190.9955450000002
 20
1335.433055
 11
1190.5735250000002
 21
1332.2566750000001
  0
LINE
  8
_0-1_レイヤ___1
  6
CONTINUOUS
 62
    7
 10
1190.5735250000002
 20
1332.2566750000001
 11
1190.1497750000001
 21
1329.082015
  0
LINE
  8
_0-1_レイヤ___1
  6
CONTINUOUS
 62
    7
 10
1190.1497750000001
 20
1329.082015
 11
1189.3022850000002
 21
1326.1175149999999
  0
LINE
  8
_0-1_レイヤ___1
  6
CONTINUOUS
 62
    7
 10
1189.3022850000002
 20
1326.1175149999999
 11
1188.4547950000001
 21
1323.1547350000001
  0
LINE
  8
_0-1_レイヤ___1
  6
CONTINUOUS
 62
    7
 10
1188.4547950000001
 20
1323.1547350000001
 11
1187.3971450000001
 21
1320.191945
  0
LINE
  8
_0-1_レイヤ___1
  6
CONTINUOUS
 62
    7
 10
1187.3971450000001
 20
1320.191945
 11
1186.3395050000001
 21
1317.229165
  0
LINE
  8
_0-1_レイヤ___1
  6
CONTINUOUS
 62
    7
 10
1186.3395050000001
 20
1317.229165
 11
1185.0682650000001
 21
1314.476535
  0
LINE
  8
_0-1_レイヤ___1
  6
CONTINUOUS
 62
    7
 10
1185.0682650000001
 20
1314.476535
 11
1183.7987450000001
 21
1311.725625
  0
LINE
  8
_0-1_レイヤ___1
  6
CONTINUOUS
 62
    7
 10
1183.7987450000001
 20
1311.725625
 11
1182.105485
 21
1308.9747149999998
  0
LINE
  8
_0-1_レイヤ___1
  6
CONTINUOUS
 62
    7
 10
1182.105485
 20
1308.9747149999998
 11
1180.4122150000003
 21
1306.2220849999999
  0
LINE
  8
_0-1_レイヤ___1
  6
CONTINUOUS
 62
    7
 10
1180.4122150000003
 20
1306.2220849999999
 11
1178.7189550000003
 21
1303.683055
  0
LINE
  8
_0-1_レイヤ___1
  6
CONTINUOUS
 62
    7
 10
1178.7189550000003
 20
1303.683055
 11
1177.0256850000001
 21
1301.1422949999999
  0
LINE
  8
_0-1_レイヤ___1
  6
CONTINUOUS
 62
    7
 10
1177.0256850000001
 20
1301.1422949999999
 11
1174.9086750000001
 21
1299.0252850000002
  0
LINE
  8
_0-1_レイヤ___1
  6
CONTINUOUS
 62
    7
 10
1174.9086750000001
 20
1299.0252850000002
 11
1172.7916650000002
 21
1296.9082750000002
  0
LINE
  8
_0-1_レイヤ___1
  6
CONTINUOUS
 62
    7
 10
1172.7916650000002
 20
1296.9082750000002
 11
1170.4645050000001
 21
1294.7912550000001
  0
LINE
  8
_0-1_レイヤ___1
  6
CONTINUOUS
 62
    7
 10
1170.4645050000001
 20
1294.7912550000001
 11
1168.1356150000001
 21
1292.6759750000001
  0
LINE
  8
_0-1_レイヤ___1
  6
CONTINUOUS
 62
    7
 10
1168.1356150000001
 20
1292.6759750000001
 11
1165.5965850000002
 21
1290.7708350000003
  0
LINE
  8
_0-1_レイヤ___1
  6
CONTINUOUS
 62
    7
 10
1165.5965850000002
 20
1290.7708350000003
 11
1163.0558250000001
 21
1288.865695
  0
LINE
  8
_0-1_レイヤ___1
  6
CONTINUOUS
 62
    7
 10
1163.0558250000001
 20
1288.865695
 11
1160.3049150000002
 21
1287.172435
  0
LINE
  8
_0-1_レイヤ___1
  6
CONTINUOUS
 62
    7
 10
1160.3049150000002
 20
1287.172435
 11
1157.5522850000002
 21
1285.4791649999997
  0
LINE
  8
_0-1_レイヤ___1
  6
CONTINUOUS
 62
    7
 10
1157.5522850000002
 20
1285.4791649999997
 11
1154.7996550000003
 21
1284.2079250000002
  0
LINE
  8
_0-1_レイヤ___1
  6
CONTINUOUS
 62
    7
 10
1154.7996550000003
 20
1284.2079250000002
 11
1152.0487450000001
 21
1282.9384049999999
  0
LINE
  8
_0-1_レイヤ___1
  6
CONTINUOUS
 62
    7
 10
1152.0487450000001
 20
1282.9384049999999
 11
1149.084245
 21
1281.8790450000001
  0
LINE
  8
_0-1_レイヤ___1
  6
CONTINUOUS
 62
    7
 10
1149.084245
 20
1281.8790450000001
 11
1146.1214550000002
 21
1280.8213949999999
  0
LINE
  8
_0-1_レイヤ___1
  6
CONTINUOUS
 62
    7
 10
1146.1214550000002
 20
1280.8213949999999
 11
1143.1586750000001
 21
1280.1875050000001
  0
LINE
  8
_0-1_レイヤ___1
  6
CONTINUOUS
 62
    7
 10
1143.1586750000001
 20
1280.1875050000001
 11
1140.1958950000001
 21
1279.5518850000001
  0
LINE
  8
_0-1_レイヤ___1
  6
CONTINUOUS
 62
    7
 10
1140.1958950000001
 20
1279.5518850000001
 11
1137.0195150000002
 21
1278.9162550000001
  0
LINE
  8
_0-1_レイヤ___1
  6
CONTINUOUS
 62
    7
 10
1137.0195150000002
 20
1278.9162550000001
 11
1133.844865
 21
1278.282365
  0
LINE
  8
_0-1_レイヤ___1
  6
CONTINUOUS
 62
    7
 10
1133.844865
 20
1278.282365
 11
1130.882075
 21
1278.282365
  0
LINE
  8
_0-1_レイヤ___1
  6
CONTINUOUS
 62
    7
 10
1130.882075
 20
1278.282365
 11
1127.9192950000001
 21
1278.282365
  0
LINE
  8
_0-1_レイヤ___1
  6
CONTINUOUS
 62
    7
 10
1127.9192950000001
 20
1278.282365
 11
1024.2029750000002
 21
1278.282365
  0
LINE
  8
_0-1_レイヤ___1
  6
CONTINUOUS
 62
    7
 10
1024.2029750000002
 20
1278.282365
 11
920.48492500000009
 21
1278.282365
  0
LINE
  8
_0-1_レイヤ___1
  6
CONTINUOUS
 62
    7
 10
920.48492500000009
 20
1278.282365
 11
816.76860500000021
 21
1278.282365
  0
LINE
  8
_0-1_レイヤ___1
  6
CONTINUOUS
 62
    7
 10
816.76860500000021
 20
1278.282365
 11
713.0522850000001
 21
1278.282365
  0
LINE
  8
_0-1_レイヤ___1
  6
CONTINUOUS
 62
    7
 10
713.0522850000001
 20
1278.282365
 11
709.87762500000019
 21
1278.282365
  0
LINE
  8
_0-1_レイヤ___1
  6
CONTINUOUS
 62
    7
 10
709.87762500000019
 20
1278.282365
 11
706.70297500000015
 21
1278.282365
  0
LINE
  8
_0-1_レイヤ___1
  6
CONTINUOUS
 62
    7
 10
706.70297500000015
 20
1278.282365
 11
703.7401950000002
 21
1278.9162550000001
  0
LINE
  8
_0-1_レイヤ___1
  6
CONTINUOUS
 62
    7
 10
703.7401950000002
 20
1278.9162550000001
 11
700.77568500000007
 21
1279.5518850000001
  0
LINE
  8
_0-1_レイヤ___1
  6
CONTINUOUS
 62
    7
 10
700.77568500000007
 20
1279.5518850000001
 11
697.60103500000014
 21
1280.1875050000001
  0
LINE
  8
_0-1_レイヤ___1
  6
CONTINUOUS
 62
    7
 10
697.60103500000014
 20
1280.1875050000001
 11
694.42637500000023
 21
1280.8213949999999
  0
LINE
  8
_0-1_レイヤ___1
  6
CONTINUOUS
 62
    7
 10
694.42637500000023
 20
1280.8213949999999
 11
691.46187500000008
 21
1281.8790450000001
  0
LINE
  8
_0-1_レイヤ___1
  6
CONTINUOUS
 62
    7
 10
691.46187500000008
 20
1281.8790450000001
 11
688.49908500000015
 21
1282.9384049999999
  0
LINE
  8
_0-1_レイヤ___1
  6
CONTINUOUS
 62
    7
 10
688.49908500000015
 20
1282.9384049999999
 11
685.7464550000002
 21
1284.2079250000002
  0
LINE
  8
_0-1_レイヤ___1
  6
CONTINUOUS
 62
    7
 10
685.7464550000002
 20
1284.2079250000002
 11
682.99554500000011
 21
1285.4791649999997
  0
LINE
  8
_0-1_レイヤ___1
  6
CONTINUOUS
 62
    7
 10
682.99554500000011
 20
1285.4791649999997
 11
680.4547950000001
 21
1287.172435
  0
LINE
  8
_0-1_レイヤ___1
  6
CONTINUOUS
 62
    7
 10
680.4547950000001
 20
1287.172435
 11
677.91575500000022
 21
1288.865695
  0
LINE
  8
_0-1_レイヤ___1
  6
CONTINUOUS
 62
    7
 10
677.91575500000022
 20
1288.865695
 11
675.37672500000008
 21
1290.7708350000003
  0
LINE
  8
_0-1_レイヤ___1
  6
CONTINUOUS
 62
    7
 10
675.37672500000008
 20
1290.7708350000003
 11
672.83596500000021
 21
1292.6759750000001
  0
LINE
  8
_0-1_レイヤ___1
  6
CONTINUOUS
 62
    7
 10
672.83596500000021
 20
1292.6759750000001
 11
670.50707500000021
 21
1294.7912550000001
  0
LINE
  8
_0-1_レイヤ___1
  6
CONTINUOUS
 62
    7
 10
670.50707500000021
 20
1294.7912550000001
 11
668.17819500000019
 21
1296.9082750000002
  0
LINE
  8
_0-1_レイヤ___1
  6
CONTINUOUS
 62
    7
 10
668.17819500000019
 20
1296.9082750000002
 11
666.06118500000002
 21
1299.0252850000002
  0
LINE
  8
_0-1_レイヤ___1
  6
CONTINUOUS
 62
    7
 10
666.06118500000002
 20
1299.0252850000002
 11
663.94589500000029
 21
1301.1422949999999
  0
LINE
  8
_0-1_レイヤ___1
  6
CONTINUOUS
 62
    7
 10
663.94589500000029
 20
1301.1422949999999
 11
662.04075500000022
 21
1303.683055
  0
LINE
  8
_0-1_レイヤ___1
  6
CONTINUOUS
 62
    7
 10
662.04075500000022
 20
1303.683055
 11
660.13561500000014
 21
1306.2220849999999
  0
LINE
  8
_0-1_レイヤ___1
  6
CONTINUOUS
 62
    7
 10
660.13561500000014
 20
1306.2220849999999
 11
658.65422500000022
 21
1308.9747149999998
  0
LINE
  8
_0-1_レイヤ___1
  6
CONTINUOUS
 62
    7
 10
658.65422500000022
 20
1308.9747149999998
 11
657.17283500000008
 21
1311.725625
  0
LINE
  8
_0-1_レイヤ___1
  6
CONTINUOUS
 62
    7
 10
657.17283500000008
 20
1311.725625
 11
655.69144500000016
 21
1314.476535
  0
LINE
  8
_0-1_レイヤ___1
  6
CONTINUOUS
 62
    7
 10
655.69144500000016
 20
1314.476535
 11
654.20833500000015
 21
1317.229165
  0
LINE
  8
_0-1_レイヤ___1
  6
CONTINUOUS
 62
    7
 10
654.20833500000015
 20
1317.229165
 11
653.36256500000013
 21
1320.191945
  0
LINE
  8
_0-1_レイヤ___1
  6
CONTINUOUS
 62
    7
 10
653.36256500000013
 20
1320.191945
 11
652.51506500000005
 21
1323.1547350000001
  0
LINE
  8
_0-1_レイヤ___1
  6
CONTINUOUS
 62
    7
 10
652.51506500000005
 20
1323.1547350000001
 11
651.66757500000017
 21
1326.1175149999999
  0
LINE
  8
_0-1_レイヤ___1
  6
CONTINUOUS
 62
    7
 10
651.66757500000017
 20
1326.1175149999999
 11
650.82180500000027
 21
1329.082015
  0
LINE
  8
_0-1_レイヤ___1
  6
CONTINUOUS
 62
    7
 10
650.82180500000027
 20
1329.082015
 11
650.3997750000002
 21
1332.2566750000001
  0
LINE
  8
_0-1_レイヤ___1
  6
CONTINUOUS
 62
    7
 10
650.3997750000002
 20
1332.2566750000001
 11
649.97603500000025
 21
1335.433055
  0
LINE
  8
_0-1_レイヤ___1
  6
CONTINUOUS
 62
    7
 10
649.97603500000025
 20
1335.433055
 11
649.76415500000019
 21
1338.395835
  0
LINE
  8
_0-1_レイヤ___1
  6
CONTINUOUS
 62
    7
 10
649.76415500000019
 20
1338.395835
 11
649.55228500000021
 21
1341.3586150000001
  0
LINE
  8
_0-1_レイヤ___1
  6
CONTINUOUS
 62
    7
 10
649.55228500000021
 20
1341.3586150000001
 11
649.55228500000021
 21
1406.975625
  0
LINE
  8
_0-1_レイヤ___1
  6
CONTINUOUS
 62
    7
 10
649.55228500000021
 20
1406.975625
 11
649.55228500000021
 21
1472.592635
  0
LINE
  8
_0-1_レイヤ___1
  6
CONTINUOUS
 62
    7
 10
937.84304500000019
 20
1714.104165
 11
932.69951500000025
 21
1726.5185650000001
  0
LINE
  8
_0-1_レイヤ___1
  6
CONTINUOUS
 62
    7
 10
932.69951500000025
 20
1726.5185650000001
 11
920.2747750000002
 21
1731.6724350000002
  0
LINE
  8
_0-1_レイヤ___1
  6
CONTINUOUS
 62
    7
 10
920.2747750000002
 20
1731.6724350000002
 11
907.84831500000007
 21
1726.5185650000001
  0
LINE
  8
_0-1_レイヤ___1
  6
CONTINUOUS
 62
    7
 10
907.84831500000007
 20
1726.5185650000001
 11
902.70479500000022
 21
1714.104165
  0
LINE
  8
_0-1_レイヤ___1
  6
CONTINUOUS
 62
    7
 10
902.70479500000022
 20
1714.104165
 11
907.84831500000007
 21
1701.6880449999999
  0
LINE
  8
_0-1_レイヤ___1
  6
CONTINUOUS
 62
    7
 10
907.84831500000007
 20
1701.6880449999999
 11
920.2747750000002
 21
1696.5359050000002
  0
LINE
  8
_0-1_レイヤ___1
  6
CONTINUOUS
 62
    7
 10
920.2747750000002
 20
1696.5359050000002
 11
932.69951500000025
 21
1701.6880449999999
  0
LINE
  8
_0-1_レイヤ___1
  6
CONTINUOUS
 62
    7
 10
932.69951500000025
 20
1701.6880449999999
 11
937.84304500000019
 21
1714.104165
  0
LINE
  8
_0-1_レイヤ___1
  6
CONTINUOUS
 62
    7
 10
920.48492500000009
 20
1751.569585
 11
920.48492500000009
 21
1745.2202650000002
  0
LINE
  8
_0-1_レイヤ___1
  6
CONTINUOUS
 62
    7
 10
920.48492500000009
 20
1745.2202650000002
 11
920.48492500000009
 21
1738.8692349999999
  0
LINE
  8
_0-1_レイヤ___1
  6
CONTINUOUS
 62
    7
 10
920.48492500000009
 20
1734.6352150000002
 11
920.48492500000009
 21
1733.999595
  0
LINE
  8
_0-1_レイヤ___1
  6
CONTINUOUS
 62
    7
 10
920.48492500000009
 20
1733.999595
 11
920.48492500000009
 21
1733.365695
  0
LINE
  8
_0-1_レイヤ___1
  6
CONTINUOUS
 62
    7
 10
920.48492500000009
 20
1730.4029149999999
 11
920.48492500000009
 21
1729.7672950000001
  0
LINE
  8
_0-1_レイヤ___1
  6
CONTINUOUS
 62
    7
 10
920.48492500000009
 20
1729.7672950000001
 11
920.48492500000009
 21
1729.1316750000001
  0
LINE
  8
_0-1_レイヤ___1
  6
CONTINUOUS
 62
    7
 10
920.48492500000009
 20
1726.1688950000002
 11
920.48492500000009
 21
1719.819585
  0
LINE
  8
_0-1_レイヤ___1
  6
CONTINUOUS
 62
    7
 10
920.48492500000009
 20
1719.819585
 11
920.48492500000009
 21
1713.4685450000002
  0
LINE
  8
_0-1_レイヤ___1
  6
CONTINUOUS
 62
    7
 10
920.48492500000009
 20
1709.2362450000001
 11
920.48492500000009
 21
1708.600625
  0
LINE
  8
_0-1_レイヤ___1
  6
CONTINUOUS
 62
    7
 10
920.48492500000009
 20
1708.600625
 11
920.48492500000009
 21
1707.965005
  0
LINE
  8
_0-1_レイヤ___1
  6
CONTINUOUS
 62
    7
 10
920.48492500000009
 20
1705.0022250000002
 11
920.48492500000009
 21
1704.3683250000001
  0
LINE
  8
_0-1_レイヤ___1
  6
CONTINUOUS
 62
    7
 10
920.48492500000009
 20
1704.3683250000001
 11
920.48492500000009
 21
1703.7327049999999
  0
LINE
  8
_0-1_レイヤ___1
  6
CONTINUOUS
 62
    7
 10
920.48492500000009
 20
1700.7682049999999
 11
920.48492500000009
 21
1694.418895
  0
LINE
  8
_0-1_レイヤ___1
  6
CONTINUOUS
 62
    7
 10
920.48492500000009
 20
1694.418895
 11
920.48492500000009
 21
1688.0695850000002
  0
LINE
  8
_0-1_レイヤ___1
  6
CONTINUOUS
 62
    7
 10
920.48492500000009
 20
1683.8355550000001
 11
920.48492500000009
 21
1683.201665
  0
LINE
  8
_0-1_レイヤ___1
  6
CONTINUOUS
 62
    7
 10
920.48492500000009
 20
1683.201665
 11
920.48492500000009
 21
1682.566045
  0
LINE
  8
_0-1_レイヤ___1
  6
CONTINUOUS
 62
    7
 10
920.48492500000009
 20
1679.6015349999998
 11
920.48492500000009
 21
1678.967635
  0
LINE
  8
_0-1_レイヤ___1
  6
CONTINUOUS
 62
    7
 10
920.48492500000009
 20
1678.967635
 11
920.48492500000009
 21
1678.332015
  0
LINE
  8
_0-1_レイヤ___1
  6
CONTINUOUS
 62
    7
 10
920.48492500000009
 20
1677.4862450000001
 11
920.48492500000009
 21
1677.0625050000001
  0
LINE
  8
_0-1_レイヤ___1
  6
CONTINUOUS
 62
    7
 10
920.48492500000009
 20
1677.0625050000001
 11
920.48492500000009
 21
1676.6387549999999
  0
LINE
  8
_0-1_レイヤ___1
  6
CONTINUOUS
 62
    7
 10
882.80936500000007
 20
1714.316045
 11
889.15867500000013
 21
1714.316045
  0
LINE
  8
_0-1_レイヤ___1
  6
CONTINUOUS
 62
    7
 10
889.15867500000013
 20
1714.316045
 11
895.50970500000017
 21
1714.316045
  0
LINE
  8
_0-1_レイヤ___1
  6
CONTINUOUS
 62
    7
 10
899.74200500000006
 20
1714.316045
 11
900.37590500000022
 21
1714.316045
  0
LINE
  8
_0-1_レイヤ___1
  6
CONTINUOUS
 62
    7
 10
900.37590500000022
 20
1714.316045
 11
901.01152500000012
 21
1714.316045
  0
LINE
  8
_0-1_レイヤ___1
  6
CONTINUOUS
 62
    7
 10
903.97603500000014
 20
1714.316045
 11
904.6099250000002
 21
1714.316045
  0
LINE
  8
_0-1_レイヤ___1
  6
CONTINUOUS
 62
    7
 10
904.6099250000002
 20
1714.316045
 11
905.24554500000022
 21
1714.316045
  0
LINE
  8
_0-1_レイヤ___1
  6
CONTINUOUS
 62
    7
 10
908.20833500000026
 20
1714.316045
 11
914.55936500000018
 21
1714.316045
  0
LINE
  8
_0-1_レイヤ___1
  6
CONTINUOUS
 62
    7
 10
914.55936500000018
 20
1714.316045
 11
920.90867500000013
 21
1714.316045
  0
LINE
  8
_0-1_レイヤ___1
  6
CONTINUOUS
 62
    7
 10
925.14269500000012
 20
1714.316045
 11
925.77659500000004
 21
1714.316045
  0
LINE
  8
_0-1_レイヤ___1
  6
CONTINUOUS
 62
    7
 10
925.77659500000004
 20
1714.316045
 11
926.41221500000017
 21
1714.316045
  0
LINE
  8
_0-1_レイヤ___1
  6
CONTINUOUS
 62
    7
 10
929.37499500000013
 20
1714.316045
 11
930.01061500000014
 21
1714.316045
  0
LINE
  8
_0-1_レイヤ___1
  6
CONTINUOUS
 62
    7
 10
930.01061500000014
 20
1714.316045
 11
930.64623500000016
 21
1714.316045
  0
LINE
  8
_0-1_レイヤ___1
  6
CONTINUOUS
 62
    7
 10
933.60902500000009
 20
1714.316045
 11
939.96005500000012
 21
1714.316045
  0
LINE
  8
_0-1_レイヤ___1
  6
CONTINUOUS
 62
    7
 10
939.96005500000012
 20
1714.316045
 11
946.30936500000018
 21
1714.316045
  0
LINE
  8
_0-1_レイヤ___1
  6
CONTINUOUS
 62
    7
 10
950.54166500000019
 20
1714.316045
 11
951.1772850000001
 21
1714.316045
  0
LINE
  8
_0-1_レイヤ___1
  6
CONTINUOUS
 62
    7
 10
951.1772850000001
 20
1714.316045
 11
951.81290500000023
 21
1714.316045
  0
LINE
  8
_0-1_レイヤ___1
  6
CONTINUOUS
 62
    7
 10
954.77568500000018
 20
1714.316045
 11
955.41130500000008
 21
1714.316045
  0
LINE
  8
_0-1_レイヤ___1
  6
CONTINUOUS
 62
    7
 10
955.41130500000008
 20
1714.316045
 11
956.04520500000024
 21
1714.316045
  0
LINE
  8
_0-1_レイヤ___1
  6
CONTINUOUS
 62
    7
 10
956.89269500000012
 20
1714.316045
 11
957.31644500000016
 21
1714.316045
  0
LINE
  8
_0-1_レイヤ___1
  6
CONTINUOUS
 62
    7
 10
957.31644500000016
 20
1714.316045
 11
957.73846500000013
 21
1714.316045
  0
LINE
  8
_0-1_レイヤ___1
  6
CONTINUOUS
 62
    7
 10
856.56290500000011
 20
1475.1316750000001
 11
872.43790500000023
 21
1475.1316750000001
  0
LINE
  8
_0-1_レイヤ___1
  6
CONTINUOUS
 62
    7
 10
872.43790500000023
 20
1475.1316750000001
 11
888.31290500000011
 21
1475.1316750000001
  0
LINE
  8
_0-1_レイヤ___1
  6
CONTINUOUS
 62
    7
 10
898.89623500000016
 20
1475.1316750000001
 11
900.58950500000014
 21
1475.1316750000001
  0
LINE
  8
_0-1_レイヤ___1
  6
CONTINUOUS
 62
    7
 10
900.58950500000014
 20
1475.1316750000001
 11
902.28276500000015
 21
1475.1316750000001
  0
LINE
  8
_0-1_レイヤ___1
  6
CONTINUOUS
 62
    7
 10
909.47957500000018
 20
1475.1316750000001
 11
911.17283500000008
 21
1475.1316750000001
  0
LINE
  8
_0-1_レイヤ___1
  6
CONTINUOUS
 62
    7
 10
911.17283500000008
 20
1475.1316750000001
 11
912.86610500000006
 21
1475.1316750000001
  0
LINE
  8
_0-1_レイヤ___1
  6
CONTINUOUS
 62
    7
 10
920.06290500000023
 20
1475.1316750000001
 11
935.93790500000011
 21
1475.1316750000001
  0
LINE
  8
_0-1_レイヤ___1
  6
CONTINUOUS
 62
    7
 10
935.93790500000011
 20
1475.1316750000001
 11
951.81290500000023
 21
1475.1316750000001
  0
LINE
  8
_0-1_レイヤ___1
  6
CONTINUOUS
 62
    7
 10
962.39623500000016
 20
1475.1316750000001
 11
964.08950500000014
 21
1475.1316750000001
  0
LINE
  8
_0-1_レイヤ___1
  6
CONTINUOUS
 62
    7
 10
964.08950500000014
 20
1475.1316750000001
 11
965.78276500000015
 21
1475.1316750000001
  0
LINE
  8
_0-1_レイヤ___1
  6
CONTINUOUS
 62
    7
 10
972.97957500000007
 20
1475.1316750000001
 11
974.67283500000019
 21
1475.1316750000001
  0
LINE
  8
_0-1_レイヤ___1
  6
CONTINUOUS
 62
    7
 10
974.67283500000019
 20
1475.1316750000001
 11
976.36610500000018
 21
1475.1316750000001
  0
LINE
  8
_0-1_レイヤ___1
  6
CONTINUOUS
 62
    7
 10
983.56290500000011
 20
1475.1316750000001
 11
983.9849250000002
 21
1475.1316750000001
  0
LINE
  8
_0-1_レイヤ___1
  6
CONTINUOUS
 62
    7
 10
983.9849250000002
 20
1475.1316750000001
 11
984.40867500000013
 21
1475.1316750000001
  0
LINE
  8
_0-1_レイヤ___1
  6
CONTINUOUS
 62
    7
 10
920.48492500000009
 20
1411.2096450000001
 11
920.48492500000009
 21
1427.0846449999999
  0
LINE
  8
_0-1_レイヤ___1
  6
CONTINUOUS
 62
    7
 10
920.48492500000009
 20
1427.0846449999999
 11
920.48492500000009
 21
1442.9596449999999
  0
LINE
  8
_0-1_レイヤ___1
  6
CONTINUOUS
 62
    7
 10
920.48492500000009
 20
1453.542985
 11
920.48492500000009
 21
1455.2362450000001
  0
LINE
  8
_0-1_レイヤ___1
  6
CONTINUOUS
 62
    7
 10
920.48492500000009
 20
1455.2362450000001
 11
920.48492500000009
 21
1456.9295149999998
  0
LINE
  8
_0-1_レイヤ___1
  6
CONTINUOUS
 62
    7
 10
920.48492500000009
 20
1464.126315
 11
920.48492500000009
 21
1465.8195850000002
  0
LINE
  8
_0-1_レイヤ___1
  6
CONTINUOUS
 62
    7
 10
920.48492500000009
 20
1465.8195850000002
 11
920.48492500000009
 21
1467.512845
  0
LINE
  8
_0-1_レイヤ___1
  6
CONTINUOUS
 62
    7
 10
920.48492500000009
 20
1474.7096450000001
 11
920.48492500000009
 21
1490.5846450000001
  0
LINE
  8
_0-1_レイヤ___1
  6
CONTINUOUS
 62
    7
 10
920.48492500000009
 20
1490.5846450000001
 11
920.48492500000009
 21
1506.4596449999999
  0
LINE
  8
_0-1_レイヤ___1
  6
CONTINUOUS
 62
    7
 10
920.48492500000009
 20
1517.042985
 11
920.48492500000009
 21
1518.7362450000001
  0
LINE
  8
_0-1_レイヤ___1
  6
CONTINUOUS
 62
    7
 10
920.48492500000009
 20
1518.7362450000001
 11
920.48492500000009
 21
1520.4295150000003
  0
LINE
  8
_0-1_レイヤ___1
  6
CONTINUOUS
 62
    7
 10
920.48492500000009
 20
1527.626315
 11
920.48492500000009
 21
1529.3195850000002
  0
LINE
  8
_0-1_レイヤ___1
  6
CONTINUOUS
 62
    7
 10
920.48492500000009
 20
1529.3195850000002
 11
920.48492500000009
 21
1531.012845
  0
LINE
  8
_0-1_レイヤ___1
  6
CONTINUOUS
 62
    7
 10
920.48492500000009
 20
1538.2096449999999
 11
920.48492500000009
 21
1538.6316750000001
  0
LINE
  8
_0-1_レイヤ___1
  6
CONTINUOUS
 62
    7
 10
920.48492500000009
 20
1538.6316750000001
 11
920.48492500000009
 21
1539.055425
  0
LINE
  8
_0-1_レイヤ___1
  6
CONTINUOUS
 62
    5
 10
628.80936500000018
 20
1909.895835
 11
705.64532500000018
 21
1909.895835
  0
LINE
  8
_0-1_レイヤ___1
  6
CONTINUOUS
 62
    5
 10
705.64532500000018
 20
1909.895835
 11
782.47957500000007
 21
1909.895835
  0
LINE
  8
_0-1_レイヤ___1
  6
CONTINUOUS
 62
    5
 10
886.61964500000011
 20
1729.1316750000001
 11
884.07888500000013
 21
1739.081105
  0
LINE
  8
_0-1_レイヤ___1
  6
CONTINUOUS
 62
    5
 10
884.07888500000013
 20
1739.081105
 11
881.53812500000015
 21
1749.0288250000001
  0
LINE
  8
_0-1_レイヤ___1
  6
CONTINUOUS
 62
    5
 10
881.53812500000015
 20
1749.0288250000001
 11
876.88207500000021
 21
1746.488065
  0
LINE
  8
_0-1_レイヤ___1
  6
CONTINUOUS
 62
    5
 10
876.88207500000021
 20
1746.488065
 11
872.22603500000014
 21
1743.9490249999999
  0
LINE
  8
_0-1_レイヤ___1
  6
CONTINUOUS
 62
    5
 10
872.22603500000014
 20
1743.9490249999999
 11
879.42283500000019
 21
1736.5403549999999
  0
LINE
  8
_0-1_レイヤ___1
  6
CONTINUOUS
 62
    5
 10
879.42283500000019
 20
1736.5403549999999
 11
886.61964500000011
 21
1729.1316750000001
  0
LINE
  8
_0-1_レイヤ___1
  6
CONTINUOUS
 62
    5
 10
782.47957500000007
 20
1909.895835
 11
832.22158500000023
 21
1823.7477749999998
  0
LINE
  8
_0-1_レイヤ___1
  6
CONTINUOUS
 62
    5
 10
832.22158500000023
 20
1823.7477749999998
 11
881.96187500000019
 21
1737.5997150000001
  0
LINE
  8
_0-1_レイヤ___1
  6
CONTINUOUS
 62
    5
 10
583.08950500000014
 20
1793.055425
 11
504.13824500000021
 21
1793.055425
  0
LINE
  8
_0-1_レイヤ___1
  6
CONTINUOUS
 62
    5
 10
504.13824500000021
 20
1793.055425
 11
425.18527500000016
 21
1793.055425
  0
LINE
  8
_0-1_レイヤ___1
  6
CONTINUOUS
 62
    5
 10
583.08950500000014
 20
1234.2557650000001
 11
504.13824500000021
 21
1234.2557650000001
  0
LINE
  8
_0-1_レイヤ___1
  6
CONTINUOUS
 62
    5
 10
504.13824500000021
 20
1234.2557650000001
 11
425.18527500000016
 21
1234.2557650000001
  0
LINE
  8
_0-1_レイヤ___1
  6
CONTINUOUS
 62
    5
 10
438.73311500000011
 20
1793.055425
 11
437.68752500000005
 21
1795.7443149999999
  0
LINE
  8
_0-1_レイヤ___1
  6
CONTINUOUS
 62
    5
 10
437.68752500000005
 20
1795.7443149999999
 11
435.13470500000011
 21
1796.865695
  0
LINE
  8
_0-1_レイヤ___1
  6
CONTINUOUS
 62
    5
 10
435.13470500000011
 20
1796.865695
 11
432.58017500000022
 21
1795.7443149999999
  0
LINE
  8
_0-1_レイヤ___1
  6
CONTINUOUS
 62
    5
 10
432.58017500000022
 20
1795.7443149999999
 11
431.5363050000002
 21
1793.055425
  0
LINE
  8
_0-1_レイヤ___1
  6
CONTINUOUS
 62
    5
 10
431.5363050000002
 20
1793.055425
 11
432.58017500000022
 21
1790.3665249999999
  0
LINE
  8
_0-1_レイヤ___1
  6
CONTINUOUS
 62
    5
 10
432.58017500000022
 20
1790.3665249999999
 11
435.13470500000011
 21
1789.2451450000001
  0
LINE
  8
_0-1_レイヤ___1
  6
CONTINUOUS
 62
    5
 10
435.13470500000011
 20
1789.2451450000001
 11
437.68752500000005
 21
1790.3665249999999
  0
LINE
  8
_0-1_レイヤ___1
  6
CONTINUOUS
 62
    5
 10
437.68752500000005
 20
1790.3665249999999
 11
438.73311500000011
 21
1793.055425
  0
LINE
  8
_0-1_レイヤ___1
  6
CONTINUOUS
 62
    5
 10
438.73311500000011
 20
1234.2557650000001
 11
437.68752500000005
 21
1236.944665
  0
LINE
  8
_0-1_レイヤ___1
  6
CONTINUOUS
 62
    5
 10
437.68752500000005
 20
1236.944665
 11
435.13470500000011
 21
1238.066045
  0
LINE
  8
_0-1_レイヤ___1
  6
CONTINUOUS
 62
    5
 10
435.13470500000011
 20
1238.066045
 11
432.58017500000022
 21
1236.944665
  0
LINE
  8
_0-1_レイヤ___1
  6
CONTINUOUS
 62
    5
 10
432.58017500000022
 20
1236.944665
 11
431.5363050000002
 21
1234.2557650000001
  0
LINE
  8
_0-1_レイヤ___1
  6
CONTINUOUS
 62
    5
 10
431.5363050000002
 20
1234.2557650000001
 11
432.58017500000022
 21
1231.566865
  0
LINE
  8
_0-1_レイヤ___1
  6
CONTINUOUS
 62
    5
 10
432.58017500000022
 20
1231.566865
 11
435.13470500000011
 21
1230.445485
  0
LINE
  8
_0-1_レイヤ___1
  6
CONTINUOUS
 62
    5
 10
435.13470500000011
 20
1230.445485
 11
437.68752500000005
 21
1231.566865
  0
LINE
  8
_0-1_レイヤ___1
  6
CONTINUOUS
 62
    5
 10
437.68752500000005
 20
1231.566865
 11
438.73311500000011
 21
1234.2557650000001
  0
LINE
  8
_0-1_レイヤ___1
  6
CONTINUOUS
 62
    5
 10
435.34486500000014
 20
1793.055425
 11
435.34486500000014
 21
1513.6547350000001
  0
LINE
  8
_0-1_レイヤ___1
  6
CONTINUOUS
 62
    5
 10
435.34486500000014
 20
1513.6547350000001
 11
435.34486500000014
 21
1234.2557650000001
  0
LINE
  8
_0-1_レイヤ___1
  6
CONTINUOUS
 62
    5
 10
602.98492500000009
 20
1214.3586150000001
 11
602.98492500000009
 21
1149.8009750000001
  0
LINE
  8
_0-1_レイヤ___1
  6
CONTINUOUS
 62
    5
 10
602.98492500000009
 20
1149.8009750000001
 11
602.98492500000009
 21
1085.2416050000002
  0
LINE
  8
_0-1_レイヤ___1
  6
CONTINUOUS
 62
    5
 10
1237.9849250000002
 20
1214.3586150000001
 11
1237.9849250000002
 21
1149.8009750000001
  0
LINE
  8
_0-1_レイヤ___1
  6
CONTINUOUS
 62
    5
 10
1237.9849250000002
 20
1149.8009750000001
 11
1237.9849250000002
 21
1085.2416050000002
  0
LINE
  8
_0-1_レイヤ___1
  6
CONTINUOUS
 62
    5
 10
606.79520500000024
 20
1095.191045
 11
605.68416500000012
 21
1097.7352450000001
  0
LINE
  8
_0-1_レイヤ___1
  6
CONTINUOUS
 62
    5
 10
605.68416500000012
 20
1097.7352450000001
 11
602.98492500000009
 21
1098.7894450000001
  0
LINE
  8
_0-1_レイヤ___1
  6
CONTINUOUS
 62
    5
 10
602.98492500000009
 20
1098.7894450000001
 11
600.28741500000024
 21
1097.7352450000001
  0
LINE
  8
_0-1_レイヤ___1
  6
CONTINUOUS
 62
    5
 10
600.28741500000024
 20
1097.7352450000001
 11
599.17637500000012
 21
1095.191045
  0
LINE
  8
_0-1_レイヤ___1
  6
CONTINUOUS
 62
    5
 10
599.17637500000012
 20
1095.191045
 11
600.28741500000024
 21
1092.646835
  0
LINE
  8
_0-1_レイヤ___1
  6
CONTINUOUS
 62
    5
 10
600.28741500000024
 20
1092.646835
 11
602.98492500000009
 21
1091.592635
  0
LINE
  8
_0-1_レイヤ___1
  6
CONTINUOUS
 62
    5
 10
602.98492500000009
 20
1091.592635
 11
605.68416500000012
 21
1092.646835
  0
LINE
  8
_0-1_レイヤ___1
  6
CONTINUOUS
 62
    5
 10
605.68416500000012
 20
1092.646835
 11
606.79520500000024
 21
1095.191045
  0
LINE
  8
_0-1_レイヤ___1
  6
CONTINUOUS
 62
    5
 10
1241.7952050000001
 20
1095.191045
 11
1240.6841650000001
 21
1097.7352450000001
  0
LINE
  8
_0-1_レイヤ___1
  6
CONTINUOUS
 62
    5
 10
1240.6841650000001
 20
1097.7352450000001
 11
1237.9849250000002
 21
1098.7894450000001
  0
LINE
  8
_0-1_レイヤ___1
  6
CONTINUOUS
 62
    5
 10
1237.9849250000002
 20
1098.7894450000001
 11
1235.287415
 21
1097.7352450000001
  0
LINE
  8
_0-1_レイヤ___1
  6
CONTINUOUS
 62
    5
 10
1235.287415
 20
1097.7352450000001
 11
1234.176375
 21
1095.191045
  0
LINE
  8
_0-1_レイヤ___1
  6
CONTINUOUS
 62
    5
 10
1234.176375
 20
1095.191045
 11
1235.287415
 21
1092.646835
  0
LINE
  8
_0-1_レイヤ___1
  6
CONTINUOUS
 62
    5
 10
1235.287415
 20
1092.646835
 11
1237.9849250000002
 21
1091.592635
  0
LINE
  8
_0-1_レイヤ___1
  6
CONTINUOUS
 62
    5
 10
1237.9849250000002
 20
1091.592635
 11
1240.6841650000001
 21
1092.646835
  0
LINE
  8
_0-1_レイヤ___1
  6
CONTINUOUS
 62
    5
 10
1240.6841650000001
 20
1092.646835
 11
1241.7952050000001
 21
1095.191045
  0
LINE
  8
_0-1_レイヤ___1
  6
CONTINUOUS
 62
    5
 10
602.98492500000009
 20
1094.979165
 11
920.48492500000009
 21
1094.979165
  0
LINE
  8
_0-1_レイヤ___1
  6
CONTINUOUS
 62
    5
 10
920.48492500000009
 20
1094.979165
 11
1237.9849250000002
 21
1094.979165
  0
LINE
  8
_0-1_レイヤ___1
  6
CONTINUOUS
 62
    5
 10
1004.3058250000001
 20
1475.1316750000001
 11
1210.257075
 21
1475.1316750000001
  0
LINE
  8
_0-1_レイヤ___1
  6
CONTINUOUS
 62
    5
 10
1210.257075
 20
1475.1316750000001
 11
1416.208335
 21
1475.1316750000001
  0
LINE
  8
_0-1_レイヤ___1
  6
CONTINUOUS
 62
    5
 10
1257.8820750000002
 20
1793.055425
 11
1337.0452050000004
 21
1793.055425
  0
LINE
  8
_0-1_レイヤ___1
  6
CONTINUOUS
 62
    5
 10
1337.0452050000004
 20
1793.055425
 11
1416.208335
 21
1793.055425
  0
LINE
  8
_0-1_レイヤ___1
  6
CONTINUOUS
 62
    5
 10
1409.8590250000002
 20
1475.1316750000001
 11
1408.7479750000002
 21
1477.8205750000002
  0
LINE
  8
_0-1_レイヤ___1
  6
CONTINUOUS
 62
    5
 10
1408.7479750000002
 20
1477.8205750000002
 11
1406.0487450000003
 21
1478.941945
  0
LINE
  8
_0-1_レイヤ___1
  6
CONTINUOUS
 62
    5
 10
1406.0487450000003
 20
1478.941945
 11
1403.3495150000001
 21
1477.8205750000002
  0
LINE
  8
_0-1_レイヤ___1
  6
CONTINUOUS
 62
    5
 10
1403.3495150000001
 20
1477.8205750000002
 11
1402.2384650000001
 21
1475.1316750000001
  0
LINE
  8
_0-1_レイヤ___1
  6
CONTINUOUS
 62
    5
 10
1402.2384650000001
 20
1475.1316750000001
 11
1403.3495150000001
 21
1472.442775
  0
LINE
  8
_0-1_レイヤ___1
  6
CONTINUOUS
 62
    5
 10
1403.3495150000001
 20
1472.442775
 11
1406.0487450000003
 21
1471.3213949999999
  0
LINE
  8
_0-1_レイヤ___1
  6
CONTINUOUS
 62
    5
 10
1406.0487450000003
 20
1471.3213949999999
 11
1408.7479750000002
 21
1472.442775
  0
LINE
  8
_0-1_レイヤ___1
  6
CONTINUOUS
 62
    5
 10
1408.7479750000002
 20
1472.442775
 11
1409.8590250000002
 21
1475.1316750000001
  0
LINE
  8
_0-1_レイヤ___1
  6
CONTINUOUS
 62
    5
 10
1409.8590250000002
 20
1793.055425
 11
1408.7479750000002
 21
1795.7443149999999
  0
LINE
  8
_0-1_レイヤ___1
  6
CONTINUOUS
 62
    5
 10
1408.7479750000002
 20
1795.7443149999999
 11
1406.0487450000003
 21
1796.865695
  0
LINE
  8
_0-1_レイヤ___1
  6
CONTINUOUS
 62
    5
 10
1406.0487450000003
 20
1796.865695
 11
1403.3495150000001
 21
1795.7443149999999
  0
LINE
  8
_0-1_レイヤ___1
  6
CONTINUOUS
 62
    5
 10
1403.3495150000001
 20
1795.7443149999999
 11
1402.2384650000001
 21
1793.055425
  0
LINE
  8
_0-1_レイヤ___1
  6
CONTINUOUS
 62
    5
 10
1402.2384650000001
 20
1793.055425
 11
1403.3495150000001
 21
1790.3665249999999
  0
LINE
  8
_0-1_レイヤ___1
  6
CONTINUOUS
 62
    5
 10
1403.3495150000001
 20
1790.3665249999999
 11
1406.0487450000003
 21
1789.2451450000001
  0
LINE
  8
_0-1_レイヤ___1
  6
CONTINUOUS
 62
    5
 10
1406.0487450000003
 20
1789.2451450000001
 11
1408.7479750000002
 21
1790.3665249999999
  0
LINE
  8
_0-1_レイヤ___1
  6
CONTINUOUS
 62
    5
 10
1408.7479750000002
 20
1790.3665249999999
 11
1409.8590250000002
 21
1793.055425
  0
LINE
  8
_0-1_レイヤ___1
  6
CONTINUOUS
 62
    5
 10
1406.0487450000003
 20
1475.1316750000001
 11
1406.0487450000003
 21
1634.0935450000002
  0
LINE
  8
_0-1_レイヤ___1
  6
CONTINUOUS
 62
    5
 10
1406.0487450000003
 20
1634.0935450000002
 11
1406.0487450000003
 21
1793.055425
  0
LINE
  8
_0-1_レイヤ___1
  6
CONTINUOUS
 62
    5
 10
862.91221500000017
 20
1714.316045
 11
692.51951500000018
 21
1714.316045
  0
LINE
  8
_0-1_レイヤ___1
  6
CONTINUOUS
 62
    5
 10
692.51951500000018
 20
1714.316045
 11
522.12853500000028
 21
1714.316045
  0
LINE
  8
_0-1_レイヤ___1
  6
CONTINUOUS
 62
    5
 10
599.17637500000012
 20
1793.055425
 11
560.65159500000027
 21
1793.055425
  0
LINE
  8
_0-1_レイヤ___1
  6
CONTINUOUS
 62
    5
 10
560.65159500000027
 20
1793.055425
 11
522.12853500000028
 21
1793.055425
  0
LINE
  8
_0-1_レイヤ___1
  6
CONTINUOUS
 62
    5
 10
536.09840500000018
 20
1714.104165
 11
534.98735500000009
 21
1716.6466450000003
  0
LINE
  8
_0-1_レイヤ___1
  6
CONTINUOUS
 62
    5
 10
534.98735500000009
 20
1716.6466450000003
 11
532.28812500000015
 21
1717.702565
  0
LINE
  8
_0-1_レイヤ___1
  6
CONTINUOUS
 62
    5
 10
532.28812500000015
 20
1717.702565
 11
529.59061500000018
 21
1716.6466450000003
  0
LINE
  8
_0-1_レイヤ___1
  6
CONTINUOUS
 62
    5
 10
529.59061500000018
 20
1716.6466450000003
 11
528.47957500000007
 21
1714.104165
  0
LINE
  8
_0-1_レイヤ___1
  6
CONTINUOUS
 62
    5
 10
528.47957500000007
 20
1714.104165
 11
529.59061500000018
 21
1711.5616850000001
  0
LINE
  8
_0-1_レイヤ___1
  6
CONTINUOUS
 62
    5
 10
529.59061500000018
 20
1711.5616850000001
 11
532.28812500000015
 21
1710.5057650000001
  0
LINE
  8
_0-1_レイヤ___1
  6
CONTINUOUS
 62
    5
 10
532.28812500000015
 20
1710.5057650000001
 11
534.98735500000009
 21
1711.5616850000001
  0
LINE
  8
_0-1_レイヤ___1
  6
CONTINUOUS
 62
    5
 10
534.98735500000009
 20
1711.5616850000001
 11
536.09840500000018
 21
1714.104165
  0
LINE
  8
_0-1_レイヤ___1
  6
CONTINUOUS
 62
    5
 10
536.09840500000018
 20
1793.055425
 11
534.98735500000009
 21
1795.7443149999999
  0
LINE
  8
_0-1_レイヤ___1
  6
CONTINUOUS
 62
    5
 10
534.98735500000009
 20
1795.7443149999999
 11
532.28812500000015
 21
1796.865695
  0
LINE
  8
_0-1_レイヤ___1
  6
CONTINUOUS
 62
    5
 10
532.28812500000015
 20
1796.865695
 11
529.59061500000018
 21
1795.7443149999999
  0
LINE
  8
_0-1_レイヤ___1
  6
CONTINUOUS
 62
    5
 10
529.59061500000018
 20
1795.7443149999999
 11
528.47957500000007
 21
1793.055425
  0
LINE
  8
_0-1_レイヤ___1
  6
CONTINUOUS
 62
    5
 10
528.47957500000007
 20
1793.055425
 11
529.59061500000018
 21
1790.3665249999999
  0
LINE
  8
_0-1_レイヤ___1
  6
CONTINUOUS
 62
    5
 10
529.59061500000018
 20
1790.3665249999999
 11
532.28812500000015
 21
1789.2451450000001
  0
LINE
  8
_0-1_レイヤ___1
  6
CONTINUOUS
 62
    5
 10
532.28812500000015
 20
1789.2451450000001
 11
534.98735500000009
 21
1790.3665249999999
  0
LINE
  8
_0-1_レイヤ___1
  6
CONTINUOUS
 62
    5
 10
534.98735500000009
 20
1790.3665249999999
 11
536.09840500000018
 21
1793.055425
  0
LINE
  8
_0-1_レイヤ___1
  6
CONTINUOUS
 62
    5
 10
532.28812500000015
 20
1714.316045
 11
532.28812500000015
 21
1753.6848649999999
  0
LINE
  8
_0-1_レイヤ___1
  6
CONTINUOUS
 62
    5
 10
532.28812500000015
 20
1753.6848649999999
 11
532.28812500000015
 21
1793.055425
  0
LINE
  8
_0-1_レイヤ___1
  6
CONTINUOUS
 62
    5
 10
1237.9849250000002
 20
1812.952565
 11
1237.9849250000002
 21
1836.024375
  0
LINE
  8
_0-1_レイヤ___1
  6
CONTINUOUS
 62
    5
 10
1237.9849250000002
 20
1836.024375
 11
1237.9849250000002
 21
1859.0961749999999
  0
LINE
  8
_0-1_レイヤ___1
  6
CONTINUOUS
 62
    5
 10
920.48492500000009
 20
1787.975625
 11
920.48492500000009
 21
1823.535905
  0
LINE
  8
_0-1_レイヤ___1
  6
CONTINUOUS
 62
    5
 10
920.48492500000009
 20
1823.535905
 11
920.48492500000009
 21
1859.0961749999999
  0
LINE
  8
_0-1_レイヤ___1
  6
CONTINUOUS
 62
    5
 10
1241.7952050000001
 20
1849.146745
 11
1240.6841650000001
 21
1851.6909450000001
  0
LINE
  8
_0-1_レイヤ___1
  6
CONTINUOUS
 62
    5
 10
1240.6841650000001
 20
1851.6909450000001
 11
1237.9849250000002
 21
1852.7451450000001
  0
LINE
  8
_0-1_レイヤ___1
  6
CONTINUOUS
 62
    5
 10
1237.9849250000002
 20
1852.7451450000001
 11
1235.287415
 21
1851.6909450000001
  0
LINE
  8
_0-1_レイヤ___1
  6
CONTINUOUS
 62
    5
 10
1235.287415
 20
1851.6909450000001
 11
1234.176375
 21
1849.146745
  0
LINE
  8
_0-1_レイヤ___1
  6
CONTINUOUS
 62
    5
 10
1234.176375
 20
1849.146745
 11
1235.287415
 21
1846.602535
  0
LINE
  8
_0-1_レイヤ___1
  6
CONTINUOUS
 62
    5
 10
1235.287415
 20
1846.602535
 11
1237.9849250000002
 21
1845.5483449999999
  0
LINE
  8
_0-1_レイヤ___1
  6
CONTINUOUS
 62
    5
 10
1237.9849250000002
 20
1845.5483449999999
 11
1240.6841650000001
 21
1846.602535
  0
LINE
  8
_0-1_レイヤ___1
  6
CONTINUOUS
 62
    5
 10
1240.6841650000001
 20
1846.602535
 11
1241.7952050000001
 21
1849.146745
  0
LINE
  8
_0-1_レイヤ___1
  6
CONTINUOUS
 62
    5
 10
924.29520500000012
 20
1849.146745
 11
923.18416500000012
 21
1851.6909450000001
  0
LINE
  8
_0-1_レイヤ___1
  6
CONTINUOUS
 62
    5
 10
923.18416500000012
 20
1851.6909450000001
 11
920.48492500000009
 21
1852.7451450000001
  0
LINE
  8
_0-1_レイヤ___1
  6
CONTINUOUS
 62
    5
 10
920.48492500000009
 20
1852.7451450000001
 11
917.78741500000012
 21
1851.6909450000001
  0
LINE
  8
_0-1_レイヤ___1
  6
CONTINUOUS
 62
    5
 10
917.78741500000012
 20
1851.6909450000001
 11
916.67637500000012
 21
1849.146745
  0
LINE
  8
_0-1_レイヤ___1
  6
CONTINUOUS
 62
    5
 10
916.67637500000012
 20
1849.146745
 11
917.78741500000012
 21
1846.602535
  0
LINE
  8
_0-1_レイヤ___1
  6
CONTINUOUS
 62
    5
 10
917.78741500000012
 20
1846.602535
 11
920.48492500000009
 21
1845.5483449999999
  0
LINE
  8
_0-1_レイヤ___1
  6
CONTINUOUS
 62
    5
 10
920.48492500000009
 20
1845.5483449999999
 11
923.18416500000012
 21
1846.602535
  0
LINE
  8
_0-1_レイヤ___1
  6
CONTINUOUS
 62
    5
 10
923.18416500000012
 20
1846.602535
 11
924.29520500000012
 21
1849.146745
  0
LINE
  8
_0-1_レイヤ___1
  6
CONTINUOUS
 62
    5
 10
1237.9849250000002
 20
1849.3586150000001
 11
1079.2349250000002
 21
1849.3586150000001
  0
LINE
  8
_0-1_レイヤ___1
  6
CONTINUOUS
 62
    5
 10
1079.2349250000002
 20
1849.3586150000001
 11
920.48492500000009
 21
1849.3586150000001
  0
LINE
  8
_0-1_レイヤ___1
  6
CONTINUOUS
 62
    5
 10
943.34486500000014
 20
1435.3390949999998
 11
961.33687500000019
 21
1404.2247150000001
  0
LINE
  8
_0-1_レイヤ___1
  6
CONTINUOUS
 62
    5
 10
961.33687500000019
 20
1404.2247150000001
 11
979.32888500000013
 21
1373.1086150000001
  0
LINE
  8
_0-1_レイヤ___1
  6
CONTINUOUS
 62
    5
 10
979.32888500000013
 20
1373.1086150000001
 11
1038.596585
 21
1373.1086150000001
  0
LINE
  8
_0-1_レイヤ___1
  6
CONTINUOUS
 62
    5
 10
1038.596585
 20
1373.1086150000001
 11
1097.8625650000001
 21
1373.1086150000001
  0
LINE
  8
_0-1_レイヤ___1
  6
CONTINUOUS
 62
    5
 10
901.01152500000012
 20
1514.9259750000001
 11
899.96594500000015
 21
1517.614865
  0
LINE
  8
_0-1_レイヤ___1
  6
CONTINUOUS
 62
    5
 10
899.96594500000015
 20
1517.614865
 11
897.41312500000026
 21
1518.7362450000001
  0
LINE
  8
_0-1_レイヤ___1
  6
CONTINUOUS
 62
    5
 10
897.41312500000026
 20
1518.7362450000001
 11
894.86030500000015
 21
1517.614865
  0
LINE
  8
_0-1_レイヤ___1
  6
CONTINUOUS
 62
    5
 10
894.86030500000015
 20
1517.614865
 11
893.81644500000016
 21
1514.9259750000001
  0
LINE
  8
_0-1_レイヤ___1
  6
CONTINUOUS
 62
    5
 10
893.81644500000016
 20
1514.9259750000001
 11
894.86030500000015
 21
1512.237075
  0
LINE
  8
_0-1_レイヤ___1
  6
CONTINUOUS
 62
    5
 10
894.86030500000015
 20
1512.237075
 11
897.41312500000026
 21
1511.115695
  0
LINE
  8
_0-1_レイヤ___1
  6
CONTINUOUS
 62
    5
 10
897.41312500000026
 20
1511.115695
 11
899.96594500000015
 21
1512.237075
  0
LINE
  8
_0-1_レイヤ___1
  6
CONTINUOUS
 62
    5
 10
899.96594500000015
 20
1512.237075
 11
901.01152500000012
 21
1514.9259750000001
  0
LINE
  8
_0-1_レイヤ___1
  6
CONTINUOUS
 62
    5
 10
947.1551350000002
 20
1435.3390949999998
 11
946.0440950000002
 21
1438.0279949999999
  0
LINE
  8
_0-1_レイヤ___1
  6
CONTINUOUS
 62
    5
 10
946.0440950000002
 20
1438.0279949999999
 11
943.34486500000014
 21
1439.149375
  0
LINE
  8
_0-1_レイヤ___1
  6
CONTINUOUS
 62
    5
 10
943.34486500000014
 20
1439.149375
 11
940.64735500000006
 21
1438.0279949999999
  0
LINE
  8
_0-1_レイヤ___1
  6
CONTINUOUS
 62
    5
 10
940.64735500000006
 20
1438.0279949999999
 11
939.5363050000002
 21
1435.3390949999998
  0
LINE
  8
_0-1_レイヤ___1
  6
CONTINUOUS
 62
    5
 10
939.5363050000002
 20
1435.3390949999998
 11
940.64735500000006
 21
1432.6502049999999
  0
LINE
  8
_0-1_レイヤ___1
  6
CONTINUOUS
 62
    5
 10
940.64735500000006
 20
1432.6502049999999
 11
943.34486500000014
 21
1431.5288250000001
  0
LINE
  8
_0-1_レイヤ___1
  6
CONTINUOUS
 62
    5
 10
943.34486500000014
 20
1431.5288250000001
 11
946.0440950000002
 21
1432.6502049999999
  0
LINE
  8
_0-1_レイヤ___1
  6
CONTINUOUS
 62
    5
 10
946.0440950000002
 20
1432.6502049999999
 11
947.1551350000002
 21
1435.3390949999998
  0
LINE
  8
_0-1_レイヤ___1
  6
CONTINUOUS
 62
    5
 10
897.20297500000015
 20
1514.9259750000001
 11
920.2747750000002
 21
1475.1316750000001
  0
LINE
  8
_0-1_レイヤ___1
  6
CONTINUOUS
 62
    5
 10
920.2747750000002
 20
1475.1316750000001
 11
943.34486500000014
 21
1435.3390949999998
  0
LINE
  8
_0-1_レイヤ___1
  6
CONTINUOUS
 62
    5
 10
804.49200500000018
 20
1278.282365
 11
788.19326500000011
 21
1278.282365
  0
LINE
  8
_0-1_レイヤ___1
  6
CONTINUOUS
 62
    5
 10
788.19326500000011
 20
1278.282365
 11
771.89623500000016
 21
1278.282365
  0
LINE
  8
_0-1_レイヤ___1
  6
CONTINUOUS
 62
    5
 10
798.98846500000013
 20
1234.2557650000001
 11
785.44235500000013
 21
1234.2557650000001
  0
LINE
  8
_0-1_レイヤ___1
  6
CONTINUOUS
 62
    5
 10
785.44235500000013
 20
1234.2557650000001
 11
771.89623500000016
 21
1234.2557650000001
  0
LINE
  8
_0-1_レイヤ___1
  6
CONTINUOUS
 62
    5
 10
782.05582500000014
 20
1234.2557650000001
 11
782.05582500000014
 21
1206.316045
  0
LINE
  8
_0-1_レイヤ___1
  6
CONTINUOUS
 62
    5
 10
782.05582500000014
 20
1206.316045
 11
782.05582500000014
 21
1178.376315
  0
LINE
  8
_0-1_レイヤ___1
  6
CONTINUOUS
 62
    5
 10
785.86610500000018
 20
1278.282365
 11
784.75505500000008
 21
1280.9712549999999
  0
LINE
  8
_0-1_レイヤ___1
  6
CONTINUOUS
 62
    5
 10
784.75505500000008
 20
1280.9712549999999
 11
782.05582500000014
 21
1282.0926350000002
  0
LINE
  8
_0-1_レイヤ___1
  6
CONTINUOUS
 62
    5
 10
782.05582500000014
 20
1282.0926350000002
 11
779.3565950000002
 21
1280.9712549999999
  0
LINE
  8
_0-1_レイヤ___1
  6
CONTINUOUS
 62
    5
 10
779.3565950000002
 20
1280.9712549999999
 11
778.24554500000022
 21
1278.282365
  0
LINE
  8
_0-1_レイヤ___1
  6
CONTINUOUS
 62
    5
 10
778.24554500000022
 20
1278.282365
 11
779.3565950000002
 21
1275.5934649999999
  0
LINE
  8
_0-1_レイヤ___1
  6
CONTINUOUS
 62
    5
 10
779.3565950000002
 20
1275.5934649999999
 11
782.05582500000014
 21
1274.4720850000001
  0
LINE
  8
_0-1_レイヤ___1
  6
CONTINUOUS
 62
    5
 10
782.05582500000014
 20
1274.4720850000001
 11
784.75505500000008
 21
1275.5934649999999
  0
LINE
  8
_0-1_レイヤ___1
  6
CONTINUOUS
 62
    5
 10
784.75505500000008
 20
1275.5934649999999
 11
785.86610500000018
 21
1278.282365
  0
LINE
  8
_0-1_レイヤ___1
  6
CONTINUOUS
 62
    5
 10
785.86610500000018
 20
1234.2557650000001
 11
784.75505500000008
 21
1236.944665
  0
LINE
  8
_0-1_レイヤ___1
  6
CONTINUOUS
 62
    5
 10
784.75505500000008
 20
1236.944665
 11
782.05582500000014
 21
1238.066045
  0
LINE
  8
_0-1_レイヤ___1
  6
CONTINUOUS
 62
    5
 10
782.05582500000014
 20
1238.066045
 11
779.3565950000002
 21
1236.944665
  0
LINE
  8
_0-1_レイヤ___1
  6
CONTINUOUS
 62
    5
 10
779.3565950000002
 20
1236.944665
 11
778.24554500000022
 21
1234.2557650000001
  0
LINE
  8
_0-1_レイヤ___1
  6
CONTINUOUS
 62
    5
 10
778.24554500000022
 20
1234.2557650000001
 11
779.3565950000002
 21
1231.566865
  0
LINE
  8
_0-1_レイヤ___1
  6
CONTINUOUS
 62
    5
 10
779.3565950000002
 20
1231.566865
 11
782.05582500000014
 21
1230.445485
  0
LINE
  8
_0-1_レイヤ___1
  6
CONTINUOUS
 62
    5
 10
782.05582500000014
 20
1230.445485
 11
784.75505500000008
 21
1231.566865
  0
LINE
  8
_0-1_レイヤ___1
  6
CONTINUOUS
 62
    5
 10
784.75505500000008
 20
1231.566865
 11
785.86610500000018
 21
1234.2557650000001
  0
LINE
  8
_0-1_レイヤ___1
  6
CONTINUOUS
 62
    5
 10
782.05582500000014
 20
1278.282365
 11
782.05582500000014
 21
1256.2682050000001
  0
LINE
  8
_0-1_レイヤ___1
  6
CONTINUOUS
 62
    5
 10
782.05582500000014
 20
1256.2682050000001
 11
782.05582500000014
 21
1234.2557650000001
  0
TEXT
  8
_0-7_
 62
    7
 10
628.70973083204058
 20
1915.2545300631555
 40
38.006293402777942
 41
0.9999999999999956
 50
0
  1
φ35
  0
LINE
  8
_0-7_
  6
CONTINUOUS
 62
    7
 10
628.7097308320408
 20
1910.1039745076002
 11
782.43532915970786
 21
1910.1039745076002
  0
LINE
  8
_0-7_
  6
CONTINUOUS
 62
    7
 10
782.43532915970786
 20
1910.1039745076002
 11
886.81328892715624
 21
1729.316045
  0
SOLID
  8
_0-7_
  6
CONTINUOUS
 62
    7
 10
886.81328892715624
 20
1729.316045
 11
872.17316639248725
 21
1743.9561675346692
 12
881.45463216495034
 22
1749.314824296875
 13
881.45463216495034
 23
1749.314824296875
  0
LINE
  8
_0-7_
  6
CONTINUOUS
 62
    7
 10
582.9849250745059
 20
1793.3160450000003
 11
425.23362327478821
 21
1793.3160450000003
  0
LINE
  8
_0-7_
  6
CONTINUOUS
 62
    7
 10
582.9849250745059
 20
1234.3160450000003
 11
425.23362327478821
 21
1234.3160450000003
  0
LINE
  8
_0-7_
  6
CONTINUOUS
 62
    7
 10
435.23362323753531
 20
1793.3160450000003
 11
435.23362323753531
 21
1234.3160450000003
  0
CIRCLE
  8
_0-7_
  6
CONTINUOUS
 62
    7
 10
435.23362323753531
 20
1793.3160450000003
 40
3.751708984375
  0
CIRCLE
  8
_0-7_
  6
CONTINUOUS
 62
    7
 10
435.23362323753531
 20
1234.3160450000003
 40
3.751708984375
  0
TEXT
  8
_0-7_
 62
    7
 10
423.31917881171762
 20
1476.7743783333333
 40
38.0062934027778
 41
0.9999999999999994
 50
90
  1
559
  0
LINE
  8
_0-7_
  6
CONTINUOUS
 62
    7
 10
602.9849250000002
 20
1214.3160450745061
 11
602.9849250000002
 21
1085.3160450372529
  0
LINE
  8
_0-7_
  6
CONTINUOUS
 62
    7
 10
1237.9849250000002
 20
1214.3160450745061
 11
1237.9849250000002
 21
1085.3160450372529
  0
LINE
  8
_0-7_
  6
CONTINUOUS
 62
    7
 10
602.9849250000002
 20
1095.316045
 11
1237.9849250000002
 21
1095.316045
  0
CIRCLE
  8
_0-7_
  6
CONTINUOUS
 62
    7
 10
602.9849250000002
 20
1095.316045
 40
3.751708984375
  0
CIRCLE
  8
_0-7_
  6
CONTINUOUS
 62
    7
 10
1237.9849250000002
 20
1095.316045
 40
3.751708984375
  0
TEXT
  8
_0-7_
 62
    7
 10
883.44325833333357
 20
1107.2304894258182
 40
38.006293402777771
 41
1.0000000000000002
 50
0
  1
635
  0
LINE
  8
_0-7_
  6
CONTINUOUS
 62
    7
 10
1004.4849249254944
 20
1475.316045
 11
1416.2336232002829
 21
1475.316045
  0
LINE
  8
_0-7_
  6
CONTINUOUS
 62
    7
 10
1257.9849249254944
 20
1793.3160450000003
 11
1416.2336232002829
 21
1793.3160450000003
  0
LINE
  8
_0-7_
  6
CONTINUOUS
 62
    7
 10
1406.2336232375358
 20
1475.316045
 11
1406.2336232375358
 21
1793.3160450000003
  0
CIRCLE
  8
_0-7_
  6
CONTINUOUS
 62
    7
 10
1406.2336232375358
 20
1475.316045
 40
3.751708984375
  0
CIRCLE
  8
_0-7_
  6
CONTINUOUS
 62
    7
 10
1406.2336232375358
 20
1793.3160450000003
 40
3.751708984375
  0
TEXT
  8
_0-7_
 62
    7
 10
1394.3191788117178
 20
1597.2743783333335
 40
38.006293402777764
 41
1.0000000000000004
 50
90
  1
318
  0
LINE
  8
_0-7_
  6
CONTINUOUS
 62
    7
 10
862.98492507450601
 20
1714.316045
 11
522.23362331204157
 21
1714.316045
  0
LINE
  8
_0-7_
  6
CONTINUOUS
 62
    7
 10
599.2336233120418
 20
1793.3160450000003
 11
522.23362331204157
 21
1793.3160450000003
  0
LINE
  8
_0-7_
  6
CONTINUOUS
 62
    7
 10
532.23362327478867
 20
1714.316045
 11
532.23362327478867
 21
1793.3160450000003
  0
CIRCLE
  8
_0-7_
  6
CONTINUOUS
 62
    7
 10
532.23362327478867
 20
1714.316045
 40
3.751708984375
  0
CIRCLE
  8
_0-7_
  6
CONTINUOUS
 62
    7
 10
532.23362327478867
 20
1793.3160450000003
 40
3.751708984375
  0
TEXT
  8
_0-7_
 62
    7
 10
520.31917884897109
 20
1729.1216005555561
 40
38.0062934027778
 41
0.9999999999999994
 50
90
  1
79
  0
LINE
  8
_0-7_
  6
CONTINUOUS
 62
    7
 10
1237.9849250000002
 20
1813.3160449254945
 11
1237.9849250000002
 21
1859.3160449627471
  0
LINE
  8
_0-7_
  6
CONTINUOUS
 62
    7
 10
920.48492500000009
 20
1788.3160449254945
 11
920.48492500000009
 21
1859.3160449627471
  0
LINE
  8
_0-7_
  6
CONTINUOUS
 62
    7
 10
1237.9849250000002
 20
1849.316045
 11
920.48492500000009
 21
1849.316045
  0
CIRCLE
  8
_0-7_
  6
CONTINUOUS
 62
    7
 10
1237.9849250000002
 20
1849.316045
 40
3.751708984375
  0
CIRCLE
  8
_0-7_
  6
CONTINUOUS
 62
    7
 10
920.48492500000009
 20
1849.316045
 40
3.751708984375
  0
LINE
  8
_0-7_
  6
CONTINUOUS
 62
    7
 10
943.4849250000002
 20
1435.478876425916
 11
979.37465245734199
 21
1373.3160450000003
  0
LINE
  8
_0-7_
  6
CONTINUOUS
 62
    7
 10
979.37465245734199
 20
1373.3160450000003
 11
1098.1524301606141
 21
1373.3160450000003
  0
LINE
  8
_0-7_
  6
CONTINUOUS
 62
    7
 10
897.48492500000009
 20
1515.1532135740842
 11
943.4849250000002
 21
1435.478876425916
  0
CIRCLE
  8
_0-7_
  6
CONTINUOUS
 62
    7
 10
897.48492500000009
 20
1515.1532135740842
 40
3.751708984375
  0
CIRCLE
  8
_0-7_
  6
CONTINUOUS
 62
    7
 10
943.4849250000002
 20
1435.478876425916
 40
3.751708984375
  0
TEXT
  8
_0-7_
 62
    7
 10
999.37465238283619
 20
1385.2304894258186
 40
38.0062934027778
 41
0.9999999999999994
 50
0
  1
φ92
  0
LINE
  8
_0-7_
  6
CONTINUOUS
 62
    7
 10
804.51099316231591
 20
1278.316045
 11
772.15709298081197
 21
1278.316045
  0
LINE
  8
_0-7_
  6
CONTINUOUS
 62
    7
 10
799.01099316231603
 20
1234.3160450000003
 11
772.15709298081197
 21
1234.3160450000003
  0
LINE
  8
_0-7_
  6
CONTINUOUS
 62
    7
 10
782.15709294355906
 20
1234.3160450000003
 11
782.15709294355906
 21
1178.4357915680703
  0
LINE
  8
_0-7_
  6
CONTINUOUS
 62
    7
 10
782.15709294355906
 20
1278.316045
 11
782.15709294355906
 21
1234.3160450000003
  0
CIRCLE
  8
_0-7_
  6
CONTINUOUS
 62
    7
 10
782.15709294355906
 20
1278.316045
 40
3.751708984375
  0
CIRCLE
  8
_0-7_
  6
CONTINUOUS
 62
    7
 10
782.15709294355906
 20
1234.3160450000003
 40
3.751708984375
  0
TEXT
  8
_0-7_
 62
    7
 10
770.24264851774103
 20
1178.4357915680703
 40
38.0062934027778
 41
0.9999999999999994
 50
90
  1
44
  0
LINE
  8
_f-0_
  6
CONTINUOUS
 62
    7
 10
145.92190945814195
 20
272.17690842700108
 11
2782.5613812702341
 21
272.17690842700108
  0
LINE
  8
_f-0_
  6
CONTINUOUS
 62
    7
 10
93.498778584810225
 20
2041.1430038495319
 11
2835.164073948858
 21
2041.1430038495319
  0
LINE
  8
_f-0_
  6
CONTINUOUS
 62
    7
 10
2835.164073948858
 20
2041.1430038495319
 11
2835.164073948858
 21
102.59178490525528
  0
LINE
  8
_f-0_
  6
CONTINUOUS
 62
    7
 10
2835.164073948858
 20
102.59178490525528
 11
93.498778584810225
 21
102.59178490525528
  0
LINE
  8
_f-0_
  6
CONTINUOUS
 62
    7
 10
93.498778584810225
 20
102.59178490525528
 11
93.498778584810225
 21
2041.1430038495319
  0
LINE
  8
_f-0_
  6
CONTINUOUS
 62
    7
 10
145.92190945814195
 20
154.63137802700089
 11
2782.5613812702341
 21
154.63137802700089
  0
LINE
  8
_f-0_
  6
CONTINUOUS
 62
    7
 10
145.92190945814195
 20
272.17690842700108
 11
145.92190945814195
 21
154.63137802700089
  0
LINE
  8
_f-0_
  6
CONTINUOUS
 62
    7
 10
1084.5597312581417
 20
272.17690842700108
 11
1084.5597312581417
 21
154.63137802700089
  0
LINE
  8
_f-0_
  6
CONTINUOUS
 62
    7
 10
1521.3244371581418
 20
272.17690842700108
 11
1521.3244371581418
 21
154.63137802700089
  0
LINE
  8
_f-0_
  6
CONTINUOUS
 62
    7
 10
1755.1479665581417
 20
272.17690842700108
 11
1755.1479665581417
 21
154.63137802700089
  0
LINE
  8
_f-0_
  6
CONTINUOUS
 62
    7
 10
2026.471495958142
 20
272.17690842700108
 11
2026.471495958142
 21
154.63137802700089
  0
LINE
  8
_f-0_
  6
CONTINUOUS
 62
    7
 10
2782.5613812581419
 20
272.17690842700108
 11
2782.5613812581419
 21
154.63137802700089
  0
TEXT
  8
_f-0_
 62
    7
 10
1568.5886917757796
 20
188.15385166346772
 40
34.616986052576095
 41
1.0000000000000095
 50
0
  1
S=1/10
  0
LINE
  8
_0-1_レイヤ___1
  6
CONTINUOUS
 62
    7
 10
1793.4835160481648
 20
1267.591149037087
 11
1793.4835160481648
 21
1325.5876090370873
  0
LINE
  8
_0-1_レイヤ___1
  6
CONTINUOUS
 62
    7
 10
1793.4835160481648
 20
1325.5876090370873
 11
1793.4835160481648
 21
1383.5840690370874
  0
LINE
  8
_0-1_レイヤ___1
  6
CONTINUOUS
 62
    7
 10
1793.4835160481648
 20
1383.5840690370874
 11
1793.6936660481649
 21
1387.3943390370871
  0
LINE
  8
_0-1_レイヤ___1
  6
CONTINUOUS
 62
    7
 10
1793.6936660481649
 20
1387.3943390370871
 11
1793.9072660481647
 21
1391.2046190370872
  0
LINE
  8
_0-1_レイヤ___1
  6
CONTINUOUS
 62
    7
 10
1793.9072660481647
 20
1391.2046190370872
 11
1795.1750560481648
 21
1394.8030190370873
  0
LINE
  8
_0-1_レイヤ___1
  6
CONTINUOUS
 62
    7
 10
1795.1750560481648
 20
1394.8030190370873
 11
1796.4462960481649
 21
1398.4014190370872
  0
LINE
  8
_0-1_レイヤ___1
  6
CONTINUOUS
 62
    7
 10
1796.4462960481649
 20
1398.4014190370872
 11
1798.1378360481649
 21
1401.7879490370869
  0
LINE
  8
_0-1_レイヤ___1
  6
CONTINUOUS
 62
    7
 10
1798.1378360481649
 20
1401.7879490370869
 11
1799.8328260481649
 21
1405.1744790370872
  0
LINE
  8
_0-1_レイヤ___1
  6
CONTINUOUS
 62
    7
 10
1799.8328260481649
 20
1405.1744790370872
 11
1802.371866048165
 21
1408.1372590370872
  0
LINE
  8
_0-1_レイヤ___1
  6
CONTINUOUS
 62
    7
 10
1802.371866048165
 20
1408.1372590370872
 11
1804.9108960481649
 21
1411.1017690370873
  0
LINE
  8
_0-1_レイヤ___1
  6
CONTINUOUS
 62
    7
 10
1804.9108960481649
 20
1411.1017690370873
 11
1807.873676048165
 21
1413.6425290370871
  0
LINE
  8
_0-1_レイヤ___1
  6
CONTINUOUS
 62
    7
 10
1807.873676048165
 20
1413.6425290370871
 11
1810.8399060481647
 21
1416.1815590370873
  0
LINE
  8
_0-1_レイヤ___1
  6
CONTINUOUS
 62
    7
 10
1810.8399060481647
 20
1416.1815590370873
 11
1814.2264360481647
 21
1417.874829037087
  0
LINE
  8
_0-1_レイヤ___1
  6
CONTINUOUS
 62
    7
 10
1814.2264360481647
 20
1417.874829037087
 11
1817.6129660481649
 21
1419.5680890370872
  0
LINE
  8
_0-1_レイヤ___1
  6
CONTINUOUS
 62
    7
 10
1817.6129660481649
 20
1419.5680890370872
 11
1821.2130860481648
 21
1420.625739037087
  0
LINE
  8
_0-1_レイヤ___1
  6
CONTINUOUS
 62
    7
 10
1821.2130860481648
 20
1420.625739037087
 11
1824.8097660481649
 21
1421.6850990370872
  0
LINE
  8
_0-1_レイヤ___1
  6
CONTINUOUS
 62
    7
 10
1824.8097660481649
 20
1421.6850990370872
 11
1828.620046048165
 21
1422.1071290370874
  0
LINE
  8
_0-1_レイヤ___1
  6
CONTINUOUS
 62
    7
 10
1828.620046048165
 20
1422.1071290370874
 11
1832.4303160481647
 21
1422.5308690370871
  0
LINE
  8
_0-1_レイヤ___1
  6
CONTINUOUS
 62
    7
 10
1832.4303160481647
 20
1422.5308690370871
 11
2110.7733660481649
 21
1422.5308690370871
  0
LINE
  8
_0-1_レイヤ___1
  6
CONTINUOUS
 62
    7
 10
2110.7733660481649
 20
1422.5308690370871
 11
2389.1129660481652
 21
1422.5308690370871
  0
LINE
  8
_0-1_レイヤ___1
  6
CONTINUOUS
 62
    7
 10
2389.1129660481652
 20
1422.5308690370871
 11
2392.9232360481647
 21
1422.1071290370874
  0
LINE
  8
_0-1_レイヤ___1
  6
CONTINUOUS
 62
    7
 10
2392.9232360481647
 20
1422.1071290370874
 11
2396.7335160481648
 21
1421.6850990370872
  0
LINE
  8
_0-1_レイヤ___1
  6
CONTINUOUS
 62
    7
 10
2396.7335160481648
 20
1421.6850990370872
 11
2400.3336460481646
 21
1420.625739037087
  0
LINE
  8
_0-1_レイヤ___1
  6
CONTINUOUS
 62
    7
 10
2400.3336460481646
 20
1420.625739037087
 11
2403.9303160481645
 21
1419.5680890370872
  0
LINE
  8
_0-1_レイヤ___1
  6
CONTINUOUS
 62
    7
 10
2403.9303160481645
 20
1419.5680890370872
 11
2407.3168460481647
 21
1417.874829037087
  0
LINE
  8
_0-1_レイヤ___1
  6
CONTINUOUS
 62
    7
 10
2407.3168460481647
 20
1417.874829037087
 11
2410.703376048165
 21
1416.1815590370873
  0
LINE
  8
_0-1_レイヤ___1
  6
CONTINUOUS
 62
    7
 10
2410.703376048165
 20
1416.1815590370873
 11
2413.6661560481648
 21
1413.6425290370871
  0
LINE
  8
_0-1_レイヤ___1
  6
CONTINUOUS
 62
    7
 10
2413.6661560481648
 20
1413.6425290370871
 11
2416.6289460481648
 21
1411.1017690370873
  0
LINE
  8
_0-1_レイヤ___1
  6
CONTINUOUS
 62
    7
 10
2416.6289460481648
 20
1411.1017690370873
 11
2419.1714260481644
 21
1408.1372590370872
  0
LINE
  8
_0-1_レイヤ___1
  6
CONTINUOUS
 62
    7
 10
2419.1714260481644
 20
1408.1372590370872
 11
2421.7104560481648
 21
1405.1744790370872
  0
LINE
  8
_0-1_レイヤ___1
  6
CONTINUOUS
 62
    7
 10
2421.7104560481648
 20
1405.1744790370872
 11
2423.6155960481651
 21
1401.7879490370869
  0
LINE
  8
_0-1_レイヤ___1
  6
CONTINUOUS
 62
    7
 10
2423.6155960481651
 20
1401.7879490370869
 11
2425.5172860481648
 21
1398.4014190370872
  0
LINE
  8
_0-1_レイヤ___1
  6
CONTINUOUS
 62
    7
 10
2425.5172860481648
 20
1398.4014190370872
 11
2426.578376048165
 21
1394.8030190370873
  0
LINE
  8
_0-1_レイヤ___1
  6
CONTINUOUS
 62
    7
 10
2426.578376048165
 20
1394.8030190370873
 11
2427.6360260481651
 21
1391.2046190370872
  0
LINE
  8
_0-1_レイヤ___1
  6
CONTINUOUS
 62
    7
 10
2427.6360260481651
 20
1391.2046190370872
 11
2428.0597660481649
 21
1387.3943390370871
  0
LINE
  8
_0-1_レイヤ___1
  6
CONTINUOUS
 62
    7
 10
2428.0597660481649
 20
1387.3943390370871
 11
2428.4835160481648
 21
1383.5840690370874
  0
LINE
  8
_0-1_レイヤ___1
  6
CONTINUOUS
 62
    7
 10
2428.4835160481648
 20
1383.5840690370874
 11
2428.4835160481648
 21
1325.5876090370873
  0
LINE
  8
_0-1_レイヤ___1
  6
CONTINUOUS
 62
    7
 10
2428.4835160481648
 20
1325.5876090370873
 11
2428.4835160481648
 21
1267.591149037087
  0
LINE
  8
_0-1_レイヤ___1
  6
CONTINUOUS
 62
    7
 10
1840.0474260481647
 20
1267.591149037087
 11
1840.0474260481647
 21
1290.0290590370873
  0
LINE
  8
_0-1_レイヤ___1
  6
CONTINUOUS
 62
    7
 10
1840.0474260481647
 20
1290.0290590370873
 11
1840.0474260481647
 21
1312.4652390370873
  0
LINE
  8
_0-1_レイヤ___1
  6
CONTINUOUS
 62
    7
 10
1840.0474260481647
 20
1312.4652390370873
 11
1840.2575760481648
 21
1315.6398990370872
  0
LINE
  8
_0-1_レイヤ___1
  6
CONTINUOUS
 62
    7
 10
1840.2575760481648
 20
1315.6398990370872
 11
1840.471176048165
 21
1318.8145490370871
  0
LINE
  8
_0-1_レイヤ___1
  6
CONTINUOUS
 62
    7
 10
1840.471176048165
 20
1318.8145490370871
 11
1840.8949160481648
 21
1321.7790590370873
  0
LINE
  8
_0-1_レイヤ___1
  6
CONTINUOUS
 62
    7
 10
1840.8949160481648
 20
1321.7790590370873
 11
1841.3186660481647
 21
1324.7418390370872
  0
LINE
  8
_0-1_レイヤ___1
  6
CONTINUOUS
 62
    7
 10
1841.3186660481647
 20
1324.7418390370872
 11
1841.9525660481647
 21
1327.9164890370873
  0
LINE
  8
_0-1_レイヤ___1
  6
CONTINUOUS
 62
    7
 10
1841.9525660481647
 20
1327.9164890370873
 11
1842.5899060481649
 21
1331.0911490370872
  0
LINE
  8
_0-1_レイヤ___1
  6
CONTINUOUS
 62
    7
 10
1842.5899060481649
 20
1331.0911490370872
 11
1843.6475560481649
 21
1333.8437790370872
  0
LINE
  8
_0-1_レイヤ___1
  6
CONTINUOUS
 62
    7
 10
1843.6475560481649
 20
1333.8437790370872
 11
1844.7051960481647
 21
1336.5946890370874
  0
LINE
  8
_0-1_レイヤ___1
  6
CONTINUOUS
 62
    7
 10
1844.7051960481647
 20
1336.5946890370874
 11
1846.1865860481648
 21
1339.5591890370872
  0
LINE
  8
_0-1_レイヤ___1
  6
CONTINUOUS
 62
    7
 10
1846.1865860481648
 20
1339.5591890370872
 11
1847.6679760481647
 21
1342.5219790370872
  0
LINE
  8
_0-1_レイヤ___1
  6
CONTINUOUS
 62
    7
 10
1847.6679760481647
 20
1342.5219790370872
 11
1849.1493660481649
 21
1345.0610090370874
  0
LINE
  8
_0-1_レイヤ___1
  6
CONTINUOUS
 62
    7
 10
1849.1493660481649
 20
1345.0610090370874
 11
1850.6307560481648
 21
1347.6017690370873
  0
LINE
  8
_0-1_レイヤ___1
  6
CONTINUOUS
 62
    7
 10
1850.6307560481648
 20
1347.6017690370873
 11
1852.5358960481649
 21
1350.1425290370871
  0
LINE
  8
_0-1_レイヤ___1
  6
CONTINUOUS
 62
    7
 10
1852.5358960481649
 20
1350.1425290370871
 11
1854.441036048165
 21
1352.6815590370873
  0
LINE
  8
_0-1_レイヤ___1
  6
CONTINUOUS
 62
    7
 10
1854.441036048165
 20
1352.6815590370873
 11
1856.5597660481649
 21
1355.0104490370873
  0
LINE
  8
_0-1_レイヤ___1
  6
CONTINUOUS
 62
    7
 10
1856.5597660481649
 20
1355.0104490370873
 11
1858.6750560481646
 21
1357.3376090370871
  0
LINE
  8
_0-1_レイヤ___1
  6
CONTINUOUS
 62
    7
 10
1858.6750560481646
 20
1357.3376090370871
 11
1861.0039460481648
 21
1359.4546190370872
  0
LINE
  8
_0-1_レイヤ___1
  6
CONTINUOUS
 62
    7
 10
1861.0039460481648
 20
1359.4546190370872
 11
1863.3328260481649
 21
1361.5716290370872
  0
LINE
  8
_0-1_レイヤ___1
  6
CONTINUOUS
 62
    7
 10
1863.3328260481649
 20
1361.5716290370872
 11
1865.6617160481646
 21
1363.4767690370873
  0
LINE
  8
_0-1_レイヤ___1
  6
CONTINUOUS
 62
    7
 10
1865.6617160481646
 20
1363.4767690370873
 11
1867.9905960481647
 21
1365.3819090370871
  0
LINE
  8
_0-1_レイヤ___1
  6
CONTINUOUS
 62
    7
 10
1867.9905960481647
 20
1365.3819090370871
 11
1870.7397860481649
 21
1366.8632990370872
  0
LINE
  8
_0-1_レイヤ___1
  6
CONTINUOUS
 62
    7
 10
1870.7397860481649
 20
1366.8632990370872
 11
1873.4924160481648
 21
1368.3446890370872
  0
LINE
  8
_0-1_レイヤ___1
  6
CONTINUOUS
 62
    7
 10
1873.4924160481648
 20
1368.3446890370872
 11
1876.2450460481648
 21
1369.6142090370872
  0
LINE
  8
_0-1_レイヤ___1
  6
CONTINUOUS
 62
    7
 10
1876.2450460481648
 20
1369.6142090370872
 11
1878.994236048165
 21
1370.885449037087
  0
LINE
  8
_0-1_レイヤ___1
  6
CONTINUOUS
 62
    7
 10
1878.994236048165
 20
1370.885449037087
 11
1881.9570160481649
 21
1371.9430890370872
  0
LINE
  8
_0-1_レイヤ___1
  6
CONTINUOUS
 62
    7
 10
1881.9570160481649
 20
1371.9430890370872
 11
1884.9232360481647
 21
1373.0007390370872
  0
LINE
  8
_0-1_レイヤ___1
  6
CONTINUOUS
 62
    7
 10
1884.9232360481647
 20
1373.0007390370872
 11
1887.8860260481647
 21
1373.8482290370871
  0
LINE
  8
_0-1_レイヤ___1
  6
CONTINUOUS
 62
    7
 10
1887.8860260481647
 20
1373.8482290370871
 11
1890.8488060481648
 21
1374.6939990370875
  0
LINE
  8
_0-1_レイヤ___1
  6
CONTINUOUS
 62
    7
 10
1890.8488060481648
 20
1374.6939990370875
 11
1894.0217360481647
 21
1375.1177490370874
  0
LINE
  8
_0-1_レイヤ___1
  6
CONTINUOUS
 62
    7
 10
1894.0217360481647
 20
1375.1177490370874
 11
1897.1981160481646
 21
1375.5414890370871
  0
LINE
  8
_0-1_レイヤ___1
  6
CONTINUOUS
 62
    7
 10
1897.1981160481646
 20
1375.5414890370871
 11
1900.3744960481649
 21
1375.7533690370872
  0
LINE
  8
_0-1_レイヤ___1
  6
CONTINUOUS
 62
    7
 10
1900.3744960481649
 20
1375.7533690370872
 11
1903.5474260481649
 21
1375.965239037087
  0
LINE
  8
_0-1_レイヤ___1
  6
CONTINUOUS
 62
    7
 10
1903.5474260481649
 20
1375.965239037087
 11
2110.9800760481648
 21
1375.965239037087
  0
LINE
  8
_0-1_レイヤ___1
  6
CONTINUOUS
 62
    7
 10
2110.9800760481648
 20
1375.965239037087
 11
2318.4161560481648
 21
1375.965239037087
  0
LINE
  8
_0-1_レイヤ___1
  6
CONTINUOUS
 62
    7
 10
2318.4161560481648
 20
1375.965239037087
 11
2321.3789460481648
 21
1375.7533690370872
  0
LINE
  8
_0-1_レイヤ___1
  6
CONTINUOUS
 62
    7
 10
2321.3789460481648
 20
1375.7533690370872
 11
2324.3417260481651
 21
1375.5414890370871
  0
LINE
  8
_0-1_レイヤ___1
  6
CONTINUOUS
 62
    7
 10
2324.3417260481651
 20
1375.5414890370871
 11
2327.518106048165
 21
1375.1177490370874
  0
LINE
  8
_0-1_レイヤ___1
  6
CONTINUOUS
 62
    7
 10
2327.518106048165
 20
1375.1177490370874
 11
2330.6910360481647
 21
1374.6939990370875
  0
LINE
  8
_0-1_レイヤ___1
  6
CONTINUOUS
 62
    7
 10
2330.6910360481647
 20
1374.6939990370875
 11
2333.6572660481647
 21
1373.8482290370871
  0
LINE
  8
_0-1_レイヤ___1
  6
CONTINUOUS
 62
    7
 10
2333.6572660481647
 20
1373.8482290370871
 11
2336.6200460481646
 21
1373.0007390370872
  0
LINE
  8
_0-1_レイヤ___1
  6
CONTINUOUS
 62
    7
 10
2336.6200460481646
 20
1373.0007390370872
 11
2339.5828260481649
 21
1371.9430890370872
  0
LINE
  8
_0-1_レイヤ___1
  6
CONTINUOUS
 62
    7
 10
2339.5828260481649
 20
1371.9430890370872
 11
2342.5456060481647
 21
1370.885449037087
  0
LINE
  8
_0-1_レイヤ___1
  6
CONTINUOUS
 62
    7
 10
2342.5456060481647
 20
1370.885449037087
 11
2345.2947960481647
 21
1369.6142090370872
  0
LINE
  8
_0-1_レイヤ___1
  6
CONTINUOUS
 62
    7
 10
2345.2947960481647
 20
1369.6142090370872
 11
2348.0474260481647
 21
1368.3446890370872
  0
LINE
  8
_0-1_レイヤ___1
  6
CONTINUOUS
 62
    7
 10
2348.0474260481647
 20
1368.3446890370872
 11
2350.8000560481646
 21
1366.8632990370872
  0
LINE
  8
_0-1_レイヤ___1
  6
CONTINUOUS
 62
    7
 10
2350.8000560481646
 20
1366.8632990370872
 11
2353.5526860481646
 21
1365.3819090370871
  0
LINE
  8
_0-1_レイヤ___1
  6
CONTINUOUS
 62
    7
 10
2353.5526860481646
 20
1365.3819090370871
 11
2356.0917260481647
 21
1363.4767690370873
  0
LINE
  8
_0-1_レイヤ___1
  6
CONTINUOUS
 62
    7
 10
2356.0917260481647
 20
1363.4767690370873
 11
2358.630756048165
 21
1361.5716290370872
  0
LINE
  8
_0-1_レイヤ___1
  6
CONTINUOUS
 62
    7
 10
2358.630756048165
 20
1361.5716290370872
 11
2360.7494960481649
 21
1359.4546190370872
  0
LINE
  8
_0-1_レイヤ___1
  6
CONTINUOUS
 62
    7
 10
2360.7494960481649
 20
1359.4546190370872
 11
2362.8647860481651
 21
1357.3376090370871
  0
LINE
  8
_0-1_レイヤ___1
  6
CONTINUOUS
 62
    7
 10
2362.8647860481651
 20
1357.3376090370871
 11
2364.9800760481648
 21
1355.0104490370873
  0
LINE
  8
_0-1_レイヤ___1
  6
CONTINUOUS
 62
    7
 10
2364.9800760481648
 20
1355.0104490370873
 11
2367.098806048165
 21
1352.6815590370873
  0
LINE
  8
_0-1_レイヤ___1
  6
CONTINUOUS
 62
    7
 10
2367.098806048165
 20
1352.6815590370873
 11
2369.0039460481648
 21
1350.1425290370871
  0
LINE
  8
_0-1_レイヤ___1
  6
CONTINUOUS
 62
    7
 10
2369.0039460481648
 20
1350.1425290370871
 11
2370.9090760481649
 21
1347.6017690370873
  0
LINE
  8
_0-1_レイヤ___1
  6
CONTINUOUS
 62
    7
 10
2370.9090760481649
 20
1347.6017690370873
 11
2372.6006260481649
 21
1345.0610090370874
  0
LINE
  8
_0-1_レイヤ___1
  6
CONTINUOUS
 62
    7
 10
2372.6006260481649
 20
1345.0610090370874
 11
2374.2956060481647
 21
1342.5219790370872
  0
LINE
  8
_0-1_レイヤ___1
  6
CONTINUOUS
 62
    7
 10
2374.2956060481647
 20
1342.5219790370872
 11
2375.5634060481648
 21
1339.5591890370872
  0
LINE
  8
_0-1_レイヤ___1
  6
CONTINUOUS
 62
    7
 10
2375.5634060481648
 20
1339.5591890370872
 11
2376.8346460481648
 21
1336.5946890370874
  0
LINE
  8
_0-1_レイヤ___1
  6
CONTINUOUS
 62
    7
 10
2376.8346460481648
 20
1336.5946890370874
 11
2377.8922860481648
 21
1333.8437790370872
  0
LINE
  8
_0-1_レイヤ___1
  6
CONTINUOUS
 62
    7
 10
2377.8922860481648
 20
1333.8437790370872
 11
2378.953376048165
 21
1331.0911490370872
  0
LINE
  8
_0-1_レイヤ___1
  6
CONTINUOUS
 62
    7
 10
2378.953376048165
 20
1331.0911490370872
 11
2379.5872760481648
 21
1327.9164890370873
  0
LINE
  8
_0-1_レイヤ___1
  6
CONTINUOUS
 62
    7
 10
2379.5872760481648
 20
1327.9164890370873
 11
2380.221176048165
 21
1324.7418390370872
  0
LINE
  8
_0-1_レイヤ___1
  6
CONTINUOUS
 62
    7
 10
2380.221176048165
 20
1324.7418390370872
 11
2380.8550760481648
 21
1321.7790590370873
  0
LINE
  8
_0-1_レイヤ___1
  6
CONTINUOUS
 62
    7
 10
2380.8550760481648
 20
1321.7790590370873
 11
2381.4924160481651
 21
1318.8145490370871
  0
LINE
  8
_0-1_レイヤ___1
  6
CONTINUOUS
 62
    7
 10
2381.4924160481651
 20
1318.8145490370871
 11
2381.4924160481651
 21
1315.6398990370872
  0
LINE
  8
_0-1_レイヤ___1
  6
CONTINUOUS
 62
    7
 10
2381.4924160481651
 20
1315.6398990370872
 11
2381.4924160481651
 21
1312.4652390370873
  0
LINE
  8
_0-1_レイヤ___1
  6
CONTINUOUS
 62
    7
 10
2381.4924160481651
 20
1312.4652390370873
 11
2381.4924160481651
 21
1290.0290590370873
  0
LINE
  8
_0-1_レイヤ___1
  6
CONTINUOUS
 62
    7
 10
2381.4924160481651
 20
1290.0290590370873
 11
2381.4924160481651
 21
1267.591149037087
  0
LINE
  8
_0-1_レイヤ___1
  6
CONTINUOUS
 62
    7
 10
1850.2104560481648
 20
1267.591149037087
 11
1851.2681060481648
 21
1269.2844090370872
  0
LINE
  8
_0-1_レイヤ___1
  6
CONTINUOUS
 62
    7
 10
1851.2681060481648
 20
1269.2844090370872
 11
1852.3257460481648
 21
1270.9776790370872
  0
LINE
  8
_0-1_レイヤ___1
  6
CONTINUOUS
 62
    7
 10
1852.3257460481648
 20
1270.9776790370872
 11
1853.5969860481648
 21
1272.4590690370871
  0
LINE
  8
_0-1_レイヤ___1
  6
CONTINUOUS
 62
    7
 10
1853.5969860481648
 20
1272.4590690370871
 11
1854.8647860481649
 21
1273.9404590370873
  0
LINE
  8
_0-1_レイヤ___1
  6
CONTINUOUS
 62
    7
 10
1854.8647860481649
 20
1273.9404590370873
 11
1856.1360260481649
 21
1275.4218490370872
  0
LINE
  8
_0-1_レイヤ___1
  6
CONTINUOUS
 62
    7
 10
1856.1360260481649
 20
1275.4218490370872
 11
1857.4072660481647
 21
1276.9049590370873
  0
LINE
  8
_0-1_レイヤ___1
  6
CONTINUOUS
 62
    7
 10
1857.4072660481647
 20
1276.9049590370873
 11
1858.8886560481649
 21
1278.1744790370872
  0
LINE
  8
_0-1_レイヤ___1
  6
CONTINUOUS
 62
    7
 10
1858.8886560481649
 20
1278.1744790370872
 11
1860.3700460481648
 21
1279.4439990370872
  0
LINE
  8
_0-1_レイヤ___1
  6
CONTINUOUS
 62
    7
 10
1860.3700460481648
 20
1279.4439990370872
 11
1861.8514360481649
 21
1280.7135190370873
  0
LINE
  8
_0-1_レイヤ___1
  6
CONTINUOUS
 62
    7
 10
1861.8514360481649
 20
1280.7135190370873
 11
1863.3328260481649
 21
1281.9847590370873
  0
LINE
  8
_0-1_レイヤ___1
  6
CONTINUOUS
 62
    7
 10
1863.3328260481649
 20
1281.9847590370873
 11
1864.8142160481648
 21
1283.2542790370871
  0
LINE
  8
_0-1_レイヤ___1
  6
CONTINUOUS
 62
    7
 10
1864.8142160481648
 20
1283.2542790370871
 11
1866.2956060481647
 21
1284.5237890370872
  0
LINE
  8
_0-1_レイヤ___1
  6
CONTINUOUS
 62
    7
 10
1866.2956060481647
 20
1284.5237890370872
 11
1867.9905960481647
 21
1285.5814390370872
  0
LINE
  8
_0-1_レイヤ___1
  6
CONTINUOUS
 62
    7
 10
1867.9905960481647
 20
1285.5814390370872
 11
1869.6821360481647
 21
1286.6407990370872
  0
LINE
  8
_0-1_レイヤ___1
  6
CONTINUOUS
 62
    7
 10
1869.6821360481647
 20
1286.6407990370872
 11
1871.373676048165
 21
1287.7001690370871
  0
LINE
  8
_0-1_レイヤ___1
  6
CONTINUOUS
 62
    7
 10
1871.373676048165
 20
1287.7001690370871
 11
1873.0686660481649
 21
1288.7578190370871
  0
LINE
  8
_0-1_レイヤ___1
  6
CONTINUOUS
 62
    7
 10
1873.0686660481649
 20
1288.7578190370871
 11
1874.9738060481648
 21
1289.6053090370874
  0
LINE
  8
_0-1_レイヤ___1
  6
CONTINUOUS
 62
    7
 10
1874.9738060481648
 20
1289.6053090370874
 11
1876.8789460481648
 21
1290.4510790370873
  0
LINE
  8
_0-1_レイヤ___1
  6
CONTINUOUS
 62
    7
 10
1876.8789460481648
 20
1290.4510790370873
 11
1878.5739260481648
 21
1291.2968490370872
  0
LINE
  8
_0-1_レイヤ___1
  6
CONTINUOUS
 62
    7
 10
1878.5739260481648
 20
1291.2968490370872
 11
1880.2654760481646
 21
1292.1443390370871
  0
LINE
  8
_0-1_レイヤ___1
  6
CONTINUOUS
 62
    7
 10
1880.2654760481646
 20
1292.1443390370871
 11
1882.1706060481647
 21
1292.7782390370871
  0
LINE
  8
_0-1_レイヤ___1
  6
CONTINUOUS
 62
    7
 10
1882.1706060481647
 20
1292.7782390370871
 11
1884.075746048165
 21
1293.4138590370871
  0
LINE
  8
_0-1_レイヤ___1
  6
CONTINUOUS
 62
    7
 10
1884.075746048165
 20
1293.4138590370871
 11
1885.9808860481648
 21
1293.8376090370871
  0
LINE
  8
_0-1_レイヤ___1
  6
CONTINUOUS
 62
    7
 10
1885.9808860481648
 20
1293.8376090370871
 11
1887.8860260481647
 21
1294.261359037087
  0
LINE
  8
_0-1_レイヤ___1
  6
CONTINUOUS
 62
    7
 10
1887.8860260481647
 20
1294.261359037087
 11
1889.7911560481648
 21
1294.6833790370872
  0
LINE
  8
_0-1_レイヤ___1
  6
CONTINUOUS
 62
    7
 10
1889.7911560481648
 20
1294.6833790370872
 11
1891.6962960481649
 21
1295.1071290370871
  0
LINE
  8
_0-1_レイヤ___1
  6
CONTINUOUS
 62
    7
 10
1891.6962960481649
 20
1295.1071290370871
 11
1893.6014360481647
 21
1295.5308690370873
  0
LINE
  8
_0-1_レイヤ___1
  6
CONTINUOUS
 62
    7
 10
1893.6014360481647
 20
1295.5308690370873
 11
1895.5065760481648
 21
1295.9546190370872
  0
LINE
  8
_0-1_レイヤ___1
  6
CONTINUOUS
 62
    7
 10
1895.5065760481648
 20
1295.9546190370872
 11
1897.4117160481649
 21
1296.1664890370871
  0
LINE
  8
_0-1_レイヤ___1
  6
CONTINUOUS
 62
    7
 10
1897.4117160481649
 20
1296.1664890370871
 11
1899.316846048165
 21
1296.3783690370872
  0
LINE
  8
_0-1_レイヤ___1
  6
CONTINUOUS
 62
    7
 10
1899.316846048165
 20
1296.3783690370872
 11
1901.4321360481649
 21
1296.3783690370872
  0
LINE
  8
_0-1_レイヤ___1
  6
CONTINUOUS
 62
    7
 10
1901.4321360481649
 20
1296.3783690370872
 11
1903.5474260481649
 21
1296.3783690370872
  0
LINE
  8
_0-1_レイヤ___1
  6
CONTINUOUS
 62
    7
 10
1903.5474260481649
 20
1296.3783690370872
 11
2110.9800760481648
 21
1296.3783690370872
  0
LINE
  8
_0-1_レイヤ___1
  6
CONTINUOUS
 62
    7
 10
2110.9800760481648
 20
1296.3783690370872
 11
2318.4161560481648
 21
1296.3783690370872
  0
LINE
  8
_0-1_レイヤ___1
  6
CONTINUOUS
 62
    7
 10
2318.4161560481648
 20
1296.3783690370872
 11
2320.3212960481646
 21
1296.3783690370872
  0
LINE
  8
_0-1_レイヤ___1
  6
CONTINUOUS
 62
    7
 10
2320.3212960481646
 20
1296.3783690370872
 11
2322.2264360481649
 21
1296.3783690370872
  0
LINE
  8
_0-1_レイヤ___1
  6
CONTINUOUS
 62
    7
 10
2322.2264360481649
 20
1296.3783690370872
 11
2324.1315760481648
 21
1296.1664890370871
  0
LINE
  8
_0-1_レイヤ___1
  6
CONTINUOUS
 62
    7
 10
2324.1315760481648
 20
1296.1664890370871
 11
2326.0367160481646
 21
1295.9546190370872
  0
LINE
  8
_0-1_レイヤ___1
  6
CONTINUOUS
 62
    7
 10
2326.0367160481646
 20
1295.9546190370872
 11
2327.9418460481647
 21
1295.5308690370873
  0
LINE
  8
_0-1_レイヤ___1
  6
CONTINUOUS
 62
    7
 10
2327.9418460481647
 20
1295.5308690370873
 11
2329.846986048165
 21
1295.1071290370871
  0
LINE
  8
_0-1_レイヤ___1
  6
CONTINUOUS
 62
    7
 10
2329.846986048165
 20
1295.1071290370871
 11
2331.7521260481649
 21
1294.6833790370872
  0
LINE
  8
_0-1_レイヤ___1
  6
CONTINUOUS
 62
    7
 10
2331.7521260481649
 20
1294.6833790370872
 11
2333.6572660481647
 21
1294.261359037087
  0
LINE
  8
_0-1_レイヤ___1
  6
CONTINUOUS
 62
    7
 10
2333.6572660481647
 20
1294.261359037087
 11
2335.5589560481649
 21
1293.8376090370871
  0
LINE
  8
_0-1_レイヤ___1
  6
CONTINUOUS
 62
    7
 10
2335.5589560481649
 20
1293.8376090370871
 11
2337.4640960481647
 21
1293.4138590370871
  0
LINE
  8
_0-1_レイヤ___1
  6
CONTINUOUS
 62
    7
 10
2337.4640960481647
 20
1293.4138590370871
 11
2339.369236048165
 21
1292.7782390370871
  0
LINE
  8
_0-1_レイヤ___1
  6
CONTINUOUS
 62
    7
 10
2339.369236048165
 20
1292.7782390370871
 11
2341.2743660481651
 21
1292.1443390370871
  0
LINE
  8
_0-1_レイヤ___1
  6
CONTINUOUS
 62
    7
 10
2341.2743660481651
 20
1292.1443390370871
 11
2343.1795060481645
 21
1291.2968490370872
  0
LINE
  8
_0-1_レイヤ___1
  6
CONTINUOUS
 62
    7
 10
2343.1795060481645
 20
1291.2968490370872
 11
2345.0846460481648
 21
1290.4510790370873
  0
LINE
  8
_0-1_レイヤ___1
  6
CONTINUOUS
 62
    7
 10
2345.0846460481648
 20
1290.4510790370873
 11
2346.7761860481646
 21
1289.6053090370874
  0
LINE
  8
_0-1_レイヤ___1
  6
CONTINUOUS
 62
    7
 10
2346.7761860481646
 20
1289.6053090370874
 11
2348.4711760481646
 21
1288.7578190370871
  0
LINE
  8
_0-1_レイヤ___1
  6
CONTINUOUS
 62
    7
 10
2348.4711760481646
 20
1288.7578190370871
 11
2350.1661560481648
 21
1287.7001690370871
  0
LINE
  8
_0-1_レイヤ___1
  6
CONTINUOUS
 62
    7
 10
2350.1661560481648
 20
1287.7001690370871
 11
2351.8577060481648
 21
1286.6407990370872
  0
LINE
  8
_0-1_レイヤ___1
  6
CONTINUOUS
 62
    7
 10
2351.8577060481648
 20
1286.6407990370872
 11
2353.5492460481651
 21
1285.5814390370872
  0
LINE
  8
_0-1_レイヤ___1
  6
CONTINUOUS
 62
    7
 10
2353.5492460481651
 20
1285.5814390370872
 11
2355.244236048165
 21
1284.5237890370872
  0
LINE
  8
_0-1_レイヤ___1
  6
CONTINUOUS
 62
    7
 10
2355.244236048165
 20
1284.5237890370872
 11
2356.7256260481649
 21
1283.2542790370871
  0
LINE
  8
_0-1_レイヤ___1
  6
CONTINUOUS
 62
    7
 10
2356.7256260481649
 20
1283.2542790370871
 11
2358.2104560481648
 21
1281.9847590370873
  0
LINE
  8
_0-1_レイヤ___1
  6
CONTINUOUS
 62
    7
 10
2358.2104560481648
 20
1281.9847590370873
 11
2359.6918460481647
 21
1280.7135190370873
  0
LINE
  8
_0-1_レイヤ___1
  6
CONTINUOUS
 62
    7
 10
2359.6918460481647
 20
1280.7135190370873
 11
2361.1732360481647
 21
1279.4439990370872
  0
LINE
  8
_0-1_レイヤ___1
  6
CONTINUOUS
 62
    7
 10
2361.1732360481647
 20
1279.4439990370872
 11
2362.6546360481648
 21
1278.1744790370872
  0
LINE
  8
_0-1_レイヤ___1
  6
CONTINUOUS
 62
    7
 10
2362.6546360481648
 20
1278.1744790370872
 11
2364.1360260481647
 21
1276.9049590370873
  0
LINE
  8
_0-1_レイヤ___1
  6
CONTINUOUS
 62
    7
 10
2364.1360260481647
 20
1276.9049590370873
 11
2365.4072660481647
 21
1275.4218490370872
  0
LINE
  8
_0-1_レイヤ___1
  6
CONTINUOUS
 62
    7
 10
2365.4072660481647
 20
1275.4218490370872
 11
2366.6750560481651
 21
1273.9404590370873
  0
LINE
  8
_0-1_レイヤ___1
  6
CONTINUOUS
 62
    7
 10
2366.6750560481651
 20
1273.9404590370873
 11
2367.9428560481647
 21
1272.4590690370871
  0
LINE
  8
_0-1_レイヤ___1
  6
CONTINUOUS
 62
    7
 10
2367.9428560481647
 20
1272.4590690370871
 11
2369.2140960481647
 21
1270.9776790370872
  0
LINE
  8
_0-1_レイヤ___1
  6
CONTINUOUS
 62
    7
 10
2369.2140960481647
 20
1270.9776790370872
 11
2370.2717360481647
 21
1269.2844090370872
  0
LINE
  8
_0-1_レイヤ___1
  6
CONTINUOUS
 62
    7
 10
2370.2717360481647
 20
1269.2844090370872
 11
2371.3328260481649
 21
1267.591149037087
  0
LINE
  8
_0-1_レイヤ___1
  6
CONTINUOUS
 62
    7
 10
2026.3168460481647
 20
1343.579619037087
 11
2021.1733260481649
 21
1355.9957390370871
  0
LINE
  8
_0-1_レイヤ___1
  6
CONTINUOUS
 62
    7
 10
2021.1733260481649
 20
1355.9957390370871
 11
2008.7468660481647
 21
1361.1478790370873
  0
LINE
  8
_0-1_レイヤ___1
  6
CONTINUOUS
 62
    7
 10
2008.7468660481647
 20
1361.1478790370873
 11
1996.3204060481648
 21
1355.9957390370871
  0
LINE
  8
_0-1_レイヤ___1
  6
CONTINUOUS
 62
    7
 10
1996.3204060481648
 20
1355.9957390370871
 11
1991.1803160481647
 21
1343.579619037087
  0
LINE
  8
_0-1_レイヤ___1
  6
CONTINUOUS
 62
    7
 10
1991.1803160481647
 20
1343.579619037087
 11
1996.3204060481648
 21
1331.1634990370871
  0
LINE
  8
_0-1_レイヤ___1
  6
CONTINUOUS
 62
    7
 10
1996.3204060481648
 20
1331.1634990370871
 11
2008.7468660481647
 21
1326.0113590370872
  0
LINE
  8
_0-1_レイヤ___1
  6
CONTINUOUS
 62
    7
 10
2008.7468660481647
 20
1326.0113590370872
 11
2021.1733260481649
 21
1331.1634990370871
  0
LINE
  8
_0-1_レイヤ___1
  6
CONTINUOUS
 62
    7
 10
2021.1733260481649
 20
1331.1634990370871
 11
2026.3168460481647
 21
1343.579619037087
  0
LINE
  8
_0-1_レイヤ___1
  6
CONTINUOUS
 62
    7
 10
2008.9604560481648
 20
1381.0450290370873
 11
2008.9604560481648
 21
1374.6957190370872
  0
LINE
  8
_0-1_レイヤ___1
  6
CONTINUOUS
 62
    7
 10
2008.9604560481648
 20
1374.6957190370872
 11
2008.9604560481648
 21
1368.3446890370872
  0
LINE
  8
_0-1_レイヤ___1
  6
CONTINUOUS
 62
    7
 10
2008.9604560481648
 20
1364.1106690370873
 11
2008.9604560481648
 21
1363.475049037087
  0
LINE
  8
_0-1_レイヤ___1
  6
CONTINUOUS
 62
    7
 10
2008.9604560481648
 20
1363.475049037087
 11
2008.9604560481648
 21
1362.8411490370872
  0
LINE
  8
_0-1_レイヤ___1
  6
CONTINUOUS
 62
    7
 10
2008.9604560481648
 20
1359.8783690370872
 11
2008.9604560481648
 21
1359.2427490370872
  0
LINE
  8
_0-1_レイヤ___1
  6
CONTINUOUS
 62
    7
 10
2008.9604560481648
 20
1359.2427490370872
 11
2008.9604560481648
 21
1358.6071290370874
  0
LINE
  8
_0-1_レイヤ___1
  6
CONTINUOUS
 62
    7
 10
2008.9604560481648
 20
1355.6443390370873
 11
2008.9604560481648
 21
1349.295029037087
  0
LINE
  8
_0-1_レイヤ___1
  6
CONTINUOUS
 62
    7
 10
2008.9604560481648
 20
1349.295029037087
 11
2008.9604560481648
 21
1342.9439990370872
  0
LINE
  8
_0-1_レイヤ___1
  6
CONTINUOUS
 62
    7
 10
2008.9604560481648
 20
1338.7116990370873
 11
2008.9604560481648
 21
1338.0760790370871
  0
LINE
  8
_0-1_レイヤ___1
  6
CONTINUOUS
 62
    7
 10
2008.9604560481648
 20
1338.0760790370871
 11
2008.9604560481648
 21
1337.4404590370873
  0
LINE
  8
_0-1_レイヤ___1
  6
CONTINUOUS
 62
    7
 10
2008.9604560481648
 20
1334.4776790370872
 11
2008.9604560481648
 21
1333.8437790370872
  0
LINE
  8
_0-1_レイヤ___1
  6
CONTINUOUS
 62
    7
 10
2008.9604560481648
 20
1333.8437790370872
 11
2008.9604560481648
 21
1333.2081590370874
  0
LINE
  8
_0-1_レイヤ___1
  6
CONTINUOUS
 62
    7
 10
2008.9604560481648
 20
1330.2453790370873
 11
2008.9604560481648
 21
1323.8943390370873
  0
LINE
  8
_0-1_レイヤ___1
  6
CONTINUOUS
 62
    7
 10
2008.9604560481648
 20
1323.8943390370873
 11
2008.9604560481648
 21
1317.5450290370873
  0
LINE
  8
_0-1_レイヤ___1
  6
CONTINUOUS
 62
    7
 10
2008.9604560481648
 20
1313.3110090370872
 11
2008.9604560481648
 21
1312.6771090370871
  0
LINE
  8
_0-1_レイヤ___1
  6
CONTINUOUS
 62
    7
 10
2008.9604560481648
 20
1312.6771090370871
 11
2008.9604560481648
 21
1312.0414890370873
  0
LINE
  8
_0-1_レイヤ___1
  6
CONTINUOUS
 62
    7
 10
2008.9604560481648
 20
1309.0787090370873
 11
2008.9604560481648
 21
1308.443089037087
  0
LINE
  8
_0-1_レイヤ___1
  6
CONTINUOUS
 62
    7
 10
2008.9604560481648
 20
1308.443089037087
 11
2008.9604560481648
 21
1307.8074690370872
  0
LINE
  8
_0-1_レイヤ___1
  6
CONTINUOUS
 62
    7
 10
2008.9604560481648
 20
1306.9616990370873
 11
2008.9604560481648
 21
1306.5379490370874
  0
LINE
  8
_0-1_レイヤ___1
  6
CONTINUOUS
 62
    7
 10
2008.9604560481648
 20
1306.5379490370874
 11
2008.9604560481648
 21
1306.1142090370872
  0
LINE
  8
_0-1_レイヤ___1
  6
CONTINUOUS
 62
    7
 10
1971.2814460481648
 20
1343.7914890370871
 11
1977.6342060481647
 21
1343.7914890370871
  0
LINE
  8
_0-1_レイヤ___1
  6
CONTINUOUS
 62
    7
 10
1977.6342060481647
 20
1343.7914890370871
 11
1983.9835160481648
 21
1343.7914890370871
  0
LINE
  8
_0-1_レイヤ___1
  6
CONTINUOUS
 62
    7
 10
1988.2140960481649
 20
1343.7914890370871
 11
1988.8514360481647
 21
1343.7914890370871
  0
LINE
  8
_0-1_レイヤ___1
  6
CONTINUOUS
 62
    7
 10
1988.8514360481647
 20
1343.7914890370871
 11
1989.4853360481648
 21
1343.7914890370871
  0
LINE
  8
_0-1_レイヤ___1
  6
CONTINUOUS
 62
    7
 10
1992.4481160481648
 20
1343.7914890370871
 11
1993.0820160481649
 21
1343.7914890370871
  0
LINE
  8
_0-1_レイヤ___1
  6
CONTINUOUS
 62
    7
 10
1993.0820160481649
 20
1343.7914890370871
 11
1993.7193560481649
 21
1343.7914890370871
  0
LINE
  8
_0-1_レイヤ___1
  6
CONTINUOUS
 62
    7
 10
1996.6821360481649
 20
1343.7914890370871
 11
2003.0314460481648
 21
1343.7914890370871
  0
LINE
  8
_0-1_レイヤ___1
  6
CONTINUOUS
 62
    7
 10
2003.0314460481648
 20
1343.7914890370871
 11
2009.3807560481648
 21
1343.7914890370871
  0
LINE
  8
_0-1_レイヤ___1
  6
CONTINUOUS
 62
    7
 10
2013.6147860481649
 20
1343.7914890370871
 11
2014.2486760481647
 21
1343.7914890370871
  0
LINE
  8
_0-1_レイヤ___1
  6
CONTINUOUS
 62
    7
 10
2014.2486760481647
 20
1343.7914890370871
 11
2014.8860260481649
 21
1343.7914890370871
  0
LINE
  8
_0-1_レイヤ___1
  6
CONTINUOUS
 62
    7
 10
2017.848806048165
 20
1343.7914890370871
 11
2018.4861460481648
 21
1343.7914890370871
  0
LINE
  8
_0-1_レイヤ___1
  6
CONTINUOUS
 62
    7
 10
2018.4861460481648
 20
1343.7914890370871
 11
2019.1200460481648
 21
1343.7914890370871
  0
LINE
  8
_0-1_レイヤ___1
  6
CONTINUOUS
 62
    7
 10
2022.0828260481649
 20
1343.7914890370871
 11
2028.4321360481647
 21
1343.7914890370871
  0
LINE
  8
_0-1_レイヤ___1
  6
CONTINUOUS
 62
    7
 10
2028.4321360481647
 20
1343.7914890370871
 11
2034.781446048165
 21
1343.7914890370871
  0
LINE
  8
_0-1_レイヤ___1
  6
CONTINUOUS
 62
    7
 10
2039.0154760481646
 20
1343.7914890370871
 11
2039.6528160481648
 21
1343.7914890370871
  0
LINE
  8
_0-1_レイヤ___1
  6
CONTINUOUS
 62
    7
 10
2039.6528160481648
 20
1343.7914890370871
 11
2040.2867160481649
 21
1343.7914890370871
  0
LINE
  8
_0-1_レイヤ___1
  6
CONTINUOUS
 62
    7
 10
2043.2494960481649
 20
1343.7914890370871
 11
2043.8833960481647
 21
1343.7914890370871
  0
LINE
  8
_0-1_レイヤ___1
  6
CONTINUOUS
 62
    7
 10
2043.8833960481647
 20
1343.7914890370871
 11
2044.5172860481648
 21
1343.7914890370871
  0
LINE
  8
_0-1_レイヤ___1
  6
CONTINUOUS
 62
    7
 10
2045.3647860481649
 20
1343.7914890370871
 11
2045.7885260481648
 21
1343.7914890370871
  0
LINE
  8
_0-1_レイヤ___1
  6
CONTINUOUS
 62
    7
 10
2045.7885260481648
 20
1343.7914890370871
 11
2046.2122760481648
 21
1343.7914890370871
  0
LINE
  8
_0-1_レイヤ___1
  6
CONTINUOUS
 62
    7
 10
2128.3399060481647
 20
1343.579619037087
 11
2123.1963760481649
 21
1355.9957390370871
  0
LINE
  8
_0-1_レイヤ___1
  6
CONTINUOUS
 62
    7
 10
2123.1963760481649
 20
1355.9957390370871
 11
2110.7699160481648
 21
1361.1478790370873
  0
LINE
  8
_0-1_レイヤ___1
  6
CONTINUOUS
 62
    7
 10
2110.7699160481648
 20
1361.1478790370873
 11
2098.3469060481648
 21
1355.9957390370871
  0
LINE
  8
_0-1_レイヤ___1
  6
CONTINUOUS
 62
    7
 10
2098.3469060481648
 20
1355.9957390370871
 11
2093.2033760481645
 21
1343.579619037087
  0
LINE
  8
_0-1_レイヤ___1
  6
CONTINUOUS
 62
    7
 10
2093.2033760481645
 20
1343.579619037087
 11
2098.3469060481648
 21
1331.1634990370871
  0
LINE
  8
_0-1_レイヤ___1
  6
CONTINUOUS
 62
    7
 10
2098.3469060481648
 20
1331.1634990370871
 11
2110.7699160481648
 21
1326.0113590370872
  0
LINE
  8
_0-1_レイヤ___1
  6
CONTINUOUS
 62
    7
 10
2110.7699160481648
 20
1326.0113590370872
 11
2123.1963760481649
 21
1331.1634990370871
  0
LINE
  8
_0-1_レイヤ___1
  6
CONTINUOUS
 62
    7
 10
2123.1963760481649
 20
1331.1634990370871
 11
2128.3399060481647
 21
1343.579619037087
  0
LINE
  8
_0-1_レイヤ___1
  6
CONTINUOUS
 62
    7
 10
2110.9835160481648
 20
1381.0450290370873
 11
2110.9835160481648
 21
1374.6957190370872
  0
LINE
  8
_0-1_レイヤ___1
  6
CONTINUOUS
 62
    7
 10
2110.9835160481648
 20
1374.6957190370872
 11
2110.9835160481648
 21
1368.3446890370872
  0
LINE
  8
_0-1_レイヤ___1
  6
CONTINUOUS
 62
    7
 10
2110.9835160481648
 20
1364.1106690370873
 11
2110.9835160481648
 21
1363.475049037087
  0
LINE
  8
_0-1_レイヤ___1
  6
CONTINUOUS
 62
    7
 10
2110.9835160481648
 20
1363.475049037087
 11
2110.9835160481648
 21
1362.8411490370872
  0
LINE
  8
_0-1_レイヤ___1
  6
CONTINUOUS
 62
    7
 10
2110.9835160481648
 20
1359.8783690370872
 11
2110.9835160481648
 21
1359.2427490370872
  0
LINE
  8
_0-1_レイヤ___1
  6
CONTINUOUS
 62
    7
 10
2110.9835160481648
 20
1359.2427490370872
 11
2110.9835160481648
 21
1358.6071290370874
  0
LINE
  8
_0-1_レイヤ___1
  6
CONTINUOUS
 62
    7
 10
2110.9835160481648
 20
1355.6443390370873
 11
2110.9835160481648
 21
1349.295029037087
  0
LINE
  8
_0-1_レイヤ___1
  6
CONTINUOUS
 62
    7
 10
2110.9835160481648
 20
1349.295029037087
 11
2110.9835160481648
 21
1342.9439990370872
  0
LINE
  8
_0-1_レイヤ___1
  6
CONTINUOUS
 62
    7
 10
2110.9835160481648
 20
1338.7116990370873
 11
2110.9835160481648
 21
1338.0760790370871
  0
LINE
  8
_0-1_レイヤ___1
  6
CONTINUOUS
 62
    7
 10
2110.9835160481648
 20
1338.0760790370871
 11
2110.9835160481648
 21
1337.4404590370873
  0
LINE
  8
_0-1_レイヤ___1
  6
CONTINUOUS
 62
    7
 10
2110.9835160481648
 20
1334.4776790370872
 11
2110.9835160481648
 21
1333.8437790370872
  0
LINE
  8
_0-1_レイヤ___1
  6
CONTINUOUS
 62
    7
 10
2110.9835160481648
 20
1333.8437790370872
 11
2110.9835160481648
 21
1333.2081590370874
  0
LINE
  8
_0-1_レイヤ___1
  6
CONTINUOUS
 62
    7
 10
2110.9835160481648
 20
1330.2453790370873
 11
2110.9835160481648
 21
1323.8943390370873
  0
LINE
  8
_0-1_レイヤ___1
  6
CONTINUOUS
 62
    7
 10
2110.9835160481648
 20
1323.8943390370873
 11
2110.9835160481648
 21
1317.5450290370873
  0
LINE
  8
_0-1_レイヤ___1
  6
CONTINUOUS
 62
    7
 10
2110.9835160481648
 20
1313.3110090370872
 11
2110.9835160481648
 21
1312.6771090370871
  0
LINE
  8
_0-1_レイヤ___1
  6
CONTINUOUS
 62
    7
 10
2110.9835160481648
 20
1312.6771090370871
 11
2110.9835160481648
 21
1312.0414890370873
  0
LINE
  8
_0-1_レイヤ___1
  6
CONTINUOUS
 62
    7
 10
2110.9835160481648
 20
1309.0787090370873
 11
2110.9835160481648
 21
1308.443089037087
  0
LINE
  8
_0-1_レイヤ___1
  6
CONTINUOUS
 62
    7
 10
2110.9835160481648
 20
1308.443089037087
 11
2110.9835160481648
 21
1307.8074690370872
  0
LINE
  8
_0-1_レイヤ___1
  6
CONTINUOUS
 62
    7
 10
2110.9835160481648
 20
1306.9616990370873
 11
2110.9835160481648
 21
1306.5379490370874
  0
LINE
  8
_0-1_レイヤ___1
  6
CONTINUOUS
 62
    7
 10
2110.9835160481648
 20
1306.5379490370874
 11
2110.9835160481648
 21
1306.1142090370872
  0
LINE
  8
_0-1_レイヤ___1
  6
CONTINUOUS
 62
    7
 10
2073.304506048165
 20
1343.7914890370871
 11
2079.6572660481652
 21
1343.7914890370871
  0
LINE
  8
_0-1_レイヤ___1
  6
CONTINUOUS
 62
    7
 10
2079.6572660481652
 20
1343.7914890370871
 11
2086.0065760481648
 21
1343.7914890370871
  0
LINE
  8
_0-1_レイヤ___1
  6
CONTINUOUS
 62
    7
 10
2090.2405960481647
 20
1343.7914890370871
 11
2090.8744960481645
 21
1343.7914890370871
  0
LINE
  8
_0-1_レイヤ___1
  6
CONTINUOUS
 62
    7
 10
2090.8744960481645
 20
1343.7914890370871
 11
2091.5083960481647
 21
1343.7914890370871
  0
LINE
  8
_0-1_レイヤ___1
  6
CONTINUOUS
 62
    7
 10
2094.4711760481646
 20
1343.7914890370871
 11
2095.1050760481648
 21
1343.7914890370871
  0
LINE
  8
_0-1_レイヤ___1
  6
CONTINUOUS
 62
    7
 10
2095.1050760481648
 20
1343.7914890370871
 11
2095.7424160481646
 21
1343.7914890370871
  0
LINE
  8
_0-1_レイヤ___1
  6
CONTINUOUS
 62
    7
 10
2098.7051960481649
 20
1343.7914890370871
 11
2105.0545060481645
 21
1343.7914890370871
  0
LINE
  8
_0-1_レイヤ___1
  6
CONTINUOUS
 62
    7
 10
2105.0545060481645
 20
1343.7914890370871
 11
2111.4072660481647
 21
1343.7914890370871
  0
LINE
  8
_0-1_レイヤ___1
  6
CONTINUOUS
 62
    7
 10
2115.6378360481649
 20
1343.7914890370871
 11
2116.2717360481647
 21
1343.7914890370871
  0
LINE
  8
_0-1_レイヤ___1
  6
CONTINUOUS
 62
    7
 10
2116.2717360481647
 20
1343.7914890370871
 11
2116.9090760481649
 21
1343.7914890370871
  0
LINE
  8
_0-1_レイヤ___1
  6
CONTINUOUS
 62
    7
 10
2119.871866048165
 20
1343.7914890370871
 11
2120.5092060481647
 21
1343.7914890370871
  0
LINE
  8
_0-1_レイヤ___1
  6
CONTINUOUS
 62
    7
 10
2120.5092060481647
 20
1343.7914890370871
 11
2121.143106048165
 21
1343.7914890370871
  0
LINE
  8
_0-1_レイヤ___1
  6
CONTINUOUS
 62
    7
 10
2124.1058860481648
 20
1343.7914890370871
 11
2130.4551960481649
 21
1343.7914890370871
  0
LINE
  8
_0-1_レイヤ___1
  6
CONTINUOUS
 62
    7
 10
2130.4551960481649
 20
1343.7914890370871
 11
2136.804506048165
 21
1343.7914890370871
  0
LINE
  8
_0-1_レイヤ___1
  6
CONTINUOUS
 62
    7
 10
2141.0385260481648
 20
1343.7914890370871
 11
2141.6758760481648
 21
1343.7914890370871
  0
LINE
  8
_0-1_レイヤ___1
  6
CONTINUOUS
 62
    7
 10
2141.6758760481648
 20
1343.7914890370871
 11
2142.3097660481649
 21
1343.7914890370871
  0
LINE
  8
_0-1_レイヤ___1
  6
CONTINUOUS
 62
    7
 10
2145.2725560481649
 20
1343.7914890370871
 11
2145.906446048165
 21
1343.7914890370871
  0
LINE
  8
_0-1_レイヤ___1
  6
CONTINUOUS
 62
    7
 10
2145.906446048165
 20
1343.7914890370871
 11
2146.5437960481649
 21
1343.7914890370871
  0
LINE
  8
_0-1_レイヤ___1
  6
CONTINUOUS
 62
    7
 10
2147.3878360481649
 20
1343.7914890370871
 11
2147.8115860481648
 21
1343.7914890370871
  0
LINE
  8
_0-1_レイヤ___1
  6
CONTINUOUS
 62
    7
 10
2147.8115860481648
 20
1343.7914890370871
 11
2148.2353360481648
 21
1343.7914890370871
  0
LINE
  8
_0-1_レイヤ___1
  6
CONTINUOUS
 62
    7
 10
2230.3629660481647
 20
1343.579619037087
 11
2225.2194360481649
 21
1355.9957390370871
  0
LINE
  8
_0-1_レイヤ___1
  6
CONTINUOUS
 62
    7
 10
2225.2194360481649
 20
1355.9957390370871
 11
2212.7929760481647
 21
1361.1478790370873
  0
LINE
  8
_0-1_レイヤ___1
  6
CONTINUOUS
 62
    7
 10
2212.7929760481647
 20
1361.1478790370873
 11
2200.3699660481648
 21
1355.9957390370871
  0
LINE
  8
_0-1_レイヤ___1
  6
CONTINUOUS
 62
    7
 10
2200.3699660481648
 20
1355.9957390370871
 11
2195.2264360481649
 21
1343.579619037087
  0
LINE
  8
_0-1_レイヤ___1
  6
CONTINUOUS
 62
    7
 10
2195.2264360481649
 20
1343.579619037087
 11
2200.3699660481648
 21
1331.1634990370871
  0
LINE
  8
_0-1_レイヤ___1
  6
CONTINUOUS
 62
    7
 10
2200.3699660481648
 20
1331.1634990370871
 11
2212.7929760481647
 21
1326.0113590370872
  0
LINE
  8
_0-1_レイヤ___1
  6
CONTINUOUS
 62
    7
 10
2212.7929760481647
 20
1326.0113590370872
 11
2225.2194360481649
 21
1331.1634990370871
  0
LINE
  8
_0-1_レイヤ___1
  6
CONTINUOUS
 62
    7
 10
2225.2194360481649
 20
1331.1634990370871
 11
2230.3629660481647
 21
1343.579619037087
  0
LINE
  8
_0-1_レイヤ___1
  6
CONTINUOUS
 62
    7
 10
2213.0065760481648
 20
1381.0450290370873
 11
2213.0065760481648
 21
1374.6957190370872
  0
LINE
  8
_0-1_レイヤ___1
  6
CONTINUOUS
 62
    7
 10
2213.0065760481648
 20
1374.6957190370872
 11
2213.0065760481648
 21
1368.3446890370872
  0
LINE
  8
_0-1_レイヤ___1
  6
CONTINUOUS
 62
    7
 10
2213.0065760481648
 20
1364.1106690370873
 11
2213.0065760481648
 21
1363.475049037087
  0
LINE
  8
_0-1_レイヤ___1
  6
CONTINUOUS
 62
    7
 10
2213.0065760481648
 20
1363.475049037087
 11
2213.0065760481648
 21
1362.8411490370872
  0
LINE
  8
_0-1_レイヤ___1
  6
CONTINUOUS
 62
    7
 10
2213.0065760481648
 20
1359.8783690370872
 11
2213.0065760481648
 21
1359.2427490370872
  0
LINE
  8
_0-1_レイヤ___1
  6
CONTINUOUS
 62
    7
 10
2213.0065760481648
 20
1359.2427490370872
 11
2213.0065760481648
 21
1358.6071290370874
  0
LINE
  8
_0-1_レイヤ___1
  6
CONTINUOUS
 62
    7
 10
2213.0065760481648
 20
1355.6443390370873
 11
2213.0065760481648
 21
1349.295029037087
  0
LINE
  8
_0-1_レイヤ___1
  6
CONTINUOUS
 62
    7
 10
2213.0065760481648
 20
1349.295029037087
 11
2213.0065760481648
 21
1342.9439990370872
  0
LINE
  8
_0-1_レイヤ___1
  6
CONTINUOUS
 62
    7
 10
2213.0065760481648
 20
1338.7116990370873
 11
2213.0065760481648
 21
1338.0760790370871
  0
LINE
  8
_0-1_レイヤ___1
  6
CONTINUOUS
 62
    7
 10
2213.0065760481648
 20
1338.0760790370871
 11
2213.0065760481648
 21
1337.4404590370873
  0
LINE
  8
_0-1_レイヤ___1
  6
CONTINUOUS
 62
    7
 10
2213.0065760481648
 20
1334.4776790370872
 11
2213.0065760481648
 21
1333.8437790370872
  0
LINE
  8
_0-1_レイヤ___1
  6
CONTINUOUS
 62
    7
 10
2213.0065760481648
 20
1333.8437790370872
 11
2213.0065760481648
 21
1333.2081590370874
  0
LINE
  8
_0-1_レイヤ___1
  6
CONTINUOUS
 62
    7
 10
2213.0065760481648
 20
1330.2453790370873
 11
2213.0065760481648
 21
1323.8943390370873
  0
LINE
  8
_0-1_レイヤ___1
  6
CONTINUOUS
 62
    7
 10
2213.0065760481648
 20
1323.8943390370873
 11
2213.0065760481648
 21
1317.5450290370873
  0
LINE
  8
_0-1_レイヤ___1
  6
CONTINUOUS
 62
    7
 10
2213.0065760481648
 20
1313.3110090370872
 11
2213.0065760481648
 21
1312.6771090370871
  0
LINE
  8
_0-1_レイヤ___1
  6
CONTINUOUS
 62
    7
 10
2213.0065760481648
 20
1312.6771090370871
 11
2213.0065760481648
 21
1312.0414890370873
  0
LINE
  8
_0-1_レイヤ___1
  6
CONTINUOUS
 62
    7
 10
2213.0065760481648
 20
1309.0787090370873
 11
2213.0065760481648
 21
1308.443089037087
  0
LINE
  8
_0-1_レイヤ___1
  6
CONTINUOUS
 62
    7
 10
2213.0065760481648
 20
1308.443089037087
 11
2213.0065760481648
 21
1307.8074690370872
  0
LINE
  8
_0-1_レイヤ___1
  6
CONTINUOUS
 62
    7
 10
2213.0065760481648
 20
1306.9616990370873
 11
2213.0065760481648
 21
1306.5379490370874
  0
LINE
  8
_0-1_レイヤ___1
  6
CONTINUOUS
 62
    7
 10
2213.0065760481648
 20
1306.5379490370874
 11
2213.0065760481648
 21
1306.1142090370872
  0
LINE
  8
_0-1_レイヤ___1
  6
CONTINUOUS
 62
    7
 10
2175.327566048165
 20
1343.7914890370871
 11
2181.680316048165
 21
1343.7914890370871
  0
LINE
  8
_0-1_レイヤ___1
  6
CONTINUOUS
 62
    7
 10
2181.680316048165
 20
1343.7914890370871
 11
2188.0296360481648
 21
1343.7914890370871
  0
LINE
  8
_0-1_レイヤ___1
  6
CONTINUOUS
 62
    7
 10
2192.2636560481651
 20
1343.7914890370871
 11
2192.8975560481649
 21
1343.7914890370871
  0
LINE
  8
_0-1_レイヤ___1
  6
CONTINUOUS
 62
    7
 10
2192.8975560481649
 20
1343.7914890370871
 11
2193.531446048165
 21
1343.7914890370871
  0
LINE
  8
_0-1_レイヤ___1
  6
CONTINUOUS
 62
    7
 10
2196.494236048165
 20
1343.7914890370871
 11
2197.1281260481651
 21
1343.7914890370871
  0
LINE
  8
_0-1_レイヤ___1
  6
CONTINUOUS
 62
    7
 10
2197.1281260481651
 20
1343.7914890370871
 11
2197.7654760481646
 21
1343.7914890370871
  0
LINE
  8
_0-1_レイヤ___1
  6
CONTINUOUS
 62
    7
 10
2200.7282560481649
 20
1343.7914890370871
 11
2207.077566048165
 21
1343.7914890370871
  0
LINE
  8
_0-1_レイヤ___1
  6
CONTINUOUS
 62
    7
 10
2207.077566048165
 20
1343.7914890370871
 11
2213.430316048165
 21
1343.7914890370871
  0
LINE
  8
_0-1_レイヤ___1
  6
CONTINUOUS
 62
    7
 10
2217.6608960481649
 20
1343.7914890370871
 11
2218.2947960481647
 21
1343.7914890370871
  0
LINE
  8
_0-1_レイヤ___1
  6
CONTINUOUS
 62
    7
 10
2218.2947960481647
 20
1343.7914890370871
 11
2218.9321360481649
 21
1343.7914890370871
  0
LINE
  8
_0-1_レイヤ___1
  6
CONTINUOUS
 62
    7
 10
2221.8949160481648
 20
1343.7914890370871
 11
2222.5322660481647
 21
1343.7914890370871
  0
LINE
  8
_0-1_レイヤ___1
  6
CONTINUOUS
 62
    7
 10
2222.5322660481647
 20
1343.7914890370871
 11
2223.1661560481648
 21
1343.7914890370871
  0
LINE
  8
_0-1_レイヤ___1
  6
CONTINUOUS
 62
    7
 10
2226.1289460481648
 20
1343.7914890370871
 11
2232.4782560481649
 21
1343.7914890370871
  0
LINE
  8
_0-1_レイヤ___1
  6
CONTINUOUS
 62
    7
 10
2232.4782560481649
 20
1343.7914890370871
 11
2238.827566048165
 21
1343.7914890370871
  0
LINE
  8
_0-1_レイヤ___1
  6
CONTINUOUS
 62
    7
 10
2243.0615860481648
 20
1343.7914890370871
 11
2243.6989260481646
 21
1343.7914890370871
  0
LINE
  8
_0-1_レイヤ___1
  6
CONTINUOUS
 62
    7
 10
2243.6989260481646
 20
1343.7914890370871
 11
2244.3328260481649
 21
1343.7914890370871
  0
LINE
  8
_0-1_レイヤ___1
  6
CONTINUOUS
 62
    7
 10
2247.2956060481647
 20
1343.7914890370871
 11
2247.9295060481645
 21
1343.7914890370871
  0
LINE
  8
_0-1_レイヤ___1
  6
CONTINUOUS
 62
    7
 10
2247.9295060481645
 20
1343.7914890370871
 11
2248.5668460481647
 21
1343.7914890370871
  0
LINE
  8
_0-1_レイヤ___1
  6
CONTINUOUS
 62
    7
 10
2249.4108960481649
 20
1343.7914890370871
 11
2249.8346460481648
 21
1343.7914890370871
  0
LINE
  8
_0-1_レイヤ___1
  6
CONTINUOUS
 62
    7
 10
2249.8346460481648
 20
1343.7914890370871
 11
2250.2583960481647
 21
1343.7914890370871
  0
LINE
  8
_0-1_レイヤ___1
  6
CONTINUOUS
 62
    7
 10
2332.3860260481651
 20
1343.579619037087
 11
2327.2424960481649
 21
1355.9957390370871
  0
LINE
  8
_0-1_レイヤ___1
  6
CONTINUOUS
 62
    7
 10
2327.2424960481649
 20
1355.9957390370871
 11
2314.8160360481647
 21
1361.1478790370873
  0
LINE
  8
_0-1_レイヤ___1
  6
CONTINUOUS
 62
    7
 10
2314.8160360481647
 20
1361.1478790370873
 11
2302.3930260481648
 21
1355.9957390370871
  0
LINE
  8
_0-1_レイヤ___1
  6
CONTINUOUS
 62
    7
 10
2302.3930260481648
 20
1355.9957390370871
 11
2297.2494960481649
 21
1343.579619037087
  0
LINE
  8
_0-1_レイヤ___1
  6
CONTINUOUS
 62
    7
 10
2297.2494960481649
 20
1343.579619037087
 11
2302.3930260481648
 21
1331.1634990370871
  0
LINE
  8
_0-1_レイヤ___1
  6
CONTINUOUS
 62
    7
 10
2302.3930260481648
 20
1331.1634990370871
 11
2314.8160360481647
 21
1326.0113590370872
  0
LINE
  8
_0-1_レイヤ___1
  6
CONTINUOUS
 62
    7
 10
2314.8160360481647
 20
1326.0113590370872
 11
2327.2424960481649
 21
1331.1634990370871
  0
LINE
  8
_0-1_レイヤ___1
  6
CONTINUOUS
 62
    7
 10
2327.2424960481649
 20
1331.1634990370871
 11
2332.3860260481651
 21
1343.579619037087
  0
LINE
  8
_0-1_レイヤ___1
  6
CONTINUOUS
 62
    7
 10
2314.6058860481648
 20
1381.0450290370873
 11
2314.6058860481648
 21
1374.6957190370872
  0
LINE
  8
_0-1_レイヤ___1
  6
CONTINUOUS
 62
    7
 10
2314.6058860481648
 20
1374.6957190370872
 11
2314.6058860481648
 21
1368.3446890370872
  0
LINE
  8
_0-1_レイヤ___1
  6
CONTINUOUS
 62
    7
 10
2314.6058860481648
 20
1364.1106690370873
 11
2314.6058860481648
 21
1363.475049037087
  0
LINE
  8
_0-1_レイヤ___1
  6
CONTINUOUS
 62
    7
 10
2314.6058860481648
 20
1363.475049037087
 11
2314.6058860481648
 21
1362.8411490370872
  0
LINE
  8
_0-1_レイヤ___1
  6
CONTINUOUS
 62
    7
 10
2314.6058860481648
 20
1359.8783690370872
 11
2314.6058860481648
 21
1359.2427490370872
  0
LINE
  8
_0-1_レイヤ___1
  6
CONTINUOUS
 62
    7
 10
2314.6058860481648
 20
1359.2427490370872
 11
2314.6058860481648
 21
1358.6071290370874
  0
LINE
  8
_0-1_レイヤ___1
  6
CONTINUOUS
 62
    7
 10
2314.6058860481648
 20
1355.6443390370873
 11
2314.6058860481648
 21
1349.295029037087
  0
LINE
  8
_0-1_レイヤ___1
  6
CONTINUOUS
 62
    7
 10
2314.6058860481648
 20
1349.295029037087
 11
2314.6058860481648
 21
1342.9439990370872
  0
LINE
  8
_0-1_レイヤ___1
  6
CONTINUOUS
 62
    7
 10
2314.6058860481648
 20
1338.7116990370873
 11
2314.6058860481648
 21
1338.0760790370871
  0
LINE
  8
_0-1_レイヤ___1
  6
CONTINUOUS
 62
    7
 10
2314.6058860481648
 20
1338.0760790370871
 11
2314.6058860481648
 21
1337.4404590370873
  0
LINE
  8
_0-1_レイヤ___1
  6
CONTINUOUS
 62
    7
 10
2314.6058860481648
 20
1334.4776790370872
 11
2314.6058860481648
 21
1333.8437790370872
  0
LINE
  8
_0-1_レイヤ___1
  6
CONTINUOUS
 62
    7
 10
2314.6058860481648
 20
1333.8437790370872
 11
2314.6058860481648
 21
1333.2081590370874
  0
LINE
  8
_0-1_レイヤ___1
  6
CONTINUOUS
 62
    7
 10
2314.6058860481648
 20
1330.2453790370873
 11
2314.6058860481648
 21
1323.8943390370873
  0
LINE
  8
_0-1_レイヤ___1
  6
CONTINUOUS
 62
    7
 10
2314.6058860481648
 20
1323.8943390370873
 11
2314.6058860481648
 21
1317.5450290370873
  0
LINE
  8
_0-1_レイヤ___1
  6
CONTINUOUS
 62
    7
 10
2314.6058860481648
 20
1313.3110090370872
 11
2314.6058860481648
 21
1312.6771090370871
  0
LINE
  8
_0-1_レイヤ___1
  6
CONTINUOUS
 62
    7
 10
2314.6058860481648
 20
1312.6771090370871
 11
2314.6058860481648
 21
1312.0414890370873
  0
LINE
  8
_0-1_レイヤ___1
  6
CONTINUOUS
 62
    7
 10
2314.6058860481648
 20
1309.0787090370873
 11
2314.6058860481648
 21
1308.443089037087
  0
LINE
  8
_0-1_レイヤ___1
  6
CONTINUOUS
 62
    7
 10
2314.6058860481648
 20
1308.443089037087
 11
2314.6058860481648
 21
1307.8074690370872
  0
LINE
  8
_0-1_レイヤ___1
  6
CONTINUOUS
 62
    7
 10
2314.6058860481648
 20
1306.9616990370873
 11
2314.6058860481648
 21
1306.5379490370874
  0
LINE
  8
_0-1_レイヤ___1
  6
CONTINUOUS
 62
    7
 10
2314.6058860481648
 20
1306.5379490370874
 11
2314.6058860481648
 21
1306.1142090370872
  0
LINE
  8
_0-1_レイヤ___1
  6
CONTINUOUS
 62
    7
 10
2277.3506260481649
 20
1343.7914890370871
 11
2283.703376048165
 21
1343.7914890370871
  0
LINE
  8
_0-1_レイヤ___1
  6
CONTINUOUS
 62
    7
 10
2283.703376048165
 20
1343.7914890370871
 11
2290.052686048165
 21
1343.7914890370871
  0
LINE
  8
_0-1_レイヤ___1
  6
CONTINUOUS
 62
    7
 10
2294.2867160481646
 20
1343.7914890370871
 11
2294.9206060481647
 21
1343.7914890370871
  0
LINE
  8
_0-1_レイヤ___1
  6
CONTINUOUS
 62
    7
 10
2294.9206060481647
 20
1343.7914890370871
 11
2295.554506048165
 21
1343.7914890370871
  0
LINE
  8
_0-1_レイヤ___1
  6
CONTINUOUS
 62
    7
 10
2298.5172860481648
 20
1343.7914890370871
 11
2299.1511860481651
 21
1343.7914890370871
  0
LINE
  8
_0-1_レイヤ___1
  6
CONTINUOUS
 62
    7
 10
2299.1511860481651
 20
1343.7914890370871
 11
2299.7885260481648
 21
1343.7914890370871
  0
LINE
  8
_0-1_レイヤ___1
  6
CONTINUOUS
 62
    7
 10
2302.7513160481649
 20
1343.7914890370871
 11
2309.1006260481649
 21
1343.7914890370871
  0
LINE
  8
_0-1_レイヤ___1
  6
CONTINUOUS
 62
    7
 10
2309.1006260481649
 20
1343.7914890370871
 11
2315.453376048165
 21
1343.7914890370871
  0
LINE
  8
_0-1_レイヤ___1
  6
CONTINUOUS
 62
    7
 10
2319.6839560481649
 20
1343.7914890370871
 11
2320.3178560481647
 21
1343.7914890370871
  0
LINE
  8
_0-1_レイヤ___1
  6
CONTINUOUS
 62
    7
 10
2320.3178560481647
 20
1343.7914890370871
 11
2320.9551960481649
 21
1343.7914890370871
  0
LINE
  8
_0-1_レイヤ___1
  6
CONTINUOUS
 62
    7
 10
2323.9179760481647
 20
1343.7914890370871
 11
2324.555316048165
 21
1343.7914890370871
  0
LINE
  8
_0-1_レイヤ___1
  6
CONTINUOUS
 62
    7
 10
2324.555316048165
 20
1343.7914890370871
 11
2325.1892160481648
 21
1343.7914890370871
  0
LINE
  8
_0-1_レイヤ___1
  6
CONTINUOUS
 62
    7
 10
2328.1519960481646
 20
1343.7914890370871
 11
2334.5013160481649
 21
1343.7914890370871
  0
LINE
  8
_0-1_レイヤ___1
  6
CONTINUOUS
 62
    7
 10
2334.5013160481649
 20
1343.7914890370871
 11
2340.8506260481645
 21
1343.7914890370871
  0
LINE
  8
_0-1_レイヤ___1
  6
CONTINUOUS
 62
    7
 10
2345.0846460481648
 20
1343.7914890370871
 11
2345.721986048165
 21
1343.7914890370871
  0
LINE
  8
_0-1_レイヤ___1
  6
CONTINUOUS
 62
    7
 10
2345.721986048165
 20
1343.7914890370871
 11
2346.3558860481648
 21
1343.7914890370871
  0
LINE
  8
_0-1_レイヤ___1
  6
CONTINUOUS
 62
    7
 10
2349.3186660481651
 20
1343.7914890370871
 11
2349.952566048165
 21
1343.7914890370871
  0
LINE
  8
_0-1_レイヤ___1
  6
CONTINUOUS
 62
    7
 10
2349.952566048165
 20
1343.7914890370871
 11
2350.5899060481647
 21
1343.7914890370871
  0
LINE
  8
_0-1_レイヤ___1
  6
CONTINUOUS
 62
    7
 10
2351.4339560481649
 20
1343.7914890370871
 11
2351.8577060481648
 21
1343.7914890370871
  0
LINE
  8
_0-1_レイヤ___1
  6
CONTINUOUS
 62
    7
 10
2351.8577060481648
 20
1343.7914890370871
 11
2352.281446048165
 21
1343.7914890370871
  0
LINE
  8
_0-1_レイヤ___1
  6
CONTINUOUS
 62
    7
 10
1793.4835160481648
 20
1637.5840690370874
 11
1793.4835160481648
 21
1695.5805290370872
  0
LINE
  8
_0-1_レイヤ___1
  6
CONTINUOUS
 62
    7
 10
1793.4835160481648
 20
1695.5805290370872
 11
1793.4835160481648
 21
1753.5769890370873
  0
LINE
  8
_0-1_レイヤ___1
  6
CONTINUOUS
 62
    7
 10
1793.4835160481648
 20
1753.5769890370873
 11
1793.6936660481649
 21
1757.387259037087
  0
LINE
  8
_0-1_レイヤ___1
  6
CONTINUOUS
 62
    7
 10
1793.6936660481649
 20
1757.387259037087
 11
1793.9072660481647
 21
1761.1975390370872
  0
LINE
  8
_0-1_レイヤ___1
  6
CONTINUOUS
 62
    7
 10
1793.9072660481647
 20
1761.1975390370872
 11
1795.1750560481648
 21
1764.7959390370872
  0
LINE
  8
_0-1_レイヤ___1
  6
CONTINUOUS
 62
    7
 10
1795.1750560481648
 20
1764.7959390370872
 11
1796.4462960481649
 21
1768.3943390370871
  0
LINE
  8
_0-1_レイヤ___1
  6
CONTINUOUS
 62
    7
 10
1796.4462960481649
 20
1768.3943390370871
 11
1798.1378360481649
 21
1771.7808690370873
  0
LINE
  8
_0-1_レイヤ___1
  6
CONTINUOUS
 62
    7
 10
1798.1378360481649
 20
1771.7808690370873
 11
1799.8328260481649
 21
1775.1673990370873
  0
LINE
  8
_0-1_レイヤ___1
  6
CONTINUOUS
 62
    7
 10
1799.8328260481649
 20
1775.1673990370873
 11
1802.371866048165
 21
1778.1301790370871
  0
LINE
  8
_0-1_レイヤ___1
  6
CONTINUOUS
 62
    7
 10
1802.371866048165
 20
1778.1301790370871
 11
1804.9108960481649
 21
1781.0946890370872
  0
LINE
  8
_0-1_レイヤ___1
  6
CONTINUOUS
 62
    7
 10
1804.9108960481649
 20
1781.0946890370872
 11
1807.873676048165
 21
1783.6354490370873
  0
LINE
  8
_0-1_レイヤ___1
  6
CONTINUOUS
 62
    7
 10
1807.873676048165
 20
1783.6354490370873
 11
1810.8399060481647
 21
1786.1744790370872
  0
LINE
  8
_0-1_レイヤ___1
  6
CONTINUOUS
 62
    7
 10
1810.8399060481647
 20
1786.1744790370872
 11
1814.2264360481647
 21
1787.8677490370874
  0
LINE
  8
_0-1_レイヤ___1
  6
CONTINUOUS
 62
    7
 10
1814.2264360481647
 20
1787.8677490370874
 11
1817.6129660481649
 21
1789.5610090370872
  0
LINE
  8
_0-1_レイヤ___1
  6
CONTINUOUS
 62
    7
 10
1817.6129660481649
 20
1789.5610090370872
 11
1821.2130860481648
 21
1790.6186490370872
  0
LINE
  8
_0-1_レイヤ___1
  6
CONTINUOUS
 62
    7
 10
1821.2130860481648
 20
1790.6186490370872
 11
1824.8097660481649
 21
1791.6780190370873
  0
LINE
  8
_0-1_レイヤ___1
  6
CONTINUOUS
 62
    7
 10
1824.8097660481649
 20
1791.6780190370873
 11
1828.620046048165
 21
1792.1000490370873
  0
LINE
  8
_0-1_レイヤ___1
  6
CONTINUOUS
 62
    7
 10
1828.620046048165
 20
1792.1000490370873
 11
1832.4303160481647
 21
1792.5237890370872
  0
LINE
  8
_0-1_レイヤ___1
  6
CONTINUOUS
 62
    7
 10
1832.4303160481647
 20
1792.5237890370872
 11
2110.7733660481649
 21
1792.5237890370872
  0
LINE
  8
_0-1_レイヤ___1
  6
CONTINUOUS
 62
    7
 10
2110.7733660481649
 20
1792.5237890370872
 11
2389.1129660481652
 21
1792.5237890370872
  0
LINE
  8
_0-1_レイヤ___1
  6
CONTINUOUS
 62
    7
 10
2389.1129660481652
 20
1792.5237890370872
 11
2392.9232360481647
 21
1792.1000490370873
  0
LINE
  8
_0-1_レイヤ___1
  6
CONTINUOUS
 62
    7
 10
2392.9232360481647
 20
1792.1000490370873
 11
2396.7335160481648
 21
1791.6780190370873
  0
LINE
  8
_0-1_レイヤ___1
  6
CONTINUOUS
 62
    7
 10
2396.7335160481648
 20
1791.6780190370873
 11
2400.3336460481646
 21
1790.6186490370872
  0
LINE
  8
_0-1_レイヤ___1
  6
CONTINUOUS
 62
    7
 10
2400.3336460481646
 20
1790.6186490370872
 11
2403.9303160481645
 21
1789.5610090370872
  0
LINE
  8
_0-1_レイヤ___1
  6
CONTINUOUS
 62
    7
 10
2403.9303160481645
 20
1789.5610090370872
 11
2407.3168460481647
 21
1787.8677490370874
  0
LINE
  8
_0-1_レイヤ___1
  6
CONTINUOUS
 62
    7
 10
2407.3168460481647
 20
1787.8677490370874
 11
2410.703376048165
 21
1786.1744790370872
  0
LINE
  8
_0-1_レイヤ___1
  6
CONTINUOUS
 62
    7
 10
2410.703376048165
 20
1786.1744790370872
 11
2413.6661560481648
 21
1783.6354490370873
  0
LINE
  8
_0-1_レイヤ___1
  6
CONTINUOUS
 62
    7
 10
2413.6661560481648
 20
1783.6354490370873
 11
2416.6289460481648
 21
1781.0946890370872
  0
LINE
  8
_0-1_レイヤ___1
  6
CONTINUOUS
 62
    7
 10
2416.6289460481648
 20
1781.0946890370872
 11
2419.1714260481644
 21
1778.1301790370871
  0
LINE
  8
_0-1_レイヤ___1
  6
CONTINUOUS
 62
    7
 10
2419.1714260481644
 20
1778.1301790370871
 11
2421.7104560481648
 21
1775.1673990370873
  0
LINE
  8
_0-1_レイヤ___1
  6
CONTINUOUS
 62
    7
 10
2421.7104560481648
 20
1775.1673990370873
 11
2423.6155960481651
 21
1771.7808690370873
  0
LINE
  8
_0-1_レイヤ___1
  6
CONTINUOUS
 62
    7
 10
2423.6155960481651
 20
1771.7808690370873
 11
2425.5172860481648
 21
1768.3943390370871
  0
LINE
  8
_0-1_レイヤ___1
  6
CONTINUOUS
 62
    7
 10
2425.5172860481648
 20
1768.3943390370871
 11
2426.578376048165
 21
1764.7959390370872
  0
LINE
  8
_0-1_レイヤ___1
  6
CONTINUOUS
 62
    7
 10
2426.578376048165
 20
1764.7959390370872
 11
2427.6360260481651
 21
1761.1975390370872
  0
LINE
  8
_0-1_レイヤ___1
  6
CONTINUOUS
 62
    7
 10
2427.6360260481651
 20
1761.1975390370872
 11
2428.0597660481649
 21
1757.387259037087
  0
LINE
  8
_0-1_レイヤ___1
  6
CONTINUOUS
 62
    7
 10
2428.0597660481649
 20
1757.387259037087
 11
2428.4835160481648
 21
1753.5769890370873
  0
LINE
  8
_0-1_レイヤ___1
  6
CONTINUOUS
 62
    7
 10
2428.4835160481648
 20
1753.5769890370873
 11
2428.4835160481648
 21
1695.5805290370872
  0
LINE
  8
_0-1_レイヤ___1
  6
CONTINUOUS
 62
    7
 10
2428.4835160481648
 20
1695.5805290370872
 11
2428.4835160481648
 21
1637.5840690370874
  0
LINE
  8
_0-1_レイヤ___1
  6
CONTINUOUS
 62
    7
 10
1840.0474260481647
 20
1637.5840690370874
 11
1840.0474260481647
 21
1660.0219790370872
  0
LINE
  8
_0-1_レイヤ___1
  6
CONTINUOUS
 62
    7
 10
1840.0474260481647
 20
1660.0219790370872
 11
1840.0474260481647
 21
1682.4581590370872
  0
LINE
  8
_0-1_レイヤ___1
  6
CONTINUOUS
 62
    7
 10
1840.0474260481647
 20
1682.4581590370872
 11
1840.2575760481648
 21
1685.6328190370871
  0
LINE
  8
_0-1_レイヤ___1
  6
CONTINUOUS
 62
    7
 10
1840.2575760481648
 20
1685.6328190370871
 11
1840.471176048165
 21
1688.8074690370872
  0
LINE
  8
_0-1_レイヤ___1
  6
CONTINUOUS
 62
    7
 10
1840.471176048165
 20
1688.8074690370872
 11
1840.8949160481648
 21
1691.7719790370872
  0
LINE
  8
_0-1_レイヤ___1
  6
CONTINUOUS
 62
    7
 10
1840.8949160481648
 20
1691.7719790370872
 11
1841.3186660481647
 21
1694.7347590370873
  0
LINE
  8
_0-1_レイヤ___1
  6
CONTINUOUS
 62
    7
 10
1841.3186660481647
 20
1694.7347590370873
 11
1841.9525660481647
 21
1697.9094090370872
  0
LINE
  8
_0-1_レイヤ___1
  6
CONTINUOUS
 62
    7
 10
1841.9525660481647
 20
1697.9094090370872
 11
1842.5899060481649
 21
1701.0840690370874
  0
LINE
  8
_0-1_レイヤ___1
  6
CONTINUOUS
 62
    7
 10
1842.5899060481649
 20
1701.0840690370874
 11
1843.6475560481649
 21
1704.0468490370872
  0
LINE
  8
_0-1_レイヤ___1
  6
CONTINUOUS
 62
    7
 10
1843.6475560481649
 20
1704.0468490370872
 11
1844.7051960481647
 21
1707.0113590370872
  0
LINE
  8
_0-1_レイヤ___1
  6
CONTINUOUS
 62
    7
 10
1844.7051960481647
 20
1707.0113590370872
 11
1846.1865860481648
 21
1709.7622590370872
  0
LINE
  8
_0-1_レイヤ___1
  6
CONTINUOUS
 62
    7
 10
1846.1865860481648
 20
1709.7622590370872
 11
1847.6679760481647
 21
1712.5148990370872
  0
LINE
  8
_0-1_レイヤ___1
  6
CONTINUOUS
 62
    7
 10
1847.6679760481647
 20
1712.5148990370872
 11
1849.1493660481649
 21
1715.0539290370873
  0
LINE
  8
_0-1_レイヤ___1
  6
CONTINUOUS
 62
    7
 10
1849.1493660481649
 20
1715.0539290370873
 11
1850.6307560481648
 21
1717.5946890370872
  0
LINE
  8
_0-1_レイヤ___1
  6
CONTINUOUS
 62
    7
 10
1850.6307560481648
 20
1717.5946890370872
 11
1852.5358960481649
 21
1720.1354490370873
  0
LINE
  8
_0-1_レイヤ___1
  6
CONTINUOUS
 62
    7
 10
1852.5358960481649
 20
1720.1354490370873
 11
1854.441036048165
 21
1722.6744790370872
  0
LINE
  8
_0-1_レイヤ___1
  6
CONTINUOUS
 62
    7
 10
1854.441036048165
 20
1722.6744790370872
 11
1856.5597660481649
 21
1725.0033690370874
  0
LINE
  8
_0-1_レイヤ___1
  6
CONTINUOUS
 62
    7
 10
1856.5597660481649
 20
1725.0033690370874
 11
1858.6750560481646
 21
1727.3305290370872
  0
LINE
  8
_0-1_レイヤ___1
  6
CONTINUOUS
 62
    7
 10
1858.6750560481646
 20
1727.3305290370872
 11
1861.0039460481648
 21
1729.4475390370872
  0
LINE
  8
_0-1_レイヤ___1
  6
CONTINUOUS
 62
    7
 10
1861.0039460481648
 20
1729.4475390370872
 11
1863.3328260481649
 21
1731.5645490370871
  0
LINE
  8
_0-1_レイヤ___1
  6
CONTINUOUS
 62
    7
 10
1863.3328260481649
 20
1731.5645490370871
 11
1865.6617160481646
 21
1733.4696890370874
  0
LINE
  8
_0-1_レイヤ___1
  6
CONTINUOUS
 62
    7
 10
1865.6617160481646
 20
1733.4696890370874
 11
1867.9905960481647
 21
1735.374829037087
  0
LINE
  8
_0-1_レイヤ___1
  6
CONTINUOUS
 62
    7
 10
1867.9905960481647
 20
1735.374829037087
 11
1870.7397860481649
 21
1736.8562190370872
  0
LINE
  8
_0-1_レイヤ___1
  6
CONTINUOUS
 62
    7
 10
1870.7397860481649
 20
1736.8562190370872
 11
1873.4924160481648
 21
1738.3376090370871
  0
LINE
  8
_0-1_レイヤ___1
  6
CONTINUOUS
 62
    7
 10
1873.4924160481648
 20
1738.3376090370871
 11
1876.2450460481648
 21
1739.6071290370874
  0
LINE
  8
_0-1_レイヤ___1
  6
CONTINUOUS
 62
    7
 10
1876.2450460481648
 20
1739.6071290370874
 11
1878.994236048165
 21
1740.8783690370874
  0
LINE
  8
_0-1_レイヤ___1
  6
CONTINUOUS
 62
    7
 10
1878.994236048165
 20
1740.8783690370874
 11
1881.9570160481649
 21
1741.9360090370874
  0
LINE
  8
_0-1_レイヤ___1
  6
CONTINUOUS
 62
    7
 10
1881.9570160481649
 20
1741.9360090370874
 11
1884.9232360481647
 21
1742.9936490370872
  0
LINE
  8
_0-1_レイヤ___1
  6
CONTINUOUS
 62
    7
 10
1884.9232360481647
 20
1742.9936490370872
 11
1887.8860260481647
 21
1743.841149037087
  0
LINE
  8
_0-1_レイヤ___1
  6
CONTINUOUS
 62
    7
 10
1887.8860260481647
 20
1743.841149037087
 11
1890.8488060481648
 21
1744.6886390370873
  0
LINE
  8
_0-1_レイヤ___1
  6
CONTINUOUS
 62
    7
 10
1890.8488060481648
 20
1744.6886390370873
 11
1894.0217360481647
 21
1745.1123890370873
  0
LINE
  8
_0-1_レイヤ___1
  6
CONTINUOUS
 62
    7
 10
1894.0217360481647
 20
1745.1123890370873
 11
1897.1981160481646
 21
1745.5344090370872
  0
LINE
  8
_0-1_レイヤ___1
  6
CONTINUOUS
 62
    7
 10
1897.1981160481646
 20
1745.5344090370872
 11
1900.3744960481649
 21
1745.7462890370871
  0
LINE
  8
_0-1_レイヤ___1
  6
CONTINUOUS
 62
    7
 10
1900.3744960481649
 20
1745.7462890370871
 11
1903.5474260481649
 21
1745.9581590370872
  0
LINE
  8
_0-1_レイヤ___1
  6
CONTINUOUS
 62
    7
 10
1903.5474260481649
 20
1745.9581590370872
 11
2110.9800760481648
 21
1745.9581590370872
  0
LINE
  8
_0-1_レイヤ___1
  6
CONTINUOUS
 62
    7
 10
2110.9800760481648
 20
1745.9581590370872
 11
2318.4161560481648
 21
1745.9581590370872
  0
LINE
  8
_0-1_レイヤ___1
  6
CONTINUOUS
 62
    7
 10
2318.4161560481648
 20
1745.9581590370872
 11
2321.3789460481648
 21
1745.7462890370871
  0
LINE
  8
_0-1_レイヤ___1
  6
CONTINUOUS
 62
    7
 10
2321.3789460481648
 20
1745.7462890370871
 11
2324.3417260481651
 21
1745.5344090370872
  0
LINE
  8
_0-1_レイヤ___1
  6
CONTINUOUS
 62
    7
 10
2324.3417260481651
 20
1745.5344090370872
 11
2327.518106048165
 21
1745.1123890370873
  0
LINE
  8
_0-1_レイヤ___1
  6
CONTINUOUS
 62
    7
 10
2327.518106048165
 20
1745.1123890370873
 11
2330.6910360481647
 21
1744.6886390370873
  0
LINE
  8
_0-1_レイヤ___1
  6
CONTINUOUS
 62
    7
 10
2330.6910360481647
 20
1744.6886390370873
 11
2333.6572660481647
 21
1743.841149037087
  0
LINE
  8
_0-1_レイヤ___1
  6
CONTINUOUS
 62
    7
 10
2333.6572660481647
 20
1743.841149037087
 11
2336.6200460481646
 21
1742.9936490370872
  0
LINE
  8
_0-1_レイヤ___1
  6
CONTINUOUS
 62
    7
 10
2336.6200460481646
 20
1742.9936490370872
 11
2339.5828260481649
 21
1741.9360090370874
  0
LINE
  8
_0-1_レイヤ___1
  6
CONTINUOUS
 62
    7
 10
2339.5828260481649
 20
1741.9360090370874
 11
2342.5456060481647
 21
1740.8783690370874
  0
LINE
  8
_0-1_レイヤ___1
  6
CONTINUOUS
 62
    7
 10
2342.5456060481647
 20
1740.8783690370874
 11
2345.2947960481647
 21
1739.6071290370874
  0
LINE
  8
_0-1_レイヤ___1
  6
CONTINUOUS
 62
    7
 10
2345.2947960481647
 20
1739.6071290370874
 11
2348.0474260481647
 21
1738.3376090370871
  0
LINE
  8
_0-1_レイヤ___1
  6
CONTINUOUS
 62
    7
 10
2348.0474260481647
 20
1738.3376090370871
 11
2350.8000560481646
 21
1736.8562190370872
  0
LINE
  8
_0-1_レイヤ___1
  6
CONTINUOUS
 62
    7
 10
2350.8000560481646
 20
1736.8562190370872
 11
2353.5526860481646
 21
1735.374829037087
  0
LINE
  8
_0-1_レイヤ___1
  6
CONTINUOUS
 62
    7
 10
2353.5526860481646
 20
1735.374829037087
 11
2356.0917260481647
 21
1733.4696890370874
  0
LINE
  8
_0-1_レイヤ___1
  6
CONTINUOUS
 62
    7
 10
2356.0917260481647
 20
1733.4696890370874
 11
2358.630756048165
 21
1731.5645490370871
  0
LINE
  8
_0-1_レイヤ___1
  6
CONTINUOUS
 62
    7
 10
2358.630756048165
 20
1731.5645490370871
 11
2360.7494960481649
 21
1729.4475390370872
  0
LINE
  8
_0-1_レイヤ___1
  6
CONTINUOUS
 62
    7
 10
2360.7494960481649
 20
1729.4475390370872
 11
2362.8647860481651
 21
1727.3305290370872
  0
LINE
  8
_0-1_レイヤ___1
  6
CONTINUOUS
 62
    7
 10
2362.8647860481651
 20
1727.3305290370872
 11
2364.9800760481648
 21
1725.0033690370874
  0
LINE
  8
_0-1_レイヤ___1
  6
CONTINUOUS
 62
    7
 10
2364.9800760481648
 20
1725.0033690370874
 11
2367.098806048165
 21
1722.6744790370872
  0
LINE
  8
_0-1_レイヤ___1
  6
CONTINUOUS
 62
    7
 10
2367.098806048165
 20
1722.6744790370872
 11
2369.0039460481648
 21
1720.1354490370873
  0
LINE
  8
_0-1_レイヤ___1
  6
CONTINUOUS
 62
    7
 10
2369.0039460481648
 20
1720.1354490370873
 11
2370.9090760481649
 21
1717.5946890370872
  0
LINE
  8
_0-1_レイヤ___1
  6
CONTINUOUS
 62
    7
 10
2370.9090760481649
 20
1717.5946890370872
 11
2372.6006260481649
 21
1715.0539290370873
  0
LINE
  8
_0-1_レイヤ___1
  6
CONTINUOUS
 62
    7
 10
2372.6006260481649
 20
1715.0539290370873
 11
2374.2956060481647
 21
1712.5148990370872
  0
LINE
  8
_0-1_レイヤ___1
  6
CONTINUOUS
 62
    7
 10
2374.2956060481647
 20
1712.5148990370872
 11
2375.5634060481648
 21
1709.7622590370872
  0
LINE
  8
_0-1_レイヤ___1
  6
CONTINUOUS
 62
    7
 10
2375.5634060481648
 20
1709.7622590370872
 11
2376.8346460481648
 21
1707.0113590370872
  0
LINE
  8
_0-1_レイヤ___1
  6
CONTINUOUS
 62
    7
 10
2376.8346460481648
 20
1707.0113590370872
 11
2377.8922860481648
 21
1704.0468490370872
  0
LINE
  8
_0-1_レイヤ___1
  6
CONTINUOUS
 62
    7
 10
2377.8922860481648
 20
1704.0468490370872
 11
2378.953376048165
 21
1701.0840690370874
  0
LINE
  8
_0-1_レイヤ___1
  6
CONTINUOUS
 62
    7
 10
2378.953376048165
 20
1701.0840690370874
 11
2379.5872760481648
 21
1697.9094090370872
  0
LINE
  8
_0-1_レイヤ___1
  6
CONTINUOUS
 62
    7
 10
2379.5872760481648
 20
1697.9094090370872
 11
2380.221176048165
 21
1694.7347590370873
  0
LINE
  8
_0-1_レイヤ___1
  6
CONTINUOUS
 62
    7
 10
2380.221176048165
 20
1694.7347590370873
 11
2380.8550760481648
 21
1691.7719790370872
  0
LINE
  8
_0-1_レイヤ___1
  6
CONTINUOUS
 62
    7
 10
2380.8550760481648
 20
1691.7719790370872
 11
2381.4924160481651
 21
1688.8074690370872
  0
LINE
  8
_0-1_レイヤ___1
  6
CONTINUOUS
 62
    7
 10
2381.4924160481651
 20
1688.8074690370872
 11
2381.4924160481651
 21
1685.6328190370871
  0
LINE
  8
_0-1_レイヤ___1
  6
CONTINUOUS
 62
    7
 10
2381.4924160481651
 20
1685.6328190370871
 11
2381.4924160481651
 21
1682.4581590370872
  0
LINE
  8
_0-1_レイヤ___1
  6
CONTINUOUS
 62
    7
 10
2381.4924160481651
 20
1682.4581590370872
 11
2381.4924160481651
 21
1660.0219790370872
  0
LINE
  8
_0-1_レイヤ___1
  6
CONTINUOUS
 62
    7
 10
2381.4924160481651
 20
1660.0219790370872
 11
2381.4924160481651
 21
1637.5840690370874
  0
LINE
  8
_0-1_レイヤ___1
  6
CONTINUOUS
 62
    7
 10
1850.2104560481648
 20
1637.5840690370874
 11
1851.2681060481648
 21
1639.2773290370872
  0
LINE
  8
_0-1_レイヤ___1
  6
CONTINUOUS
 62
    7
 10
1851.2681060481648
 20
1639.2773290370872
 11
1852.3257460481648
 21
1640.9705990370871
  0
LINE
  8
_0-1_レイヤ___1
  6
CONTINUOUS
 62
    7
 10
1852.3257460481648
 20
1640.9705990370871
 11
1853.5969860481648
 21
1642.4519890370871
  0
LINE
  8
_0-1_レイヤ___1
  6
CONTINUOUS
 62
    7
 10
1853.5969860481648
 20
1642.4519890370871
 11
1854.8647860481649
 21
1643.9350990370872
  0
LINE
  8
_0-1_レイヤ___1
  6
CONTINUOUS
 62
    7
 10
1854.8647860481649
 20
1643.9350990370872
 11
1856.1360260481649
 21
1645.4164890370873
  0
LINE
  8
_0-1_レイヤ___1
  6
CONTINUOUS
 62
    7
 10
1856.1360260481649
 20
1645.4164890370873
 11
1857.4072660481647
 21
1646.8978790370873
  0
LINE
  8
_0-1_レイヤ___1
  6
CONTINUOUS
 62
    7
 10
1857.4072660481647
 20
1646.8978790370873
 11
1858.8886560481649
 21
1648.1673990370871
  0
LINE
  8
_0-1_レイヤ___1
  6
CONTINUOUS
 62
    7
 10
1858.8886560481649
 20
1648.1673990370871
 11
1860.3700460481648
 21
1649.4386390370871
  0
LINE
  8
_0-1_レイヤ___1
  6
CONTINUOUS
 62
    7
 10
1860.3700460481648
 20
1649.4386390370871
 11
1861.8514360481649
 21
1650.7081590370874
  0
LINE
  8
_0-1_レイヤ___1
  6
CONTINUOUS
 62
    7
 10
1861.8514360481649
 20
1650.7081590370874
 11
1863.3328260481649
 21
1651.9776790370872
  0
LINE
  8
_0-1_レイヤ___1
  6
CONTINUOUS
 62
    7
 10
1863.3328260481649
 20
1651.9776790370872
 11
1864.8142160481648
 21
1653.2489190370873
  0
LINE
  8
_0-1_レイヤ___1
  6
CONTINUOUS
 62
    7
 10
1864.8142160481648
 20
1653.2489190370873
 11
1866.2956060481647
 21
1654.5184390370873
  0
LINE
  8
_0-1_レイヤ___1
  6
CONTINUOUS
 62
    7
 10
1866.2956060481647
 20
1654.5184390370873
 11
1867.9905960481647
 21
1655.5777990370871
  0
LINE
  8
_0-1_レイヤ___1
  6
CONTINUOUS
 62
    7
 10
1867.9905960481647
 20
1655.5777990370871
 11
1869.6821360481647
 21
1656.6354490370873
  0
LINE
  8
_0-1_レイヤ___1
  6
CONTINUOUS
 62
    7
 10
1869.6821360481647
 20
1656.6354490370873
 11
1871.373676048165
 21
1657.6930890370872
  0
LINE
  8
_0-1_レイヤ___1
  6
CONTINUOUS
 62
    7
 10
1871.373676048165
 20
1657.6930890370872
 11
1873.0686660481649
 21
1658.750739037087
  0
LINE
  8
_0-1_レイヤ___1
  6
CONTINUOUS
 62
    7
 10
1873.0686660481649
 20
1658.750739037087
 11
1874.9738060481648
 21
1659.5982290370873
  0
LINE
  8
_0-1_レイヤ___1
  6
CONTINUOUS
 62
    7
 10
1874.9738060481648
 20
1659.5982290370873
 11
1876.8789460481648
 21
1660.4439990370872
  0
LINE
  8
_0-1_レイヤ___1
  6
CONTINUOUS
 62
    7
 10
1876.8789460481648
 20
1660.4439990370872
 11
1878.5739260481648
 21
1661.2897690370871
  0
LINE
  8
_0-1_レイヤ___1
  6
CONTINUOUS
 62
    7
 10
1878.5739260481648
 20
1661.2897690370871
 11
1880.2654760481646
 21
1662.137259037087
  0
LINE
  8
_0-1_レイヤ___1
  6
CONTINUOUS
 62
    7
 10
1880.2654760481646
 20
1662.137259037087
 11
1882.1706060481647
 21
1662.7728790370873
  0
LINE
  8
_0-1_レイヤ___1
  6
CONTINUOUS
 62
    7
 10
1882.1706060481647
 20
1662.7728790370873
 11
1884.075746048165
 21
1663.408499037087
  0
LINE
  8
_0-1_レイヤ___1
  6
CONTINUOUS
 62
    7
 10
1884.075746048165
 20
1663.408499037087
 11
1885.9808860481648
 21
1663.832249037087
  0
LINE
  8
_0-1_レイヤ___1
  6
CONTINUOUS
 62
    7
 10
1885.9808860481648
 20
1663.832249037087
 11
1887.8860260481647
 21
1664.2542790370871
  0
LINE
  8
_0-1_レイヤ___1
  6
CONTINUOUS
 62
    7
 10
1887.8860260481647
 20
1664.2542790370871
 11
1889.7911560481648
 21
1664.6780190370873
  0
LINE
  8
_0-1_レイヤ___1
  6
CONTINUOUS
 62
    7
 10
1889.7911560481648
 20
1664.6780190370873
 11
1891.6962960481649
 21
1665.1017690370873
  0
LINE
  8
_0-1_レイヤ___1
  6
CONTINUOUS
 62
    7
 10
1891.6962960481649
 20
1665.1017690370873
 11
1893.6014360481647
 21
1665.5237890370872
  0
LINE
  8
_0-1_レイヤ___1
  6
CONTINUOUS
 62
    7
 10
1893.6014360481647
 20
1665.5237890370872
 11
1895.5065760481648
 21
1665.9475390370872
  0
LINE
  8
_0-1_レイヤ___1
  6
CONTINUOUS
 62
    7
 10
1895.5065760481648
 20
1665.9475390370872
 11
1897.4117160481649
 21
1666.1594090370872
  0
LINE
  8
_0-1_レイヤ___1
  6
CONTINUOUS
 62
    7
 10
1897.4117160481649
 20
1666.1594090370872
 11
1899.316846048165
 21
1666.3712890370871
  0
LINE
  8
_0-1_レイヤ___1
  6
CONTINUOUS
 62
    7
 10
1899.316846048165
 20
1666.3712890370871
 11
1901.4321360481649
 21
1666.3712890370871
  0
LINE
  8
_0-1_レイヤ___1
  6
CONTINUOUS
 62
    7
 10
1901.4321360481649
 20
1666.3712890370871
 11
1903.5474260481649
 21
1666.3712890370871
  0
LINE
  8
_0-1_レイヤ___1
  6
CONTINUOUS
 62
    7
 10
1903.5474260481649
 20
1666.3712890370871
 11
2110.9800760481648
 21
1666.3712890370871
  0
LINE
  8
_0-1_レイヤ___1
  6
CONTINUOUS
 62
    7
 10
2110.9800760481648
 20
1666.3712890370871
 11
2318.4161560481648
 21
1666.3712890370871
  0
LINE
  8
_0-1_レイヤ___1
  6
CONTINUOUS
 62
    7
 10
2318.4161560481648
 20
1666.3712890370871
 11
2320.3212960481646
 21
1666.3712890370871
  0
LINE
  8
_0-1_レイヤ___1
  6
CONTINUOUS
 62
    7
 10
2320.3212960481646
 20
1666.3712890370871
 11
2322.2264360481649
 21
1666.3712890370871
  0
LINE
  8
_0-1_レイヤ___1
  6
CONTINUOUS
 62
    7
 10
2322.2264360481649
 20
1666.3712890370871
 11
2324.1315760481648
 21
1666.1594090370872
  0
LINE
  8
_0-1_レイヤ___1
  6
CONTINUOUS
 62
    7
 10
2324.1315760481648
 20
1666.1594090370872
 11
2326.0367160481646
 21
1665.9475390370872
  0
LINE
  8
_0-1_レイヤ___1
  6
CONTINUOUS
 62
    7
 10
2326.0367160481646
 20
1665.9475390370872
 11
2327.9418460481647
 21
1665.5237890370872
  0
LINE
  8
_0-1_レイヤ___1
  6
CONTINUOUS
 62
    7
 10
2327.9418460481647
 20
1665.5237890370872
 11
2329.846986048165
 21
1665.1017690370873
  0
LINE
  8
_0-1_レイヤ___1
  6
CONTINUOUS
 62
    7
 10
2329.846986048165
 20
1665.1017690370873
 11
2331.7521260481649
 21
1664.6780190370873
  0
LINE
  8
_0-1_レイヤ___1
  6
CONTINUOUS
 62
    7
 10
2331.7521260481649
 20
1664.6780190370873
 11
2333.6572660481647
 21
1664.2542790370871
  0
LINE
  8
_0-1_レイヤ___1
  6
CONTINUOUS
 62
    7
 10
2333.6572660481647
 20
1664.2542790370871
 11
2335.5589560481649
 21
1663.832249037087
  0
LINE
  8
_0-1_レイヤ___1
  6
CONTINUOUS
 62
    7
 10
2335.5589560481649
 20
1663.832249037087
 11
2337.4640960481647
 21
1663.408499037087
  0
LINE
  8
_0-1_レイヤ___1
  6
CONTINUOUS
 62
    7
 10
2337.4640960481647
 20
1663.408499037087
 11
2339.369236048165
 21
1662.7728790370873
  0
LINE
  8
_0-1_レイヤ___1
  6
CONTINUOUS
 62
    7
 10
2339.369236048165
 20
1662.7728790370873
 11
2341.2743660481651
 21
1662.137259037087
  0
LINE
  8
_0-1_レイヤ___1
  6
CONTINUOUS
 62
    7
 10
2341.2743660481651
 20
1662.137259037087
 11
2343.1795060481645
 21
1661.2897690370871
  0
LINE
  8
_0-1_レイヤ___1
  6
CONTINUOUS
 62
    7
 10
2343.1795060481645
 20
1661.2897690370871
 11
2345.0846460481648
 21
1660.4439990370872
  0
LINE
  8
_0-1_レイヤ___1
  6
CONTINUOUS
 62
    7
 10
2345.0846460481648
 20
1660.4439990370872
 11
2346.7761860481646
 21
1659.5982290370873
  0
LINE
  8
_0-1_レイヤ___1
  6
CONTINUOUS
 62
    7
 10
2346.7761860481646
 20
1659.5982290370873
 11
2348.4711760481646
 21
1658.750739037087
  0
LINE
  8
_0-1_レイヤ___1
  6
CONTINUOUS
 62
    7
 10
2348.4711760481646
 20
1658.750739037087
 11
2350.1661560481648
 21
1657.6930890370872
  0
LINE
  8
_0-1_レイヤ___1
  6
CONTINUOUS
 62
    7
 10
2350.1661560481648
 20
1657.6930890370872
 11
2351.8577060481648
 21
1656.6354490370873
  0
LINE
  8
_0-1_レイヤ___1
  6
CONTINUOUS
 62
    7
 10
2351.8577060481648
 20
1656.6354490370873
 11
2353.5492460481651
 21
1655.5777990370871
  0
LINE
  8
_0-1_レイヤ___1
  6
CONTINUOUS
 62
    7
 10
2353.5492460481651
 20
1655.5777990370871
 11
2355.244236048165
 21
1654.5184390370873
  0
LINE
  8
_0-1_レイヤ___1
  6
CONTINUOUS
 62
    7
 10
2355.244236048165
 20
1654.5184390370873
 11
2356.7256260481649
 21
1653.2489190370873
  0
LINE
  8
_0-1_レイヤ___1
  6
CONTINUOUS
 62
    7
 10
2356.7256260481649
 20
1653.2489190370873
 11
2358.2104560481648
 21
1651.9776790370872
  0
LINE
  8
_0-1_レイヤ___1
  6
CONTINUOUS
 62
    7
 10
2358.2104560481648
 20
1651.9776790370872
 11
2359.6918460481647
 21
1650.7081590370874
  0
LINE
  8
_0-1_レイヤ___1
  6
CONTINUOUS
 62
    7
 10
2359.6918460481647
 20
1650.7081590370874
 11
2361.1732360481647
 21
1649.4386390370871
  0
LINE
  8
_0-1_レイヤ___1
  6
CONTINUOUS
 62
    7
 10
2361.1732360481647
 20
1649.4386390370871
 11
2362.6546360481648
 21
1648.1673990370871
  0
LINE
  8
_0-1_レイヤ___1
  6
CONTINUOUS
 62
    7
 10
2362.6546360481648
 20
1648.1673990370871
 11
2364.1360260481647
 21
1646.8978790370873
  0
LINE
  8
_0-1_レイヤ___1
  6
CONTINUOUS
 62
    7
 10
2364.1360260481647
 20
1646.8978790370873
 11
2365.4072660481647
 21
1645.4164890370873
  0
LINE
  8
_0-1_レイヤ___1
  6
CONTINUOUS
 62
    7
 10
2365.4072660481647
 20
1645.4164890370873
 11
2366.6750560481651
 21
1643.9350990370872
  0
LINE
  8
_0-1_レイヤ___1
  6
CONTINUOUS
 62
    7
 10
2366.6750560481651
 20
1643.9350990370872
 11
2367.9428560481647
 21
1642.4519890370871
  0
LINE
  8
_0-1_レイヤ___1
  6
CONTINUOUS
 62
    7
 10
2367.9428560481647
 20
1642.4519890370871
 11
2369.2140960481647
 21
1640.9705990370871
  0
LINE
  8
_0-1_レイヤ___1
  6
CONTINUOUS
 62
    7
 10
2369.2140960481647
 20
1640.9705990370871
 11
2370.2717360481647
 21
1639.2773290370872
  0
LINE
  8
_0-1_レイヤ___1
  6
CONTINUOUS
 62
    7
 10
2370.2717360481647
 20
1639.2773290370872
 11
2371.3328260481649
 21
1637.5840690370874
  0
LINE
  8
_0-1_レイヤ___1
  6
CONTINUOUS
 62
    7
 10
2026.3168460481647
 20
1713.5725390370872
 11
2021.1733260481649
 21
1725.988659037087
  0
LINE
  8
_0-1_レイヤ___1
  6
CONTINUOUS
 62
    7
 10
2021.1733260481649
 20
1725.988659037087
 11
2008.7468660481647
 21
1731.1407990370872
  0
LINE
  8
_0-1_レイヤ___1
  6
CONTINUOUS
 62
    7
 10
2008.7468660481647
 20
1731.1407990370872
 11
1996.3204060481648
 21
1725.988659037087
  0
LINE
  8
_0-1_レイヤ___1
  6
CONTINUOUS
 62
    7
 10
1996.3204060481648
 20
1725.988659037087
 11
1991.1803160481647
 21
1713.5725390370872
  0
LINE
  8
_0-1_レイヤ___1
  6
CONTINUOUS
 62
    7
 10
1991.1803160481647
 20
1713.5725390370872
 11
1996.3204060481648
 21
1701.1564190370871
  0
LINE
  8
_0-1_レイヤ___1
  6
CONTINUOUS
 62
    7
 10
1996.3204060481648
 20
1701.1564190370871
 11
2008.7468660481647
 21
1696.0042790370871
  0
LINE
  8
_0-1_レイヤ___1
  6
CONTINUOUS
 62
    7
 10
2008.7468660481647
 20
1696.0042790370871
 11
2021.1733260481649
 21
1701.1564190370871
  0
LINE
  8
_0-1_レイヤ___1
  6
CONTINUOUS
 62
    7
 10
2021.1733260481649
 20
1701.1564190370871
 11
2026.3168460481647
 21
1713.5725390370872
  0
LINE
  8
_0-1_レイヤ___1
  6
CONTINUOUS
 62
    7
 10
2008.9604560481648
 20
1751.0379490370872
 11
2008.9604560481648
 21
1744.6886390370873
  0
LINE
  8
_0-1_レイヤ___1
  6
CONTINUOUS
 62
    7
 10
2008.9604560481648
 20
1744.6886390370873
 11
2008.9604560481648
 21
1738.3376090370871
  0
LINE
  8
_0-1_レイヤ___1
  6
CONTINUOUS
 62
    7
 10
2008.9604560481648
 20
1734.1053090370872
 11
2008.9604560481648
 21
1733.4696890370874
  0
LINE
  8
_0-1_レイヤ___1
  6
CONTINUOUS
 62
    7
 10
2008.9604560481648
 20
1733.4696890370874
 11
2008.9604560481648
 21
1732.8340690370871
  0
LINE
  8
_0-1_レイヤ___1
  6
CONTINUOUS
 62
    7
 10
2008.9604560481648
 20
1729.8712890370871
 11
2008.9604560481648
 21
1729.237389037087
  0
LINE
  8
_0-1_レイヤ___1
  6
CONTINUOUS
 62
    7
 10
2008.9604560481648
 20
1729.237389037087
 11
2008.9604560481648
 21
1728.6017690370873
  0
LINE
  8
_0-1_レイヤ___1
  6
CONTINUOUS
 62
    7
 10
2008.9604560481648
 20
1725.6372590370872
 11
2008.9604560481648
 21
1719.2879490370869
  0
LINE
  8
_0-1_レイヤ___1
  6
CONTINUOUS
 62
    7
 10
2008.9604560481648
 20
1719.2879490370869
 11
2008.9604560481648
 21
1712.9386390370871
  0
LINE
  8
_0-1_レイヤ___1
  6
CONTINUOUS
 62
    7
 10
2008.9604560481648
 20
1708.7046190370872
 11
2008.9604560481648
 21
1708.0707190370872
  0
LINE
  8
_0-1_レイヤ___1
  6
CONTINUOUS
 62
    7
 10
2008.9604560481648
 20
1708.0707190370872
 11
2008.9604560481648
 21
1707.4350990370872
  0
LINE
  8
_0-1_レイヤ___1
  6
CONTINUOUS
 62
    7
 10
2008.9604560481648
 20
1704.4705990370871
 11
2008.9604560481648
 21
1703.8366990370873
  0
LINE
  8
_0-1_レイヤ___1
  6
CONTINUOUS
 62
    7
 10
2008.9604560481648
 20
1703.8366990370873
 11
2008.9604560481648
 21
1703.2010790370873
  0
LINE
  8
_0-1_レイヤ___1
  6
CONTINUOUS
 62
    7
 10
2008.9604560481648
 20
1700.2382990370872
 11
2008.9604560481648
 21
1693.8872590370872
  0
LINE
  8
_0-1_レイヤ___1
  6
CONTINUOUS
 62
    7
 10
2008.9604560481648
 20
1693.8872590370872
 11
2008.9604560481648
 21
1687.5379490370872
  0
LINE
  8
_0-1_レイヤ___1
  6
CONTINUOUS
 62
    7
 10
2008.9604560481648
 20
1683.3039290370871
 11
2008.9604560481648
 21
1682.6700290370873
  0
LINE
  8
_0-1_レイヤ___1
  6
CONTINUOUS
 62
    7
 10
2008.9604560481648
 20
1682.6700290370873
 11
2008.9604560481648
 21
1682.0344090370872
  0
LINE
  8
_0-1_レイヤ___1
  6
CONTINUOUS
 62
    7
 10
2008.9604560481648
 20
1679.0716290370872
 11
2008.9604560481648
 21
1678.4360090370874
  0
LINE
  8
_0-1_レイヤ___1
  6
CONTINUOUS
 62
    7
 10
2008.9604560481648
 20
1678.4360090370874
 11
2008.9604560481648
 21
1677.8021090370871
  0
LINE
  8
_0-1_レイヤ___1
  6
CONTINUOUS
 62
    7
 10
2008.9604560481648
 20
1676.9546190370872
 11
2008.9604560481648
 21
1676.5308690370873
  0
LINE
  8
_0-1_レイヤ___1
  6
CONTINUOUS
 62
    7
 10
2008.9604560481648
 20
1676.5308690370873
 11
2008.9604560481648
 21
1676.1071290370874
  0
LINE
  8
_0-1_レイヤ___1
  6
CONTINUOUS
 62
    7
 10
1971.2814460481648
 20
1713.784409037087
 11
1977.6342060481647
 21
1713.784409037087
  0
LINE
  8
_0-1_レイヤ___1
  6
CONTINUOUS
 62
    7
 10
1977.6342060481647
 20
1713.784409037087
 11
1983.9835160481648
 21
1713.784409037087
  0
LINE
  8
_0-1_レイヤ___1
  6
CONTINUOUS
 62
    7
 10
1988.2140960481649
 20
1713.784409037087
 11
1988.8514360481647
 21
1713.784409037087
  0
LINE
  8
_0-1_レイヤ___1
  6
CONTINUOUS
 62
    7
 10
1988.8514360481647
 20
1713.784409037087
 11
1989.4853360481648
 21
1713.784409037087
  0
LINE
  8
_0-1_レイヤ___1
  6
CONTINUOUS
 62
    7
 10
1992.4481160481648
 20
1713.784409037087
 11
1993.0820160481649
 21
1713.784409037087
  0
LINE
  8
_0-1_レイヤ___1
  6
CONTINUOUS
 62
    7
 10
1993.0820160481649
 20
1713.784409037087
 11
1993.7193560481649
 21
1713.784409037087
  0
LINE
  8
_0-1_レイヤ___1
  6
CONTINUOUS
 62
    7
 10
1996.6821360481649
 20
1713.784409037087
 11
2003.0314460481648
 21
1713.784409037087
  0
LINE
  8
_0-1_レイヤ___1
  6
CONTINUOUS
 62
    7
 10
2003.0314460481648
 20
1713.784409037087
 11
2009.3807560481648
 21
1713.784409037087
  0
LINE
  8
_0-1_レイヤ___1
  6
CONTINUOUS
 62
    7
 10
2013.6147860481649
 20
1713.784409037087
 11
2014.2486760481647
 21
1713.784409037087
  0
LINE
  8
_0-1_レイヤ___1
  6
CONTINUOUS
 62
    7
 10
2014.2486760481647
 20
1713.784409037087
 11
2014.8860260481649
 21
1713.784409037087
  0
LINE
  8
_0-1_レイヤ___1
  6
CONTINUOUS
 62
    7
 10
2017.848806048165
 20
1713.784409037087
 11
2018.4861460481648
 21
1713.784409037087
  0
LINE
  8
_0-1_レイヤ___1
  6
CONTINUOUS
 62
    7
 10
2018.4861460481648
 20
1713.784409037087
 11
2019.1200460481648
 21
1713.784409037087
  0
LINE
  8
_0-1_レイヤ___1
  6
CONTINUOUS
 62
    7
 10
2022.0828260481649
 20
1713.784409037087
 11
2028.4321360481647
 21
1713.784409037087
  0
LINE
  8
_0-1_レイヤ___1
  6
CONTINUOUS
 62
    7
 10
2028.4321360481647
 20
1713.784409037087
 11
2034.781446048165
 21
1713.784409037087
  0
LINE
  8
_0-1_レイヤ___1
  6
CONTINUOUS
 62
    7
 10
2039.0154760481646
 20
1713.784409037087
 11
2039.6528160481648
 21
1713.784409037087
  0
LINE
  8
_0-1_レイヤ___1
  6
CONTINUOUS
 62
    7
 10
2039.6528160481648
 20
1713.784409037087
 11
2040.2867160481649
 21
1713.784409037087
  0
LINE
  8
_0-1_レイヤ___1
  6
CONTINUOUS
 62
    7
 10
2043.2494960481649
 20
1713.784409037087
 11
2043.8833960481647
 21
1713.784409037087
  0
LINE
  8
_0-1_レイヤ___1
  6
CONTINUOUS
 62
    7
 10
2043.8833960481647
 20
1713.784409037087
 11
2044.5172860481648
 21
1713.784409037087
  0
LINE
  8
_0-1_レイヤ___1
  6
CONTINUOUS
 62
    7
 10
2045.3647860481649
 20
1713.784409037087
 11
2045.7885260481648
 21
1713.784409037087
  0
LINE
  8
_0-1_レイヤ___1
  6
CONTINUOUS
 62
    7
 10
2045.7885260481648
 20
1713.784409037087
 11
2046.2122760481648
 21
1713.784409037087
  0
LINE
  8
_0-1_レイヤ___1
  6
CONTINUOUS
 62
    7
 10
2128.3399060481647
 20
1713.5725390370872
 11
2123.1963760481649
 21
1725.988659037087
  0
LINE
  8
_0-1_レイヤ___1
  6
CONTINUOUS
 62
    7
 10
2123.1963760481649
 20
1725.988659037087
 11
2110.7699160481648
 21
1731.1407990370872
  0
LINE
  8
_0-1_レイヤ___1
  6
CONTINUOUS
 62
    7
 10
2110.7699160481648
 20
1731.1407990370872
 11
2098.3469060481648
 21
1725.988659037087
  0
LINE
  8
_0-1_レイヤ___1
  6
CONTINUOUS
 62
    7
 10
2098.3469060481648
 20
1725.988659037087
 11
2093.2033760481645
 21
1713.5725390370872
  0
LINE
  8
_0-1_レイヤ___1
  6
CONTINUOUS
 62
    7
 10
2093.2033760481645
 20
1713.5725390370872
 11
2098.3469060481648
 21
1701.1564190370871
  0
LINE
  8
_0-1_レイヤ___1
  6
CONTINUOUS
 62
    7
 10
2098.3469060481648
 20
1701.1564190370871
 11
2110.7699160481648
 21
1696.0042790370871
  0
LINE
  8
_0-1_レイヤ___1
  6
CONTINUOUS
 62
    7
 10
2110.7699160481648
 20
1696.0042790370871
 11
2123.1963760481649
 21
1701.1564190370871
  0
LINE
  8
_0-1_レイヤ___1
  6
CONTINUOUS
 62
    7
 10
2123.1963760481649
 20
1701.1564190370871
 11
2128.3399060481647
 21
1713.5725390370872
  0
LINE
  8
_0-1_レイヤ___1
  6
CONTINUOUS
 62
    7
 10
2110.9835160481648
 20
1751.0379490370872
 11
2110.9835160481648
 21
1744.6886390370873
  0
LINE
  8
_0-1_レイヤ___1
  6
CONTINUOUS
 62
    7
 10
2110.9835160481648
 20
1744.6886390370873
 11
2110.9835160481648
 21
1738.3376090370871
  0
LINE
  8
_0-1_レイヤ___1
  6
CONTINUOUS
 62
    7
 10
2110.9835160481648
 20
1734.1053090370872
 11
2110.9835160481648
 21
1733.4696890370874
  0
LINE
  8
_0-1_レイヤ___1
  6
CONTINUOUS
 62
    7
 10
2110.9835160481648
 20
1733.4696890370874
 11
2110.9835160481648
 21
1732.8340690370871
  0
LINE
  8
_0-1_レイヤ___1
  6
CONTINUOUS
 62
    7
 10
2110.9835160481648
 20
1729.8712890370871
 11
2110.9835160481648
 21
1729.237389037087
  0
LINE
  8
_0-1_レイヤ___1
  6
CONTINUOUS
 62
    7
 10
2110.9835160481648
 20
1729.237389037087
 11
2110.9835160481648
 21
1728.6017690370873
  0
LINE
  8
_0-1_レイヤ___1
  6
CONTINUOUS
 62
    7
 10
2110.9835160481648
 20
1725.6372590370872
 11
2110.9835160481648
 21
1719.2879490370869
  0
LINE
  8
_0-1_レイヤ___1
  6
CONTINUOUS
 62
    7
 10
2110.9835160481648
 20
1719.2879490370869
 11
2110.9835160481648
 21
1712.9386390370871
  0
LINE
  8
_0-1_レイヤ___1
  6
CONTINUOUS
 62
    7
 10
2110.9835160481648
 20
1708.7046190370872
 11
2110.9835160481648
 21
1708.0707190370872
  0
LINE
  8
_0-1_レイヤ___1
  6
CONTINUOUS
 62
    7
 10
2110.9835160481648
 20
1708.0707190370872
 11
2110.9835160481648
 21
1707.4350990370872
  0
LINE
  8
_0-1_レイヤ___1
  6
CONTINUOUS
 62
    7
 10
2110.9835160481648
 20
1704.4705990370871
 11
2110.9835160481648
 21
1703.8366990370873
  0
LINE
  8
_0-1_レイヤ___1
  6
CONTINUOUS
 62
    7
 10
2110.9835160481648
 20
1703.8366990370873
 11
2110.9835160481648
 21
1703.2010790370873
  0
LINE
  8
_0-1_レイヤ___1
  6
CONTINUOUS
 62
    7
 10
2110.9835160481648
 20
1700.2382990370872
 11
2110.9835160481648
 21
1693.8872590370872
  0
LINE
  8
_0-1_レイヤ___1
  6
CONTINUOUS
 62
    7
 10
2110.9835160481648
 20
1693.8872590370872
 11
2110.9835160481648
 21
1687.5379490370872
  0
LINE
  8
_0-1_レイヤ___1
  6
CONTINUOUS
 62
    7
 10
2110.9835160481648
 20
1683.3039290370871
 11
2110.9835160481648
 21
1682.6700290370873
  0
LINE
  8
_0-1_レイヤ___1
  6
CONTINUOUS
 62
    7
 10
2110.9835160481648
 20
1682.6700290370873
 11
2110.9835160481648
 21
1682.0344090370872
  0
LINE
  8
_0-1_レイヤ___1
  6
CONTINUOUS
 62
    7
 10
2110.9835160481648
 20
1679.0716290370872
 11
2110.9835160481648
 21
1678.4360090370874
  0
LINE
  8
_0-1_レイヤ___1
  6
CONTINUOUS
 62
    7
 10
2110.9835160481648
 20
1678.4360090370874
 11
2110.9835160481648
 21
1677.8021090370871
  0
LINE
  8
_0-1_レイヤ___1
  6
CONTINUOUS
 62
    7
 10
2110.9835160481648
 20
1676.9546190370872
 11
2110.9835160481648
 21
1676.5308690370873
  0
LINE
  8
_0-1_レイヤ___1
  6
CONTINUOUS
 62
    7
 10
2110.9835160481648
 20
1676.5308690370873
 11
2110.9835160481648
 21
1676.1071290370874
  0
LINE
  8
_0-1_レイヤ___1
  6
CONTINUOUS
 62
    7
 10
2073.304506048165
 20
1713.784409037087
 11
2079.6572660481652
 21
1713.784409037087
  0
LINE
  8
_0-1_レイヤ___1
  6
CONTINUOUS
 62
    7
 10
2079.6572660481652
 20
1713.784409037087
 11
2086.0065760481648
 21
1713.784409037087
  0
LINE
  8
_0-1_レイヤ___1
  6
CONTINUOUS
 62
    7
 10
2090.2405960481647
 20
1713.784409037087
 11
2090.8744960481645
 21
1713.784409037087
  0
LINE
  8
_0-1_レイヤ___1
  6
CONTINUOUS
 62
    7
 10
2090.8744960481645
 20
1713.784409037087
 11
2091.5083960481647
 21
1713.784409037087
  0
LINE
  8
_0-1_レイヤ___1
  6
CONTINUOUS
 62
    7
 10
2094.4711760481646
 20
1713.784409037087
 11
2095.1050760481648
 21
1713.784409037087
  0
LINE
  8
_0-1_レイヤ___1
  6
CONTINUOUS
 62
    7
 10
2095.1050760481648
 20
1713.784409037087
 11
2095.7424160481646
 21
1713.784409037087
  0
LINE
  8
_0-1_レイヤ___1
  6
CONTINUOUS
 62
    7
 10
2098.7051960481649
 20
1713.784409037087
 11
2105.0545060481645
 21
1713.784409037087
  0
LINE
  8
_0-1_レイヤ___1
  6
CONTINUOUS
 62
    7
 10
2105.0545060481645
 20
1713.784409037087
 11
2111.4072660481647
 21
1713.784409037087
  0
LINE
  8
_0-1_レイヤ___1
  6
CONTINUOUS
 62
    7
 10
2115.6378360481649
 20
1713.784409037087
 11
2116.2717360481647
 21
1713.784409037087
  0
LINE
  8
_0-1_レイヤ___1
  6
CONTINUOUS
 62
    7
 10
2116.2717360481647
 20
1713.784409037087
 11
2116.9090760481649
 21
1713.784409037087
  0
LINE
  8
_0-1_レイヤ___1
  6
CONTINUOUS
 62
    7
 10
2119.871866048165
 20
1713.784409037087
 11
2120.5092060481647
 21
1713.784409037087
  0
LINE
  8
_0-1_レイヤ___1
  6
CONTINUOUS
 62
    7
 10
2120.5092060481647
 20
1713.784409037087
 11
2121.143106048165
 21
1713.784409037087
  0
LINE
  8
_0-1_レイヤ___1
  6
CONTINUOUS
 62
    7
 10
2124.1058860481648
 20
1713.784409037087
 11
2130.4551960481649
 21
1713.784409037087
  0
LINE
  8
_0-1_レイヤ___1
  6
CONTINUOUS
 62
    7
 10
2130.4551960481649
 20
1713.784409037087
 11
2136.804506048165
 21
1713.784409037087
  0
LINE
  8
_0-1_レイヤ___1
  6
CONTINUOUS
 62
    7
 10
2141.0385260481648
 20
1713.784409037087
 11
2141.6758760481648
 21
1713.784409037087
  0
LINE
  8
_0-1_レイヤ___1
  6
CONTINUOUS
 62
    7
 10
2141.6758760481648
 20
1713.784409037087
 11
2142.3097660481649
 21
1713.784409037087
  0
LINE
  8
_0-1_レイヤ___1
  6
CONTINUOUS
 62
    7
 10
2145.2725560481649
 20
1713.784409037087
 11
2145.906446048165
 21
1713.784409037087
  0
LINE
  8
_0-1_レイヤ___1
  6
CONTINUOUS
 62
    7
 10
2145.906446048165
 20
1713.784409037087
 11
2146.5437960481649
 21
1713.784409037087
  0
LINE
  8
_0-1_レイヤ___1
  6
CONTINUOUS
 62
    7
 10
2147.3878360481649
 20
1713.784409037087
 11
2147.8115860481648
 21
1713.784409037087
  0
LINE
  8
_0-1_レイヤ___1
  6
CONTINUOUS
 62
    7
 10
2147.8115860481648
 20
1713.784409037087
 11
2148.2353360481648
 21
1713.784409037087
  0
LINE
  8
_0-1_レイヤ___1
  6
CONTINUOUS
 62
    7
 10
2230.3629660481647
 20
1713.5725390370872
 11
2225.2194360481649
 21
1725.988659037087
  0
LINE
  8
_0-1_レイヤ___1
  6
CONTINUOUS
 62
    7
 10
2225.2194360481649
 20
1725.988659037087
 11
2212.7929760481647
 21
1731.1407990370872
  0
LINE
  8
_0-1_レイヤ___1
  6
CONTINUOUS
 62
    7
 10
2212.7929760481647
 20
1731.1407990370872
 11
2200.3699660481648
 21
1725.988659037087
  0
LINE
  8
_0-1_レイヤ___1
  6
CONTINUOUS
 62
    7
 10
2200.3699660481648
 20
1725.988659037087
 11
2195.2264360481649
 21
1713.5725390370872
  0
LINE
  8
_0-1_レイヤ___1
  6
CONTINUOUS
 62
    7
 10
2195.2264360481649
 20
1713.5725390370872
 11
2200.3699660481648
 21
1701.1564190370871
  0
LINE
  8
_0-1_レイヤ___1
  6
CONTINUOUS
 62
    7
 10
2200.3699660481648
 20
1701.1564190370871
 11
2212.7929760481647
 21
1696.0042790370871
  0
LINE
  8
_0-1_レイヤ___1
  6
CONTINUOUS
 62
    7
 10
2212.7929760481647
 20
1696.0042790370871
 11
2225.2194360481649
 21
1701.1564190370871
  0
LINE
  8
_0-1_レイヤ___1
  6
CONTINUOUS
 62
    7
 10
2225.2194360481649
 20
1701.1564190370871
 11
2230.3629660481647
 21
1713.5725390370872
  0
LINE
  8
_0-1_レイヤ___1
  6
CONTINUOUS
 62
    7
 10
2213.0065760481648
 20
1751.0379490370872
 11
2213.0065760481648
 21
1744.6886390370873
  0
LINE
  8
_0-1_レイヤ___1
  6
CONTINUOUS
 62
    7
 10
2213.0065760481648
 20
1744.6886390370873
 11
2213.0065760481648
 21
1738.3376090370871
  0
LINE
  8
_0-1_レイヤ___1
  6
CONTINUOUS
 62
    7
 10
2213.0065760481648
 20
1734.1053090370872
 11
2213.0065760481648
 21
1733.4696890370874
  0
LINE
  8
_0-1_レイヤ___1
  6
CONTINUOUS
 62
    7
 10
2213.0065760481648
 20
1733.4696890370874
 11
2213.0065760481648
 21
1732.8340690370871
  0
LINE
  8
_0-1_レイヤ___1
  6
CONTINUOUS
 62
    7
 10
2213.0065760481648
 20
1729.8712890370871
 11
2213.0065760481648
 21
1729.237389037087
  0
LINE
  8
_0-1_レイヤ___1
  6
CONTINUOUS
 62
    7
 10
2213.0065760481648
 20
1729.237389037087
 11
2213.0065760481648
 21
1728.6017690370873
  0
LINE
  8
_0-1_レイヤ___1
  6
CONTINUOUS
 62
    7
 10
2213.0065760481648
 20
1725.6372590370872
 11
2213.0065760481648
 21
1719.2879490370869
  0
LINE
  8
_0-1_レイヤ___1
  6
CONTINUOUS
 62
    7
 10
2213.0065760481648
 20
1719.2879490370869
 11
2213.0065760481648
 21
1712.9386390370871
  0
LINE
  8
_0-1_レイヤ___1
  6
CONTINUOUS
 62
    7
 10
2213.0065760481648
 20
1708.7046190370872
 11
2213.0065760481648
 21
1708.0707190370872
  0
LINE
  8
_0-1_レイヤ___1
  6
CONTINUOUS
 62
    7
 10
2213.0065760481648
 20
1708.0707190370872
 11
2213.0065760481648
 21
1707.4350990370872
  0
LINE
  8
_0-1_レイヤ___1
  6
CONTINUOUS
 62
    7
 10
2213.0065760481648
 20
1704.4705990370871
 11
2213.0065760481648
 21
1703.8366990370873
  0
LINE
  8
_0-1_レイヤ___1
  6
CONTINUOUS
 62
    7
 10
2213.0065760481648
 20
1703.8366990370873
 11
2213.0065760481648
 21
1703.2010790370873
  0
LINE
  8
_0-1_レイヤ___1
  6
CONTINUOUS
 62
    7
 10
2213.0065760481648
 20
1700.2382990370872
 11
2213.0065760481648
 21
1693.8872590370872
  0
LINE
  8
_0-1_レイヤ___1
  6
CONTINUOUS
 62
    7
 10
2213.0065760481648
 20
1693.8872590370872
 11
2213.0065760481648
 21
1687.5379490370872
  0
LINE
  8
_0-1_レイヤ___1
  6
CONTINUOUS
 62
    7
 10
2213.0065760481648
 20
1683.3039290370871
 11
2213.0065760481648
 21
1682.6700290370873
  0
LINE
  8
_0-1_レイヤ___1
  6
CONTINUOUS
 62
    7
 10
2213.0065760481648
 20
1682.6700290370873
 11
2213.0065760481648
 21
1682.0344090370872
  0
LINE
  8
_0-1_レイヤ___1
  6
CONTINUOUS
 62
    7
 10
2213.0065760481648
 20
1679.0716290370872
 11
2213.0065760481648
 21
1678.4360090370874
  0
LINE
  8
_0-1_レイヤ___1
  6
CONTINUOUS
 62
    7
 10
2213.0065760481648
 20
1678.4360090370874
 11
2213.0065760481648
 21
1677.8021090370871
  0
LINE
  8
_0-1_レイヤ___1
  6
CONTINUOUS
 62
    7
 10
2213.0065760481648
 20
1676.9546190370872
 11
2213.0065760481648
 21
1676.5308690370873
  0
LINE
  8
_0-1_レイヤ___1
  6
CONTINUOUS
 62
    7
 10
2213.0065760481648
 20
1676.5308690370873
 11
2213.0065760481648
 21
1676.1071290370874
  0
LINE
  8
_0-1_レイヤ___1
  6
CONTINUOUS
 62
    7
 10
2175.327566048165
 20
1713.784409037087
 11
2181.680316048165
 21
1713.784409037087
  0
LINE
  8
_0-1_レイヤ___1
  6
CONTINUOUS
 62
    7
 10
2181.680316048165
 20
1713.784409037087
 11
2188.0296360481648
 21
1713.784409037087
  0
LINE
  8
_0-1_レイヤ___1
  6
CONTINUOUS
 62
    7
 10
2192.2636560481651
 20
1713.784409037087
 11
2192.8975560481649
 21
1713.784409037087
  0
LINE
  8
_0-1_レイヤ___1
  6
CONTINUOUS
 62
    7
 10
2192.8975560481649
 20
1713.784409037087
 11
2193.531446048165
 21
1713.784409037087
  0
LINE
  8
_0-1_レイヤ___1
  6
CONTINUOUS
 62
    7
 10
2196.494236048165
 20
1713.784409037087
 11
2197.1281260481651
 21
1713.784409037087
  0
LINE
  8
_0-1_レイヤ___1
  6
CONTINUOUS
 62
    7
 10
2197.1281260481651
 20
1713.784409037087
 11
2197.7654760481646
 21
1713.784409037087
  0
LINE
  8
_0-1_レイヤ___1
  6
CONTINUOUS
 62
    7
 10
2200.7282560481649
 20
1713.784409037087
 11
2207.077566048165
 21
1713.784409037087
  0
LINE
  8
_0-1_レイヤ___1
  6
CONTINUOUS
 62
    7
 10
2207.077566048165
 20
1713.784409037087
 11
2213.430316048165
 21
1713.784409037087
  0
LINE
  8
_0-1_レイヤ___1
  6
CONTINUOUS
 62
    7
 10
2217.6608960481649
 20
1713.784409037087
 11
2218.2947960481647
 21
1713.784409037087
  0
LINE
  8
_0-1_レイヤ___1
  6
CONTINUOUS
 62
    7
 10
2218.2947960481647
 20
1713.784409037087
 11
2218.9321360481649
 21
1713.784409037087
  0
LINE
  8
_0-1_レイヤ___1
  6
CONTINUOUS
 62
    7
 10
2221.8949160481648
 20
1713.784409037087
 11
2222.5322660481647
 21
1713.784409037087
  0
LINE
  8
_0-1_レイヤ___1
  6
CONTINUOUS
 62
    7
 10
2222.5322660481647
 20
1713.784409037087
 11
2223.1661560481648
 21
1713.784409037087
  0
LINE
  8
_0-1_レイヤ___1
  6
CONTINUOUS
 62
    7
 10
2226.1289460481648
 20
1713.784409037087
 11
2232.4782560481649
 21
1713.784409037087
  0
LINE
  8
_0-1_レイヤ___1
  6
CONTINUOUS
 62
    7
 10
2232.4782560481649
 20
1713.784409037087
 11
2238.827566048165
 21
1713.784409037087
  0
LINE
  8
_0-1_レイヤ___1
  6
CONTINUOUS
 62
    7
 10
2243.0615860481648
 20
1713.784409037087
 11
2243.6989260481646
 21
1713.784409037087
  0
LINE
  8
_0-1_レイヤ___1
  6
CONTINUOUS
 62
    7
 10
2243.6989260481646
 20
1713.784409037087
 11
2244.3328260481649
 21
1713.784409037087
  0
LINE
  8
_0-1_レイヤ___1
  6
CONTINUOUS
 62
    7
 10
2247.2956060481647
 20
1713.784409037087
 11
2247.9295060481645
 21
1713.784409037087
  0
LINE
  8
_0-1_レイヤ___1
  6
CONTINUOUS
 62
    7
 10
2247.9295060481645
 20
1713.784409037087
 11
2248.5668460481647
 21
1713.784409037087
  0
LINE
  8
_0-1_レイヤ___1
  6
CONTINUOUS
 62
    7
 10
2249.4108960481649
 20
1713.784409037087
 11
2249.8346460481648
 21
1713.784409037087
  0
LINE
  8
_0-1_レイヤ___1
  6
CONTINUOUS
 62
    7
 10
2249.8346460481648
 20
1713.784409037087
 11
2250.2583960481647
 21
1713.784409037087
  0
LINE
  8
_0-1_レイヤ___1
  6
CONTINUOUS
 62
    5
 10
2676.1307560481646
 20
1968.6319090370873
 11
2142.3097660481649
 21
1968.6319090370873
  0
LINE
  8
_0-1_レイヤ___1
  6
CONTINUOUS
 62
    5
 10
2142.3097660481649
 20
1968.6319090370873
 11
1608.4853360481648
 21
1968.6319090370873
  0
LINE
  8
_0-1_レイヤ___1
  6
CONTINUOUS
 62
    5
 10
1608.4853360481648
 20
1968.6319090370873
 11
1608.4853360481648
 21
1570.6975390370872
  0
LINE
  8
_0-1_レイヤ___1
  6
CONTINUOUS
 62
    5
 10
1608.4853360481648
 20
1570.6975390370872
 11
1608.4853360481648
 21
1172.7648990370872
  0
LINE
  8
_0-1_レイヤ___1
  6
CONTINUOUS
 62
    5
 10
1608.4853360481648
 20
1172.7648990370872
 11
2142.3097660481649
 21
1172.7648990370872
  0
LINE
  8
_0-1_レイヤ___1
  6
CONTINUOUS
 62
    5
 10
2142.3097660481649
 20
1172.7648990370872
 11
2676.1307560481646
 21
1172.7648990370872
  0
LINE
  8
_0-1_レイヤ___1
  6
CONTINUOUS
 62
    5
 10
2676.1307560481646
 20
1172.7648990370872
 11
2676.1307560481646
 21
1570.6975390370872
  0
LINE
  8
_0-1_レイヤ___1
  6
CONTINUOUS
 62
    5
 10
2676.1307560481646
 20
1570.6975390370872
 11
2676.1307560481646
 21
1968.6319090370873
  0
LINE
  8
_0-1_レイヤ___1
  6
CONTINUOUS
 62
    5
 10
2110.9835160481648
 20
1472.4847590370871
 11
2110.9835160481648
 21
1456.6097590370873
  0
LINE
  8
_0-1_レイヤ___1
  6
CONTINUOUS
 62
    5
 10
2110.9835160481648
 20
1456.6097590370873
 11
2110.9835160481648
 21
1440.7347590370873
  0
LINE
  8
_0-1_レイヤ___1
  6
CONTINUOUS
 62
    5
 10
2110.9835160481648
 20
1430.1514190370872
 11
2110.9835160481648
 21
1428.4581590370872
  0
LINE
  8
_0-1_レイヤ___1
  6
CONTINUOUS
 62
    5
 10
2110.9835160481648
 20
1428.4581590370872
 11
2110.9835160481648
 21
1426.7648990370872
  0
LINE
  8
_0-1_レイヤ___1
  6
CONTINUOUS
 62
    5
 10
2110.9835160481648
 20
1419.5680890370872
 11
2110.9835160481648
 21
1403.6930890370872
  0
LINE
  8
_0-1_レイヤ___1
  6
CONTINUOUS
 62
    5
 10
2110.9835160481648
 20
1403.6930890370872
 11
2110.9835160481648
 21
1387.818089037087
  0
LINE
  8
_0-1_レイヤ___1
  6
CONTINUOUS
 62
    5
 10
2110.9835160481648
 20
1377.2347590370873
 11
2110.9835160481648
 21
1375.5414890370871
  0
LINE
  8
_0-1_レイヤ___1
  6
CONTINUOUS
 62
    5
 10
2110.9835160481648
 20
1375.5414890370871
 11
2110.9835160481648
 21
1373.8482290370871
  0
LINE
  8
_0-1_レイヤ___1
  6
CONTINUOUS
 62
    5
 10
2110.9835160481648
 20
1366.6514190370872
 11
2110.9835160481648
 21
1350.7764190370872
  0
LINE
  8
_0-1_レイヤ___1
  6
CONTINUOUS
 62
    5
 10
2110.9835160481648
 20
1350.7764190370872
 11
2110.9835160481648
 21
1334.9014190370872
  0
LINE
  8
_0-1_レイヤ___1
  6
CONTINUOUS
 62
    5
 10
2110.9835160481648
 20
1324.3180890370872
 11
2110.9835160481648
 21
1322.6248290370872
  0
LINE
  8
_0-1_レイヤ___1
  6
CONTINUOUS
 62
    5
 10
2110.9835160481648
 20
1322.6248290370872
 11
2110.9835160481648
 21
1320.9315590370873
  0
LINE
  8
_0-1_レイヤ___1
  6
CONTINUOUS
 62
    5
 10
2110.9835160481648
 20
1313.7347590370871
 11
2110.9835160481648
 21
1303.3632990370872
  0
LINE
  8
_0-1_レイヤ___1
  6
CONTINUOUS
 62
    5
 10
2110.9835160481648
 20
1303.3632990370872
 11
2110.9835160481648
 21
1292.9918390370872
  0
LINE
  8
_0-1_レイヤ___1
  6
CONTINUOUS
 62
    5
 10
2372.180316048165
 20
1343.7914890370871
 11
2442.0296360481648
 21
1343.7914890370871
  0
LINE
  8
_0-1_レイヤ___1
  6
CONTINUOUS
 62
    5
 10
2442.0296360481648
 20
1343.7914890370871
 11
2511.8789460481648
 21
1343.7914890370871
  0
LINE
  8
_0-1_レイヤ___1
  6
CONTINUOUS
 62
    5
 10
2442.4533760481645
 20
1422.5308690370871
 11
2477.1661560481648
 21
1422.5308690370871
  0
LINE
  8
_0-1_レイヤ___1
  6
CONTINUOUS
 62
    5
 10
2477.1661560481648
 20
1422.5308690370871
 11
2511.8789460481648
 21
1422.5308690370871
  0
LINE
  8
_0-1_レイヤ___1
  6
CONTINUOUS
 62
    5
 10
2502.1431060481646
 20
1343.7914890370871
 11
2502.1431060481646
 21
1314.5822490370872
  0
LINE
  8
_0-1_レイヤ___1
  6
CONTINUOUS
 62
    5
 10
2502.1431060481646
 20
1314.5822490370872
 11
2502.1431060481646
 21
1285.3712890370871
  0
LINE
  8
_0-1_レイヤ___1
  6
CONTINUOUS
 62
    5
 10
2505.953376048165
 20
1343.579619037087
 11
2504.840616048165
 21
1346.1220990370873
  0
LINE
  8
_0-1_レイヤ___1
  6
CONTINUOUS
 62
    5
 10
2504.840616048165
 20
1346.1220990370873
 11
2502.1431060481646
 21
1347.1780190370873
  0
LINE
  8
_0-1_レイヤ___1
  6
CONTINUOUS
 62
    5
 10
2502.1431060481646
 20
1347.1780190370873
 11
2499.4421460481649
 21
1346.1220990370873
  0
LINE
  8
_0-1_レイヤ___1
  6
CONTINUOUS
 62
    5
 10
2499.4421460481649
 20
1346.1220990370873
 11
2498.3328260481649
 21
1343.579619037087
  0
LINE
  8
_0-1_レイヤ___1
  6
CONTINUOUS
 62
    5
 10
2498.3328260481649
 20
1343.579619037087
 11
2499.4421460481649
 21
1341.0371390370872
  0
LINE
  8
_0-1_レイヤ___1
  6
CONTINUOUS
 62
    5
 10
2499.4421460481649
 20
1341.0371390370872
 11
2502.1431060481646
 21
1339.9812190370872
  0
LINE
  8
_0-1_レイヤ___1
  6
CONTINUOUS
 62
    5
 10
2502.1431060481646
 20
1339.9812190370872
 11
2504.840616048165
 21
1341.0371390370872
  0
LINE
  8
_0-1_レイヤ___1
  6
CONTINUOUS
 62
    5
 10
2504.840616048165
 20
1341.0371390370872
 11
2505.953376048165
 21
1343.579619037087
  0
LINE
  8
_0-1_レイヤ___1
  6
CONTINUOUS
 62
    5
 10
2505.953376048165
 20
1422.5308690370871
 11
2504.840616048165
 21
1425.2197690370872
  0
LINE
  8
_0-1_レイヤ___1
  6
CONTINUOUS
 62
    5
 10
2504.840616048165
 20
1425.2197690370872
 11
2502.1431060481646
 21
1426.341149037087
  0
LINE
  8
_0-1_レイヤ___1
  6
CONTINUOUS
 62
    5
 10
2502.1431060481646
 20
1426.341149037087
 11
2499.4421460481649
 21
1425.2197690370872
  0
LINE
  8
_0-1_レイヤ___1
  6
CONTINUOUS
 62
    5
 10
2499.4421460481649
 20
1425.2197690370872
 11
2498.3328260481649
 21
1422.5308690370871
  0
LINE
  8
_0-1_レイヤ___1
  6
CONTINUOUS
 62
    5
 10
2498.3328260481649
 20
1422.5308690370871
 11
2499.4421460481649
 21
1419.8419790370872
  0
LINE
  8
_0-1_レイヤ___1
  6
CONTINUOUS
 62
    5
 10
2499.4421460481649
 20
1419.8419790370872
 11
2502.1431060481646
 21
1418.7205990370874
  0
LINE
  8
_0-1_レイヤ___1
  6
CONTINUOUS
 62
    5
 10
2502.1431060481646
 20
1418.7205990370874
 11
2504.840616048165
 21
1419.8419790370872
  0
LINE
  8
_0-1_レイヤ___1
  6
CONTINUOUS
 62
    5
 10
2504.840616048165
 20
1419.8419790370872
 11
2505.953376048165
 21
1422.5308690370871
  0
LINE
  8
_0-1_レイヤ___1
  6
CONTINUOUS
 62
    5
 10
2502.1431060481646
 20
1343.7914890370871
 11
2502.1431060481646
 21
1383.1603190370874
  0
LINE
  8
_0-1_レイヤ___1
  6
CONTINUOUS
 62
    5
 10
2502.1431060481646
 20
1383.1603190370874
 11
2502.1431060481646
 21
1422.5308690370871
  0
LINE
  8
_0-1_レイヤ___1
  6
CONTINUOUS
 62
    5
 10
2008.9604560481648
 20
1404.7507390370874
 11
2008.9604560481648
 21
1439.6771090370871
  0
LINE
  8
_0-1_レイヤ___1
  6
CONTINUOUS
 62
    5
 10
2008.9604560481648
 20
1439.6771090370871
 11
2008.9604560481648
 21
1474.6017690370873
  0
LINE
  8
_0-1_レイヤ___1
  6
CONTINUOUS
 62
    5
 10
2110.9835160481648
 20
1463.5946890370872
 11
2110.9835160481648
 21
1469.0982290370871
  0
LINE
  8
_0-1_レイヤ___1
  6
CONTINUOUS
 62
    5
 10
2110.9835160481648
 20
1469.0982290370871
 11
2110.9835160481648
 21
1474.6017690370873
  0
LINE
  8
_0-1_レイヤ___1
  6
CONTINUOUS
 62
    5
 10
2012.3469860481648
 20
1464.6523290370872
 11
2011.2996760481647
 21
1467.1965390370872
  0
LINE
  8
_0-1_レイヤ___1
  6
CONTINUOUS
 62
    5
 10
2011.2996760481647
 20
1467.1965390370872
 11
2008.7468660481647
 21
1468.2507390370872
  0
LINE
  8
_0-1_レイヤ___1
  6
CONTINUOUS
 62
    5
 10
2008.7468660481647
 20
1468.2507390370872
 11
2006.1940460481649
 21
1467.1965390370872
  0
LINE
  8
_0-1_レイヤ___1
  6
CONTINUOUS
 62
    5
 10
2006.1940460481649
 20
1467.1965390370872
 11
2005.1501860481649
 21
1464.6523290370872
  0
LINE
  8
_0-1_レイヤ___1
  6
CONTINUOUS
 62
    5
 10
2005.1501860481649
 20
1464.6523290370872
 11
2006.1940460481649
 21
1462.1081290370873
  0
LINE
  8
_0-1_レイヤ___1
  6
CONTINUOUS
 62
    5
 10
2006.1940460481649
 20
1462.1081290370873
 11
2008.7468660481647
 21
1461.0539290370871
  0
LINE
  8
_0-1_レイヤ___1
  6
CONTINUOUS
 62
    5
 10
2008.7468660481647
 20
1461.0539290370871
 11
2011.2996760481647
 21
1462.1081290370873
  0
LINE
  8
_0-1_レイヤ___1
  6
CONTINUOUS
 62
    5
 10
2011.2996760481647
 20
1462.1081290370873
 11
2012.3469860481648
 21
1464.6523290370872
  0
LINE
  8
_0-1_レイヤ___1
  6
CONTINUOUS
 62
    5
 10
2114.370046048165
 20
1464.6523290370872
 11
2113.3227360481651
 21
1467.1965390370872
  0
LINE
  8
_0-1_レイヤ___1
  6
CONTINUOUS
 62
    5
 10
2113.3227360481651
 20
1467.1965390370872
 11
2110.7699160481648
 21
1468.2507390370872
  0
LINE
  8
_0-1_レイヤ___1
  6
CONTINUOUS
 62
    5
 10
2110.7699160481648
 20
1468.2507390370872
 11
2108.2171060481646
 21
1467.1965390370872
  0
LINE
  8
_0-1_レイヤ___1
  6
CONTINUOUS
 62
    5
 10
2108.2171060481646
 20
1467.1965390370872
 11
2107.1732360481647
 21
1464.6523290370872
  0
LINE
  8
_0-1_レイヤ___1
  6
CONTINUOUS
 62
    5
 10
2107.1732360481647
 20
1464.6523290370872
 11
2108.2171060481646
 21
1462.1081290370873
  0
LINE
  8
_0-1_レイヤ___1
  6
CONTINUOUS
 62
    5
 10
2108.2171060481646
 20
1462.1081290370873
 11
2110.7699160481648
 21
1461.0539290370871
  0
LINE
  8
_0-1_レイヤ___1
  6
CONTINUOUS
 62
    5
 10
2110.7699160481648
 20
1461.0539290370871
 11
2113.3227360481651
 21
1462.1081290370873
  0
LINE
  8
_0-1_レイヤ___1
  6
CONTINUOUS
 62
    5
 10
2113.3227360481651
 20
1462.1081290370873
 11
2114.370046048165
 21
1464.6523290370872
  0
LINE
  8
_0-1_レイヤ___1
  6
CONTINUOUS
 62
    5
 10
2008.9604560481648
 20
1464.4404590370871
 11
2059.9719860481646
 21
1464.4404590370871
  0
LINE
  8
_0-1_レイヤ___1
  6
CONTINUOUS
 62
    5
 10
2059.9719860481646
 20
1464.4404590370871
 11
2110.9835160481648
 21
1464.4404590370871
  0
LINE
  8
_0-1_レイヤ___1
  6
CONTINUOUS
 62
    5
 10
2110.9835160481648
 20
1466.9812190370872
 11
2110.9835160481648
 21
1460.8437790370872
  0
LINE
  8
_0-1_レイヤ___1
  6
CONTINUOUS
 62
    5
 10
2110.9835160481648
 20
1460.8437790370872
 11
2110.9835160481648
 21
1454.7046190370872
  0
LINE
  8
_0-1_レイヤ___1
  6
CONTINUOUS
 62
    5
 10
2213.0065760481648
 20
1429.3039290370871
 11
2213.0065760481648
 21
1451.9519890370873
  0
LINE
  8
_0-1_レイヤ___1
  6
CONTINUOUS
 62
    5
 10
2213.0065760481648
 20
1451.9519890370873
 11
2213.0065760481648
 21
1474.6017690370873
  0
LINE
  8
_0-1_レイヤ___1
  6
CONTINUOUS
 62
    5
 10
2114.370046048165
 20
1464.6523290370872
 11
2113.3227360481651
 21
1467.1965390370872
  0
LINE
  8
_0-1_レイヤ___1
  6
CONTINUOUS
 62
    5
 10
2113.3227360481651
 20
1467.1965390370872
 11
2110.7699160481648
 21
1468.2507390370872
  0
LINE
  8
_0-1_レイヤ___1
  6
CONTINUOUS
 62
    5
 10
2110.7699160481648
 20
1468.2507390370872
 11
2108.2171060481646
 21
1467.1965390370872
  0
LINE
  8
_0-1_レイヤ___1
  6
CONTINUOUS
 62
    5
 10
2108.2171060481646
 20
1467.1965390370872
 11
2107.1732360481647
 21
1464.6523290370872
  0
LINE
  8
_0-1_レイヤ___1
  6
CONTINUOUS
 62
    5
 10
2107.1732360481647
 20
1464.6523290370872
 11
2108.2171060481646
 21
1462.1081290370873
  0
LINE
  8
_0-1_レイヤ___1
  6
CONTINUOUS
 62
    5
 10
2108.2171060481646
 20
1462.1081290370873
 11
2110.7699160481648
 21
1461.0539290370871
  0
LINE
  8
_0-1_レイヤ___1
  6
CONTINUOUS
 62
    5
 10
2110.7699160481648
 20
1461.0539290370871
 11
2113.3227360481651
 21
1462.1081290370873
  0
LINE
  8
_0-1_レイヤ___1
  6
CONTINUOUS
 62
    5
 10
2113.3227360481651
 20
1462.1081290370873
 11
2114.370046048165
 21
1464.6523290370872
  0
LINE
  8
_0-1_レイヤ___1
  6
CONTINUOUS
 62
    5
 10
2216.3931060481646
 20
1464.6523290370872
 11
2215.3457960481646
 21
1467.1965390370872
  0
LINE
  8
_0-1_レイヤ___1
  6
CONTINUOUS
 62
    5
 10
2215.3457960481646
 20
1467.1965390370872
 11
2212.7929760481647
 21
1468.2507390370872
  0
LINE
  8
_0-1_レイヤ___1
  6
CONTINUOUS
 62
    5
 10
2212.7929760481647
 20
1468.2507390370872
 11
2210.2401660481651
 21
1467.1965390370872
  0
LINE
  8
_0-1_レイヤ___1
  6
CONTINUOUS
 62
    5
 10
2210.2401660481651
 20
1467.1965390370872
 11
2209.1962960481651
 21
1464.6523290370872
  0
LINE
  8
_0-1_レイヤ___1
  6
CONTINUOUS
 62
    5
 10
2209.1962960481651
 20
1464.6523290370872
 11
2210.2401660481651
 21
1462.1081290370873
  0
LINE
  8
_0-1_レイヤ___1
  6
CONTINUOUS
 62
    5
 10
2210.2401660481651
 20
1462.1081290370873
 11
2212.7929760481647
 21
1461.0539290370871
  0
LINE
  8
_0-1_レイヤ___1
  6
CONTINUOUS
 62
    5
 10
2212.7929760481647
 20
1461.0539290370871
 11
2215.3457960481646
 21
1462.1081290370873
  0
LINE
  8
_0-1_レイヤ___1
  6
CONTINUOUS
 62
    5
 10
2215.3457960481646
 20
1462.1081290370873
 11
2216.3931060481646
 21
1464.6523290370872
  0
LINE
  8
_0-1_レイヤ___1
  6
CONTINUOUS
 62
    5
 10
2110.9835160481648
 20
1464.4404590370871
 11
2161.995046048165
 21
1464.4404590370871
  0
LINE
  8
_0-1_レイヤ___1
  6
CONTINUOUS
 62
    5
 10
2161.995046048165
 20
1464.4404590370871
 11
2213.0065760481648
 21
1464.4404590370871
  0
LINE
  8
_0-1_レイヤ___1
  6
CONTINUOUS
 62
    5
 10
1787.5545060481647
 20
1517.3571290370874
 11
1852.3257460481648
 21
1517.3571290370874
  0
LINE
  8
_0-1_レイヤ___1
  6
CONTINUOUS
 62
    5
 10
1852.3257460481648
 20
1517.3571290370874
 11
1917.0969860481648
 21
1517.3571290370874
  0
LINE
  8
_0-1_レイヤ___1
  6
CONTINUOUS
 62
    5
 10
2003.8789460481648
 20
1366.6514190370872
 11
2001.3364660481648
 21
1376.6008590370873
  0
LINE
  8
_0-1_レイヤ___1
  6
CONTINUOUS
 62
    5
 10
2001.3364660481648
 20
1376.6008590370873
 11
1998.7974260481647
 21
1386.5485690370872
  0
LINE
  8
_0-1_レイヤ___1
  6
CONTINUOUS
 62
    5
 10
1998.7974260481647
 20
1386.5485690370872
 11
1994.1431060481648
 21
1383.7976590370872
  0
LINE
  8
_0-1_レイヤ___1
  6
CONTINUOUS
 62
    5
 10
1994.1431060481648
 20
1383.7976590370872
 11
1989.4853360481648
 21
1381.0450290370873
  0
LINE
  8
_0-1_レイヤ___1
  6
CONTINUOUS
 62
    5
 10
1989.4853360481648
 20
1381.0450290370873
 11
1996.6821360481649
 21
1373.8482290370871
  0
LINE
  8
_0-1_レイヤ___1
  6
CONTINUOUS
 62
    5
 10
1996.6821360481649
 20
1373.8482290370871
 11
2003.8789460481648
 21
1366.6514190370872
  0
LINE
  8
_0-1_レイヤ___1
  6
CONTINUOUS
 62
    5
 10
1917.0969860481648
 20
1517.3571290370874
 11
1958.1590760481649
 21
1446.2365690370871
  0
LINE
  8
_0-1_レイヤ___1
  6
CONTINUOUS
 62
    5
 10
1958.1590760481649
 20
1446.2365690370871
 11
1999.221176048165
 21
1375.1177490370874
  0
LINE
  8
_0-1_レイヤ___1
  6
CONTINUOUS
 62
    5
 10
2008.9604560481648
 20
1343.7914890370871
 11
2024.8354560481648
 21
1343.7914890370871
  0
LINE
  8
_0-1_レイヤ___1
  6
CONTINUOUS
 62
    5
 10
2024.8354560481648
 20
1343.7914890370871
 11
2040.7104560481648
 21
1343.7914890370871
  0
LINE
  8
_0-1_レイヤ___1
  6
CONTINUOUS
 62
    5
 10
2051.2937960481649
 20
1343.7914890370871
 11
2052.9853360481648
 21
1343.7914890370871
  0
LINE
  8
_0-1_レイヤ___1
  6
CONTINUOUS
 62
    5
 10
2052.9853360481648
 20
1343.7914890370871
 11
2054.680316048165
 21
1343.7914890370871
  0
LINE
  8
_0-1_レイヤ___1
  6
CONTINUOUS
 62
    5
 10
2061.8771260481649
 20
1343.7914890370871
 11
2077.7521260481649
 21
1343.7914890370871
  0
LINE
  8
_0-1_レイヤ___1
  6
CONTINUOUS
 62
    5
 10
2077.7521260481649
 20
1343.7914890370871
 11
2093.6271260481649
 21
1343.7914890370871
  0
LINE
  8
_0-1_レイヤ___1
  6
CONTINUOUS
 62
    5
 10
2104.2104560481648
 20
1343.7914890370871
 11
2105.9019960481651
 21
1343.7914890370871
  0
LINE
  8
_0-1_レイヤ___1
  6
CONTINUOUS
 62
    5
 10
2105.9019960481651
 20
1343.7914890370871
 11
2107.596986048165
 21
1343.7914890370871
  0
LINE
  8
_0-1_レイヤ___1
  6
CONTINUOUS
 62
    5
 10
2114.7937960481649
 20
1343.7914890370871
 11
2130.6687960481649
 21
1343.7914890370871
  0
LINE
  8
_0-1_レイヤ___1
  6
CONTINUOUS
 62
    5
 10
2130.6687960481649
 20
1343.7914890370871
 11
2146.5437960481649
 21
1343.7914890370871
  0
LINE
  8
_0-1_レイヤ___1
  6
CONTINUOUS
 62
    5
 10
2157.1271260481649
 20
1343.7914890370871
 11
2158.8186660481647
 21
1343.7914890370871
  0
LINE
  8
_0-1_レイヤ___1
  6
CONTINUOUS
 62
    5
 10
2158.8186660481647
 20
1343.7914890370871
 11
2160.5136560481646
 21
1343.7914890370871
  0
LINE
  8
_0-1_レイヤ___1
  6
CONTINUOUS
 62
    5
 10
2167.7104560481648
 20
1343.7914890370871
 11
2183.5854560481648
 21
1343.7914890370871
  0
LINE
  8
_0-1_レイヤ___1
  6
CONTINUOUS
 62
    5
 10
2183.5854560481648
 20
1343.7914890370871
 11
2199.4604560481648
 21
1343.7914890370871
  0
LINE
  8
_0-1_レイヤ___1
  6
CONTINUOUS
 62
    5
 10
2210.0437960481649
 20
1343.7914890370871
 11
2211.7353360481648
 21
1343.7914890370871
  0
LINE
  8
_0-1_レイヤ___1
  6
CONTINUOUS
 62
    5
 10
2211.7353360481648
 20
1343.7914890370871
 11
2213.430316048165
 21
1343.7914890370871
  0
LINE
  8
_0-1_レイヤ___1
  6
CONTINUOUS
 62
    5
 10
2220.6271260481649
 20
1343.7914890370871
 11
2236.5021260481649
 21
1343.7914890370871
  0
LINE
  8
_0-1_レイヤ___1
  6
CONTINUOUS
 62
    5
 10
2236.5021260481649
 20
1343.7914890370871
 11
2252.3771260481649
 21
1343.7914890370871
  0
LINE
  8
_0-1_レイヤ___1
  6
CONTINUOUS
 62
    5
 10
2262.9604560481648
 20
1343.7914890370871
 11
2264.6519960481651
 21
1343.7914890370871
  0
LINE
  8
_0-1_レイヤ___1
  6
CONTINUOUS
 62
    5
 10
2264.6519960481651
 20
1343.7914890370871
 11
2266.346986048165
 21
1343.7914890370871
  0
LINE
  8
_0-1_レイヤ___1
  6
CONTINUOUS
 62
    5
 10
2273.5437960481649
 20
1343.7914890370871
 11
2289.4187960481649
 21
1343.7914890370871
  0
LINE
  8
_0-1_レイヤ___1
  6
CONTINUOUS
 62
    5
 10
2289.4187960481649
 20
1343.7914890370871
 11
2305.2937960481649
 21
1343.7914890370871
  0
LINE
  8
_0-1_レイヤ___1
  6
CONTINUOUS
 62
    5
 10
2313.7583960481647
 20
1343.7914890370871
 11
2314.1821360481649
 21
1343.7914890370871
  0
LINE
  8
_0-1_レイヤ___1
  6
CONTINUOUS
 62
    5
 10
2314.1821360481649
 20
1343.7914890370871
 11
2314.6058860481648
 21
1343.7914890370871
  0
LINE
  8
_0-1_レイヤ___1
  6
CONTINUOUS
 62
    5
 10
1787.5545060481647
 20
1887.3517690370873
 11
1852.3257460481648
 21
1887.3517690370873
  0
LINE
  8
_0-1_レイヤ___1
  6
CONTINUOUS
 62
    5
 10
1852.3257460481648
 20
1887.3517690370873
 11
1917.0969860481648
 21
1887.3517690370873
  0
LINE
  8
_0-1_レイヤ___1
  6
CONTINUOUS
 62
    5
 10
2004.7264360481649
 20
1734.9510790370871
 11
2002.1839560481649
 21
1745.1123890370873
  0
LINE
  8
_0-1_レイヤ___1
  6
CONTINUOUS
 62
    5
 10
2002.1839560481649
 20
1745.1123890370873
 11
1999.6449160481648
 21
1755.2719790370872
  0
LINE
  8
_0-1_レイヤ___1
  6
CONTINUOUS
 62
    5
 10
1999.6449160481648
 20
1755.2719790370872
 11
1994.9905960481649
 21
1752.5193390370873
  0
LINE
  8
_0-1_レイヤ___1
  6
CONTINUOUS
 62
    5
 10
1994.9905960481649
 20
1752.5193390370873
 11
1990.3328260481649
 21
1749.7684390370873
  0
LINE
  8
_0-1_レイヤ___1
  6
CONTINUOUS
 62
    5
 10
1990.3328260481649
 20
1749.7684390370873
 11
1997.5296360481648
 21
1742.3597590370873
  0
LINE
  8
_0-1_レイヤ___1
  6
CONTINUOUS
 62
    5
 10
1997.5296360481648
 20
1742.3597590370873
 11
2004.7264360481649
 21
1734.9510790370871
  0
LINE
  8
_0-1_レイヤ___1
  6
CONTINUOUS
 62
    5
 10
1917.0969860481648
 20
1887.3517690370873
 11
1958.5828260481649
 21
1815.3854490370873
  0
LINE
  8
_0-1_レイヤ___1
  6
CONTINUOUS
 62
    5
 10
1958.5828260481649
 20
1815.3854490370873
 11
2000.0686660481647
 21
1743.4173990370871
  0
LINE
  8
_0-1_レイヤ___1
  6
CONTINUOUS
 62
    5
 10
2314.6058860481648
 20
1400.9404590370873
 11
2314.6058860481648
 21
1437.7719790370872
  0
LINE
  8
_0-1_レイヤ___1
  6
CONTINUOUS
 62
    5
 10
2314.6058860481648
 20
1437.7719790370872
 11
2314.6058860481648
 21
1474.6017690370873
  0
LINE
  8
_0-1_レイヤ___1
  6
CONTINUOUS
 62
    5
 10
2213.0065760481648
 20
1400.9404590370873
 11
2213.0065760481648
 21
1437.7719790370872
  0
LINE
  8
_0-1_レイヤ___1
  6
CONTINUOUS
 62
    5
 10
2213.0065760481648
 20
1437.7719790370872
 11
2213.0065760481648
 21
1474.6017690370873
  0
LINE
  8
_0-1_レイヤ___1
  6
CONTINUOUS
 62
    5
 10
2318.4161560481648
 20
1464.6523290370872
 11
2317.3688560481646
 21
1467.1965390370872
  0
LINE
  8
_0-1_レイヤ___1
  6
CONTINUOUS
 62
    5
 10
2317.3688560481646
 20
1467.1965390370872
 11
2314.8160360481647
 21
1468.2507390370872
  0
LINE
  8
_0-1_レイヤ___1
  6
CONTINUOUS
 62
    5
 10
2314.8160360481647
 20
1468.2507390370872
 11
2312.2632160481648
 21
1467.1965390370872
  0
LINE
  8
_0-1_レイヤ___1
  6
CONTINUOUS
 62
    5
 10
2312.2632160481648
 20
1467.1965390370872
 11
2311.2193560481646
 21
1464.6523290370872
  0
LINE
  8
_0-1_レイヤ___1
  6
CONTINUOUS
 62
    5
 10
2311.2193560481646
 20
1464.6523290370872
 11
2312.2632160481648
 21
1462.1081290370873
  0
LINE
  8
_0-1_レイヤ___1
  6
CONTINUOUS
 62
    5
 10
2312.2632160481648
 20
1462.1081290370873
 11
2314.8160360481647
 21
1461.0539290370871
  0
LINE
  8
_0-1_レイヤ___1
  6
CONTINUOUS
 62
    5
 10
2314.8160360481647
 20
1461.0539290370871
 11
2317.3688560481646
 21
1462.1081290370873
  0
LINE
  8
_0-1_レイヤ___1
  6
CONTINUOUS
 62
    5
 10
2317.3688560481646
 20
1462.1081290370873
 11
2318.4161560481648
 21
1464.6523290370872
  0
LINE
  8
_0-1_レイヤ___1
  6
CONTINUOUS
 62
    5
 10
2216.3931060481646
 20
1464.6523290370872
 11
2215.3457960481646
 21
1467.1965390370872
  0
LINE
  8
_0-1_レイヤ___1
  6
CONTINUOUS
 62
    5
 10
2215.3457960481646
 20
1467.1965390370872
 11
2212.7929760481647
 21
1468.2507390370872
  0
LINE
  8
_0-1_レイヤ___1
  6
CONTINUOUS
 62
    5
 10
2212.7929760481647
 20
1468.2507390370872
 11
2210.2401660481651
 21
1467.1965390370872
  0
LINE
  8
_0-1_レイヤ___1
  6
CONTINUOUS
 62
    5
 10
2210.2401660481651
 20
1467.1965390370872
 11
2209.1962960481651
 21
1464.6523290370872
  0
LINE
  8
_0-1_レイヤ___1
  6
CONTINUOUS
 62
    5
 10
2209.1962960481651
 20
1464.6523290370872
 11
2210.2401660481651
 21
1462.1081290370873
  0
LINE
  8
_0-1_レイヤ___1
  6
CONTINUOUS
 62
    5
 10
2210.2401660481651
 20
1462.1081290370873
 11
2212.7929760481647
 21
1461.0539290370871
  0
LINE
  8
_0-1_レイヤ___1
  6
CONTINUOUS
 62
    5
 10
2212.7929760481647
 20
1461.0539290370871
 11
2215.3457960481646
 21
1462.1081290370873
  0
LINE
  8
_0-1_レイヤ___1
  6
CONTINUOUS
 62
    5
 10
2215.3457960481646
 20
1462.1081290370873
 11
2216.3931060481646
 21
1464.6523290370872
  0
LINE
  8
_0-1_レイヤ___1
  6
CONTINUOUS
 62
    5
 10
2314.6058860481648
 20
1464.4404590370871
 11
2263.8045060481645
 21
1464.4404590370871
  0
LINE
  8
_0-1_レイヤ___1
  6
CONTINUOUS
 62
    5
 10
2263.8045060481645
 20
1464.4404590370871
 11
2213.0065760481648
 21
1464.4404590370871
  0
LINE
  8
_0-1_レイヤ___1
  6
CONTINUOUS
 62
    5
 10
2110.9835160481648
 20
1842.4776790370875
 11
2110.9835160481648
 21
1826.6026790370872
  0
LINE
  8
_0-1_レイヤ___1
  6
CONTINUOUS
 62
    5
 10
2110.9835160481648
 20
1826.6026790370872
 11
2110.9835160481648
 21
1810.7276790370872
  0
LINE
  8
_0-1_レイヤ___1
  6
CONTINUOUS
 62
    5
 10
2110.9835160481648
 20
1800.1443390370873
 11
2110.9835160481648
 21
1798.4510790370871
  0
LINE
  8
_0-1_レイヤ___1
  6
CONTINUOUS
 62
    5
 10
2110.9835160481648
 20
1798.4510790370871
 11
2110.9835160481648
 21
1796.7578190370873
  0
LINE
  8
_0-1_レイヤ___1
  6
CONTINUOUS
 62
    5
 10
2110.9835160481648
 20
1789.5610090370872
 11
2110.9835160481648
 21
1773.6860090370872
  0
LINE
  8
_0-1_レイヤ___1
  6
CONTINUOUS
 62
    5
 10
2110.9835160481648
 20
1773.6860090370872
 11
2110.9835160481648
 21
1757.8110090370874
  0
LINE
  8
_0-1_レイヤ___1
  6
CONTINUOUS
 62
    5
 10
2110.9835160481648
 20
1747.2276790370872
 11
2110.9835160481648
 21
1745.5344090370872
  0
LINE
  8
_0-1_レイヤ___1
  6
CONTINUOUS
 62
    5
 10
2110.9835160481648
 20
1745.5344090370872
 11
2110.9835160481648
 21
1743.841149037087
  0
LINE
  8
_0-1_レイヤ___1
  6
CONTINUOUS
 62
    5
 10
2110.9835160481648
 20
1736.6443390370873
 11
2110.9835160481648
 21
1720.7693390370873
  0
LINE
  8
_0-1_レイヤ___1
  6
CONTINUOUS
 62
    5
 10
2110.9835160481648
 20
1720.7693390370873
 11
2110.9835160481648
 21
1704.8943390370871
  0
LINE
  8
_0-1_レイヤ___1
  6
CONTINUOUS
 62
    5
 10
2110.9835160481648
 20
1694.3110090370872
 11
2110.9835160481648
 21
1692.6177490370874
  0
LINE
  8
_0-1_レイヤ___1
  6
CONTINUOUS
 62
    5
 10
2110.9835160481648
 20
1692.6177490370874
 11
2110.9835160481648
 21
1690.9244790370872
  0
LINE
  8
_0-1_レイヤ___1
  6
CONTINUOUS
 62
    5
 10
2110.9835160481648
 20
1683.7276790370875
 11
2110.9835160481648
 21
1673.3562190370872
  0
LINE
  8
_0-1_レイヤ___1
  6
CONTINUOUS
 62
    5
 10
2110.9835160481648
 20
1673.3562190370872
 11
2110.9835160481648
 21
1662.9847590370873
  0
LINE
  8
_0-1_レイヤ___1
  6
CONTINUOUS
 62
    5
 10
2270.1572660481647
 20
1713.784409037087
 11
2391.018106048165
 21
1713.784409037087
  0
LINE
  8
_0-1_レイヤ___1
  6
CONTINUOUS
 62
    5
 10
2391.018106048165
 20
1713.784409037087
 11
2511.8789460481648
 21
1713.784409037087
  0
LINE
  8
_0-1_レイヤ___1
  6
CONTINUOUS
 62
    5
 10
2442.4533760481645
 20
1792.5237890370872
 11
2477.1661560481648
 21
1792.5237890370872
  0
LINE
  8
_0-1_レイヤ___1
  6
CONTINUOUS
 62
    5
 10
2477.1661560481648
 20
1792.5237890370872
 11
2511.8789460481648
 21
1792.5237890370872
  0
LINE
  8
_0-1_レイヤ___1
  6
CONTINUOUS
 62
    5
 10
2502.1431060481646
 20
1713.784409037087
 11
2502.1431060481646
 21
1684.5751690370871
  0
LINE
  8
_0-1_レイヤ___1
  6
CONTINUOUS
 62
    5
 10
2502.1431060481646
 20
1684.5751690370871
 11
2502.1431060481646
 21
1655.3642090370872
  0
LINE
  8
_0-1_レイヤ___1
  6
CONTINUOUS
 62
    5
 10
2505.953376048165
 20
1713.5725390370872
 11
2504.840616048165
 21
1716.1150190370872
  0
LINE
  8
_0-1_レイヤ___1
  6
CONTINUOUS
 62
    5
 10
2504.840616048165
 20
1716.1150190370872
 11
2502.1431060481646
 21
1717.1709390370872
  0
LINE
  8
_0-1_レイヤ___1
  6
CONTINUOUS
 62
    5
 10
2502.1431060481646
 20
1717.1709390370872
 11
2499.4421460481649
 21
1716.1150190370872
  0
LINE
  8
_0-1_レイヤ___1
  6
CONTINUOUS
 62
    5
 10
2499.4421460481649
 20
1716.1150190370872
 11
2498.3328260481649
 21
1713.5725390370872
  0
LINE
  8
_0-1_レイヤ___1
  6
CONTINUOUS
 62
    5
 10
2498.3328260481649
 20
1713.5725390370872
 11
2499.4421460481649
 21
1711.0300590370871
  0
LINE
  8
_0-1_レイヤ___1
  6
CONTINUOUS
 62
    5
 10
2499.4421460481649
 20
1711.0300590370871
 11
2502.1431060481646
 21
1709.9741390370873
  0
LINE
  8
_0-1_レイヤ___1
  6
CONTINUOUS
 62
    5
 10
2502.1431060481646
 20
1709.9741390370873
 11
2504.840616048165
 21
1711.0300590370871
  0
LINE
  8
_0-1_レイヤ___1
  6
CONTINUOUS
 62
    5
 10
2504.840616048165
 20
1711.0300590370871
 11
2505.953376048165
 21
1713.5725390370872
  0
LINE
  8
_0-1_レイヤ___1
  6
CONTINUOUS
 62
    5
 10
2505.953376048165
 20
1792.5237890370872
 11
2504.840616048165
 21
1795.2126890370871
  0
LINE
  8
_0-1_レイヤ___1
  6
CONTINUOUS
 62
    5
 10
2504.840616048165
 20
1795.2126890370871
 11
2502.1431060481646
 21
1796.3340690370874
  0
LINE
  8
_0-1_レイヤ___1
  6
CONTINUOUS
 62
    5
 10
2502.1431060481646
 20
1796.3340690370874
 11
2499.4421460481649
 21
1795.2126890370871
  0
LINE
  8
_0-1_レイヤ___1
  6
CONTINUOUS
 62
    5
 10
2499.4421460481649
 20
1795.2126890370871
 11
2498.3328260481649
 21
1792.5237890370872
  0
LINE
  8
_0-1_レイヤ___1
  6
CONTINUOUS
 62
    5
 10
2498.3328260481649
 20
1792.5237890370872
 11
2499.4421460481649
 21
1789.8366190370871
  0
LINE
  8
_0-1_レイヤ___1
  6
CONTINUOUS
 62
    5
 10
2499.4421460481649
 20
1789.8366190370871
 11
2502.1431060481646
 21
1788.7152390370873
  0
LINE
  8
_0-1_レイヤ___1
  6
CONTINUOUS
 62
    5
 10
2502.1431060481646
 20
1788.7152390370873
 11
2504.840616048165
 21
1789.8366190370871
  0
LINE
  8
_0-1_レイヤ___1
  6
CONTINUOUS
 62
    5
 10
2504.840616048165
 20
1789.8366190370871
 11
2505.953376048165
 21
1792.5237890370872
  0
LINE
  8
_0-1_レイヤ___1
  6
CONTINUOUS
 62
    5
 10
2502.1431060481646
 20
1713.784409037087
 11
2502.1431060481646
 21
1753.1532390370874
  0
LINE
  8
_0-1_レイヤ___1
  6
CONTINUOUS
 62
    5
 10
2502.1431060481646
 20
1753.1532390370874
 11
2502.1431060481646
 21
1792.5237890370872
  0
LINE
  8
_0-1_レイヤ___1
  6
CONTINUOUS
 62
    5
 10
2008.9604560481648
 20
1774.7436490370874
 11
2008.9604560481648
 21
1809.6700290370873
  0
LINE
  8
_0-1_レイヤ___1
  6
CONTINUOUS
 62
    5
 10
2008.9604560481648
 20
1809.6700290370873
 11
2008.9604560481648
 21
1844.5946890370872
  0
LINE
  8
_0-1_レイヤ___1
  6
CONTINUOUS
 62
    5
 10
2110.9835160481648
 20
1833.5876090370871
 11
2110.9835160481648
 21
1839.0911490370872
  0
LINE
  8
_0-1_レイヤ___1
  6
CONTINUOUS
 62
    5
 10
2110.9835160481648
 20
1839.0911490370872
 11
2110.9835160481648
 21
1844.5946890370872
  0
LINE
  8
_0-1_レイヤ___1
  6
CONTINUOUS
 62
    5
 10
2012.3469860481648
 20
1834.6469790370872
 11
2011.2996760481647
 21
1837.1894590370871
  0
LINE
  8
_0-1_レイヤ___1
  6
CONTINUOUS
 62
    5
 10
2011.2996760481647
 20
1837.1894590370871
 11
2008.7468660481647
 21
1838.2436490370874
  0
LINE
  8
_0-1_レイヤ___1
  6
CONTINUOUS
 62
    5
 10
2008.7468660481647
 20
1838.2436490370874
 11
2006.1940460481649
 21
1837.1894590370871
  0
LINE
  8
_0-1_レイヤ___1
  6
CONTINUOUS
 62
    5
 10
2006.1940460481649
 20
1837.1894590370871
 11
2005.1501860481649
 21
1834.6469790370872
  0
LINE
  8
_0-1_レイヤ___1
  6
CONTINUOUS
 62
    5
 10
2005.1501860481649
 20
1834.6469790370872
 11
2006.1940460481649
 21
1832.1044890370872
  0
LINE
  8
_0-1_レイヤ___1
  6
CONTINUOUS
 62
    5
 10
2006.1940460481649
 20
1832.1044890370872
 11
2008.7468660481647
 21
1831.048569037087
  0
LINE
  8
_0-1_レイヤ___1
  6
CONTINUOUS
 62
    5
 10
2008.7468660481647
 20
1831.048569037087
 11
2011.2996760481647
 21
1832.1044890370872
  0
LINE
  8
_0-1_レイヤ___1
  6
CONTINUOUS
 62
    5
 10
2011.2996760481647
 20
1832.1044890370872
 11
2012.3469860481648
 21
1834.6469790370872
  0
LINE
  8
_0-1_レイヤ___1
  6
CONTINUOUS
 62
    5
 10
2114.370046048165
 20
1834.6469790370872
 11
2113.3227360481651
 21
1837.1894590370871
  0
LINE
  8
_0-1_レイヤ___1
  6
CONTINUOUS
 62
    5
 10
2113.3227360481651
 20
1837.1894590370871
 11
2110.7699160481648
 21
1838.2436490370874
  0
LINE
  8
_0-1_レイヤ___1
  6
CONTINUOUS
 62
    5
 10
2110.7699160481648
 20
1838.2436490370874
 11
2108.2171060481646
 21
1837.1894590370871
  0
LINE
  8
_0-1_レイヤ___1
  6
CONTINUOUS
 62
    5
 10
2108.2171060481646
 20
1837.1894590370871
 11
2107.1732360481647
 21
1834.6469790370872
  0
LINE
  8
_0-1_レイヤ___1
  6
CONTINUOUS
 62
    5
 10
2107.1732360481647
 20
1834.6469790370872
 11
2108.2171060481646
 21
1832.1044890370872
  0
LINE
  8
_0-1_レイヤ___1
  6
CONTINUOUS
 62
    5
 10
2108.2171060481646
 20
1832.1044890370872
 11
2110.7699160481648
 21
1831.048569037087
  0
LINE
  8
_0-1_レイヤ___1
  6
CONTINUOUS
 62
    5
 10
2110.7699160481648
 20
1831.048569037087
 11
2113.3227360481651
 21
1832.1044890370872
  0
LINE
  8
_0-1_レイヤ___1
  6
CONTINUOUS
 62
    5
 10
2113.3227360481651
 20
1832.1044890370872
 11
2114.370046048165
 21
1834.6469790370872
  0
LINE
  8
_0-1_レイヤ___1
  6
CONTINUOUS
 62
    5
 10
2008.9604560481648
 20
1834.4350990370872
 11
2059.9719860481646
 21
1834.4350990370872
  0
LINE
  8
_0-1_レイヤ___1
  6
CONTINUOUS
 62
    5
 10
2059.9719860481646
 20
1834.4350990370872
 11
2110.9835160481648
 21
1834.4350990370872
  0
LINE
  8
_0-1_レイヤ___1
  6
CONTINUOUS
 62
    5
 10
2110.9835160481648
 20
1836.9741390370871
 11
2110.9835160481648
 21
1830.8366990370871
  0
LINE
  8
_0-1_レイヤ___1
  6
CONTINUOUS
 62
    5
 10
2110.9835160481648
 20
1830.8366990370871
 11
2110.9835160481648
 21
1824.6975390370872
  0
LINE
  8
_0-1_レイヤ___1
  6
CONTINUOUS
 62
    5
 10
2213.0065760481648
 20
1799.2985690370872
 11
2213.0065760481648
 21
1821.9466290370872
  0
LINE
  8
_0-1_レイヤ___1
  6
CONTINUOUS
 62
    5
 10
2213.0065760481648
 20
1821.9466290370872
 11
2213.0065760481648
 21
1844.5946890370872
  0
LINE
  8
_0-1_レイヤ___1
  6
CONTINUOUS
 62
    5
 10
2114.370046048165
 20
1834.6469790370872
 11
2113.3227360481651
 21
1837.1894590370871
  0
LINE
  8
_0-1_レイヤ___1
  6
CONTINUOUS
 62
    5
 10
2113.3227360481651
 20
1837.1894590370871
 11
2110.7699160481648
 21
1838.2436490370874
  0
LINE
  8
_0-1_レイヤ___1
  6
CONTINUOUS
 62
    5
 10
2110.7699160481648
 20
1838.2436490370874
 11
2108.2171060481646
 21
1837.1894590370871
  0
LINE
  8
_0-1_レイヤ___1
  6
CONTINUOUS
 62
    5
 10
2108.2171060481646
 20
1837.1894590370871
 11
2107.1732360481647
 21
1834.6469790370872
  0
LINE
  8
_0-1_レイヤ___1
  6
CONTINUOUS
 62
    5
 10
2107.1732360481647
 20
1834.6469790370872
 11
2108.2171060481646
 21
1832.1044890370872
  0
LINE
  8
_0-1_レイヤ___1
  6
CONTINUOUS
 62
    5
 10
2108.2171060481646
 20
1832.1044890370872
 11
2110.7699160481648
 21
1831.048569037087
  0
LINE
  8
_0-1_レイヤ___1
  6
CONTINUOUS
 62
    5
 10
2110.7699160481648
 20
1831.048569037087
 11
2113.3227360481651
 21
1832.1044890370872
  0
LINE
  8
_0-1_レイヤ___1
  6
CONTINUOUS
 62
    5
 10
2113.3227360481651
 20
1832.1044890370872
 11
2114.370046048165
 21
1834.6469790370872
  0
LINE
  8
_0-1_レイヤ___1
  6
CONTINUOUS
 62
    5
 10
2216.3931060481646
 20
1834.6469790370872
 11
2215.3457960481646
 21
1837.1894590370871
  0
LINE
  8
_0-1_レイヤ___1
  6
CONTINUOUS
 62
    5
 10
2215.3457960481646
 20
1837.1894590370871
 11
2212.7929760481647
 21
1838.2436490370874
  0
LINE
  8
_0-1_レイヤ___1
  6
CONTINUOUS
 62
    5
 10
2212.7929760481647
 20
1838.2436490370874
 11
2210.2401660481651
 21
1837.1894590370871
  0
LINE
  8
_0-1_レイヤ___1
  6
CONTINUOUS
 62
    5
 10
2210.2401660481651
 20
1837.1894590370871
 11
2209.1962960481651
 21
1834.6469790370872
  0
LINE
  8
_0-1_レイヤ___1
  6
CONTINUOUS
 62
    5
 10
2209.1962960481651
 20
1834.6469790370872
 11
2210.2401660481651
 21
1832.1044890370872
  0
LINE
  8
_0-1_レイヤ___1
  6
CONTINUOUS
 62
    5
 10
2210.2401660481651
 20
1832.1044890370872
 11
2212.7929760481647
 21
1831.048569037087
  0
LINE
  8
_0-1_レイヤ___1
  6
CONTINUOUS
 62
    5
 10
2212.7929760481647
 20
1831.048569037087
 11
2215.3457960481646
 21
1832.1044890370872
  0
LINE
  8
_0-1_レイヤ___1
  6
CONTINUOUS
 62
    5
 10
2215.3457960481646
 20
1832.1044890370872
 11
2216.3931060481646
 21
1834.6469790370872
  0
LINE
  8
_0-1_レイヤ___1
  6
CONTINUOUS
 62
    5
 10
2110.9835160481648
 20
1834.4350990370872
 11
2161.995046048165
 21
1834.4350990370872
  0
LINE
  8
_0-1_レイヤ___1
  6
CONTINUOUS
 62
    5
 10
2161.995046048165
 20
1834.4350990370872
 11
2213.0065760481648
 21
1834.4350990370872
  0
LINE
  8
_0-7_
  6
CONTINUOUS
 62
    7
 10
1608.6436142857008
 20
1968.7684390370873
 11
2676.143614285701
 21
1968.7684390370873
  0
LINE
  8
_0-7_
  6
CONTINUOUS
 62
    7
 10
2676.143614285701
 20
1968.7684390370873
 11
2676.143614285701
 21
1172.7684390370873
  0
LINE
  8
_0-7_
  6
CONTINUOUS
 62
    7
 10
2676.143614285701
 20
1172.7684390370873
 11
1608.6436142857008
 21
1172.7684390370873
  0
LINE
  8
_0-7_
  6
CONTINUOUS
 62
    7
 10
1608.6436142857008
 20
1172.7684390370873
 11
1608.6436142857008
 21
1968.7684390370873
  0
LINE
  8
_0-7_
  6
__22
 62
    7
 10
2110.8949160481648
 20
1472.7684390370871
 11
2110.8949160481648
 21
1292.9512262827434
  0
TEXT
  8
_0-7_
 62
    7
 10
1787.7176362535456
 20
1522.7069241002425
 40
38.006293402777942
 41
0.9999999999999956
 50
0
  1
φ35
  0
LINE
  8
_0-7_
  6
CONTINUOUS
 62
    7
 10
1787.7176362535465
 20
1517.5563685446873
 11
1917.0334023952696
 21
1517.5563685446873
  0
LINE
  8
_0-7_
  6
CONTINUOUS
 62
    7
 10
1917.0334023952696
 20
1517.5563685446873
 11
2004.0908540870287
 21
1366.7684390370873
  0
SOLID
  8
_0-7_
  6
CONTINUOUS
 62
    7
 10
2004.0908540870287
 20
1366.7684390370873
 11
1989.4507315523597
 21
1381.4085615717563
 12
1998.7321973248229
 22
1386.7672183339623
 13
1998.7321973248229
 23
1386.7672183339623
  0
LINE
  8
_0-7_
  6
__22
 62
    7
 10
2008.8949160481648
 20
1343.7684390370873
 11
2314.8949160481648
 21
1343.7684390370873
  0
TEXT
  8
_0-7_
 62
    7
 10
1787.7176362535456
 20
1892.7069241002425
 40
38.006293402777942
 41
0.9999999999999956
 50
0
  1
φ35
  0
LINE
  8
_0-7_
  6
CONTINUOUS
 62
    7
 10
1787.7176362535465
 20
1887.5563685446873
 11
1917.0334023952696
 21
1887.5563685446873
  0
LINE
  8
_0-7_
  6
CONTINUOUS
 62
    7
 10
1917.0334023952696
 20
1887.5563685446873
 11
2004.9568794908132
 21
1735.2684390370871
  0
SOLID
  8
_0-7_
  6
CONTINUOUS
 62
    7
 10
2004.9568794908132
 20
1735.2684390370871
 11
1990.5744920864836
 21
1750.16183717895
 12
1999.9480657025263
 22
1755.3576938787808
 13
1999.9480657025263
 23
1755.3576938787808
  0
LINE
  8
_0-7_
  6
__22
 62
    7
 10
2110.8949160481648
 20
1842.7684390370871
 11
2110.8949160481648
 21
1662.9512262827434
  0
LINE
  8
_0-7_
  6
CONTINUOUS
 62
    7
 10
2372.394915973659
 20
1343.7684390370873
 11
2512.1436142484472
 21
1343.7684390370873
  0
LINE
  8
_0-7_
  6
CONTINUOUS
 62
    7
 10
2442.6436142111947
 20
1422.7684390370871
 11
2512.1436142484472
 21
1422.7684390370871
  0
LINE
  8
_0-7_
  6
CONTINUOUS
 62
    7
 10
2502.1436142857001
 20
1343.7684390370873
 11
2502.1436142857001
 21
1285.3795501481982
  0
LINE
  8
_0-7_
  6
CONTINUOUS
 62
    7
 10
2502.1436142857001
 20
1343.7684390370873
 11
2502.1436142857001
 21
1422.7684390370871
  0
CIRCLE
  8
_0-7_
  6
CONTINUOUS
 62
    7
 10
2502.1436142857001
 20
1343.7684390370873
 40
3.751708984375
  0
CIRCLE
  8
_0-7_
  6
CONTINUOUS
 62
    7
 10
2502.1436142857001
 20
1422.7684390370871
 40
3.751708984375
  0
TEXT
  8
_0-7_
 62
    7
 10
2490.2291698598829
 20
1285.3795501481979
 40
38.0062934027778
 41
0.9999999999999994
 50
90
  1
79
  0
LINE
  8
_0-7_
  6
CONTINUOUS
 62
    7
 10
2008.8949160481648
 20
1404.8787115052396
 11
2008.8949160481648
 21
1474.7684390370875
  0
LINE
  8
_0-7_
  6
CONTINUOUS
 62
    7
 10
2110.8949160481648
 20
1463.7684389625815
 11
2110.8949160481648
 21
1474.7684390370875
  0
LINE
  8
_0-7_
  6
CONTINUOUS
 62
    7
 10
2008.8949160481648
 20
1464.7684390743404
 11
2110.8949160481648
 21
1464.7684390743404
  0
CIRCLE
  8
_0-7_
  6
CONTINUOUS
 62
    7
 10
2008.8949160481648
 20
1464.7684390743404
 40
3.751708984375
  0
CIRCLE
  8
_0-7_
  6
CONTINUOUS
 62
    7
 10
2110.8949160481648
 20
1464.7684390743404
 40
3.751708984375
  0
TEXT
  8
_0-7_
 62
    7
 10
2022.8532493814987
 20
1476.6828835001581
 40
38.0062934027778
 41
0.9999999999999994
 50
0
  1
102
  0
LINE
  8
_0-7_
  6
CONTINUOUS
 62
    7
 10
2110.8949160481648
 20
1467.2684391115911
 11
2110.8949160481648
 21
1454.7684391115934
  0
LINE
  8
_0-7_
  6
CONTINUOUS
 62
    7
 10
2212.8949160481648
 20
1429.2684389625815
 11
2212.8949160481648
 21
1474.7684390370875
  0
LINE
  8
_0-7_
  6
CONTINUOUS
 62
    7
 10
2110.8949160481648
 20
1464.7684390743404
 11
2212.8949160481648
 21
1464.7684390743404
  0
CIRCLE
  8
_0-7_
  6
CONTINUOUS
 62
    7
 10
2110.8949160481648
 20
1464.7684390743404
 40
3.751708984375
  0
CIRCLE
  8
_0-7_
  6
CONTINUOUS
 62
    7
 10
2212.8949160481648
 20
1464.7684390743404
 40
3.751708984375
  0
TEXT
  8
_0-7_
 62
    7
 10
2124.8532493814973
 20
1476.6828835001581
 40
38.0062934027778
 41
0.9999999999999994
 50
0
  1
102
  0
LINE
  8
_0-7_
  6
CONTINUOUS
 62
    7
 10
2314.8949160481648
 20
1401.2684389625804
 11
2314.8949160481648
 21
1474.7684390370875
  0
LINE
  8
_0-7_
  6
CONTINUOUS
 62
    7
 10
2212.8949160481648
 20
1401.2684389625804
 11
2212.8949160481648
 21
1474.7684390370875
  0
LINE
  8
_0-7_
  6
CONTINUOUS
 62
    7
 10
2314.8949160481648
 20
1464.7684390743404
 11
2212.8949160481648
 21
1464.7684390743404
  0
CIRCLE
  8
_0-7_
  6
CONTINUOUS
 62
    7
 10
2314.8949160481648
 20
1464.7684390743404
 40
3.751708984375
  0
CIRCLE
  8
_0-7_
  6
CONTINUOUS
 62
    7
 10
2212.8949160481648
 20
1464.7684390743404
 40
3.751708984375
  0
TEXT
  8
_0-7_
 62
    7
 10
2226.8532493814982
 20
1476.6828835001581
 40
38.0062934027778
 41
0.9999999999999994
 50
0
  1
102
  0
LINE
  8
_0-7_
  6
CONTINUOUS
 62
    7
 10
2270.394915973659
 20
1713.7684390370873
 11
2512.1436142484472
 21
1713.7684390370873
  0
LINE
  8
_0-7_
  6
CONTINUOUS
 62
    7
 10
2442.6436142111947
 20
1792.7684390370871
 11
2512.1436142484472
 21
1792.7684390370871
  0
LINE
  8
_0-7_
  6
CONTINUOUS
 62
    7
 10
2502.1436142857001
 20
1713.7684390370873
 11
2502.1436142857001
 21
1655.3795501481982
  0
LINE
  8
_0-7_
  6
CONTINUOUS
 62
    7
 10
2502.1436142857001
 20
1713.7684390370873
 11
2502.1436142857001
 21
1792.7684390370871
  0
CIRCLE
  8
_0-7_
  6
CONTINUOUS
 62
    7
 10
2502.1436142857001
 20
1713.7684390370873
 40
3.751708984375
  0
CIRCLE
  8
_0-7_
  6
CONTINUOUS
 62
    7
 10
2502.1436142857001
 20
1792.7684390370871
 40
3.751708984375
  0
TEXT
  8
_0-7_
 62
    7
 10
2490.2291698598829
 20
1655.3795501481982
 40
38.0062934027778
 41
0.9999999999999994
 50
90
  1
79
  0
LINE
  8
_0-7_
  6
CONTINUOUS
 62
    7
 10
2008.8949160481648
 20
1774.8787115052396
 11
2008.8949160481648
 21
1844.7684390370875
  0
LINE
  8
_0-7_
  6
CONTINUOUS
 62
    7
 10
2110.8949160481648
 20
1833.7684389625815
 11
2110.8949160481648
 21
1844.7684390370875
  0
LINE
  8
_0-7_
  6
CONTINUOUS
 62
    7
 10
2008.8949160481648
 20
1834.7684390743404
 11
2110.8949160481648
 21
1834.7684390743404
  0
CIRCLE
  8
_0-7_
  6
CONTINUOUS
 62
    7
 10
2008.8949160481648
 20
1834.7684390743404
 40
3.751708984375
  0
CIRCLE
  8
_0-7_
  6
CONTINUOUS
 62
    7
 10
2110.8949160481648
 20
1834.7684390743404
 40
3.751708984375
  0
TEXT
  8
_0-7_
 62
    7
 10
2022.8532493814987
 20
1846.6828835001581
 40
38.0062934027778
 41
0.9999999999999994
 50
0
  1
102
  0
LINE
  8
_0-7_
  6
CONTINUOUS
 62
    7
 10
2110.8949160481648
 20
1837.2684391115911
 11
2110.8949160481648
 21
1824.7684391115934
  0
LINE
  8
_0-7_
  6
CONTINUOUS
 62
    7
 10
2212.8949160481648
 20
1799.2684389625815
 11
2212.8949160481648
 21
1844.7684390370875
  0
LINE
  8
_0-7_
  6
CONTINUOUS
 62
    7
 10
2110.8949160481648
 20
1834.7684390743404
 11
2212.8949160481648
 21
1834.7684390743404
  0
CIRCLE
  8
_0-7_
  6
CONTINUOUS
 62
    7
 10
2110.8949160481648
 20
1834.7684390743404
 40
3.751708984375
  0
CIRCLE
  8
_0-7_
  6
CONTINUOUS
 62
    7
 10
2212.8949160481648
 20
1834.7684390743404
 40
3.751708984375
  0
TEXT
  8
_0-7_
 62
    7
 10
2124.8532493814973
 20
1846.6828835001581
 40
38.0062934027778
 41
0.9999999999999994
 50
0
  1
102
  0
LINE
  8
_0-1_レイヤ___1
  6
CONTINUOUS
 62
    7
 10
920.48492500000009
 20
537.78758486370407
 11
920.48492500000009
 21
544.13689486370401
  0
LINE
  8
_0-1_レイヤ___1
  6
CONTINUOUS
 62
    7
 10
920.48492500000009
 20
544.13689486370401
 11
920.48492500000009
 21
550.48620486370396
  0
LINE
  8
_0-1_レイヤ___1
  6
CONTINUOUS
 62
    7
 10
920.48492500000009
 20
554.72022486370406
 11
920.48492500000009
 21
555.3541248637041
  0
LINE
  8
_0-1_レイヤ___1
  6
CONTINUOUS
 62
    7
 10
920.48492500000009
 20
555.3541248637041
 11
920.48492500000009
 21
555.98802486370403
  0
LINE
  8
_0-1_レイヤ___1
  6
CONTINUOUS
 62
    7
 10
920.48492500000009
 20
558.95425486370402
 11
920.48492500000009
 21
559.58814486370397
  0
LINE
  8
_0-1_レイヤ___1
  6
CONTINUOUS
 62
    7
 10
920.48492500000009
 20
559.58814486370397
 11
920.48492500000009
 21
560.22204486370401
  0
LINE
  8
_0-1_レイヤ___1
  6
CONTINUOUS
 62
    7
 10
920.48492500000009
 20
563.18482486370397
 11
920.48492500000009
 21
569.53758486370384
  0
LINE
  8
_0-1_レイヤ___1
  6
CONTINUOUS
 62
    7
 10
920.48492500000009
 20
569.53758486370384
 11
920.48492500000009
 21
575.88689486370401
  0
LINE
  8
_0-1_レイヤ___1
  6
CONTINUOUS
 62
    7
 10
920.48492500000009
 20
580.120914863704
 11
920.48492500000009
 21
580.75481486370393
  0
LINE
  8
_0-1_レイヤ___1
  6
CONTINUOUS
 62
    7
 10
920.48492500000009
 20
580.75481486370393
 11
920.48492500000009
 21
581.38871486370385
  0
LINE
  8
_0-1_レイヤ___1
  6
CONTINUOUS
 62
    7
 10
920.48492500000009
 20
584.35149486370392
 11
920.48492500000009
 21
584.98539486370396
  0
LINE
  8
_0-1_レイヤ___1
  6
CONTINUOUS
 62
    7
 10
920.48492500000009
 20
584.98539486370396
 11
920.48492500000009
 21
585.62273486370395
  0
LINE
  8
_0-1_レイヤ___1
  6
CONTINUOUS
 62
    7
 10
920.48492500000009
 20
588.58551486370402
 11
920.48492500000009
 21
594.93482486370397
  0
LINE
  8
_0-1_レイヤ___1
  6
CONTINUOUS
 62
    7
 10
920.48492500000009
 20
594.93482486370397
 11
920.48492500000009
 21
601.28758486370407
  0
LINE
  8
_0-1_レイヤ___1
  6
CONTINUOUS
 62
    7
 10
920.48492500000009
 20
605.09786486370399
 11
920.48492500000009
 21
605.51816486370399
  0
LINE
  8
_0-1_レイヤ___1
  6
CONTINUOUS
 62
    7
 10
920.48492500000009
 20
605.51816486370399
 11
920.48492500000009
 21
605.94190486370394
  0
LINE
  8
_0-1_レイヤ___1
  6
CONTINUOUS
 62
    7
 10
920.48492500000009
 20
522.12273486370407
 11
920.48492500000009
 21
537.99773486370395
  0
LINE
  8
_0-1_レイヤ___1
  6
CONTINUOUS
 62
    7
 10
920.48492500000009
 20
537.99773486370395
 11
920.48492500000009
 21
553.87273486370395
  0
LINE
  8
_0-1_レイヤ___1
  6
CONTINUOUS
 62
    7
 10
920.48492500000009
 20
564.45606486370389
 11
920.48492500000009
 21
566.14761486370401
  0
LINE
  8
_0-1_レイヤ___1
  6
CONTINUOUS
 62
    7
 10
920.48492500000009
 20
566.14761486370401
 11
920.48492500000009
 21
567.84259486370399
  0
LINE
  8
_0-1_レイヤ___1
  6
CONTINUOUS
 62
    7
 10
920.48492500000009
 20
575.03940486370402
 11
920.48492500000009
 21
590.91440486370402
  0
LINE
  8
_0-1_レイヤ___1
  6
CONTINUOUS
 62
    7
 10
920.48492500000009
 20
590.91440486370402
 11
920.48492500000009
 21
606.78940486370402
  0
LINE
  8
_0-1_レイヤ___1
  6
CONTINUOUS
 62
    7
 10
920.48492500000009
 20
617.37273486370395
 11
920.48492500000009
 21
619.06427486370399
  0
LINE
  8
_0-1_レイヤ___1
  6
CONTINUOUS
 62
    7
 10
920.48492500000009
 20
619.06427486370399
 11
920.48492500000009
 21
620.75926486370395
  0
LINE
  8
_0-1_レイヤ___1
  6
CONTINUOUS
 62
    7
 10
920.48492500000009
 20
627.956064863704
 11
920.48492500000009
 21
643.83106486370389
  0
LINE
  8
_0-1_レイヤ___1
  6
CONTINUOUS
 62
    7
 10
920.48492500000009
 20
643.83106486370389
 11
920.48492500000009
 21
659.706064863704
  0
LINE
  8
_0-1_レイヤ___1
  6
CONTINUOUS
 62
    7
 10
920.48492500000009
 20
670.28940486370402
 11
920.48492500000009
 21
671.98094486370394
  0
LINE
  8
_0-1_レイヤ___1
  6
CONTINUOUS
 62
    7
 10
920.48492500000009
 20
671.98094486370394
 11
920.48492500000009
 21
673.67593486370401
  0
LINE
  8
_0-1_レイヤ___1
  6
CONTINUOUS
 62
    7
 10
920.48492500000009
 20
680.87273486370407
 11
920.48492500000009
 21
696.74773486370395
  0
LINE
  8
_0-1_レイヤ___1
  6
CONTINUOUS
 62
    7
 10
920.48492500000009
 20
696.74773486370395
 11
920.48492500000009
 21
712.62273486370395
  0
LINE
  8
_0-1_レイヤ___1
  6
CONTINUOUS
 62
    7
 10
920.48492500000009
 20
723.20606486370389
 11
920.48492500000009
 21
724.89761486370401
  0
LINE
  8
_0-1_レイヤ___1
  6
CONTINUOUS
 62
    7
 10
920.48492500000009
 20
724.89761486370401
 11
920.48492500000009
 21
726.59259486370399
  0
LINE
  8
_0-1_レイヤ___1
  6
CONTINUOUS
 62
    7
 10
920.48492500000009
 20
733.78940486370402
 11
920.48492500000009
 21
749.66440486370402
  0
LINE
  8
_0-1_レイヤ___1
  6
CONTINUOUS
 62
    7
 10
920.48492500000009
 20
749.66440486370402
 11
920.48492500000009
 21
765.53940486370402
  0
LINE
  8
_0-1_レイヤ___1
  6
CONTINUOUS
 62
    7
 10
920.48492500000009
 20
771.04466486370393
 11
920.48492500000009
 21
771.46841486370386
  0
LINE
  8
_0-1_レイヤ___1
  6
CONTINUOUS
 62
    7
 10
920.48492500000009
 20
771.46841486370386
 11
920.48492500000009
 21
771.88871486370408
  0
LINE
  8
_0-1_レイヤ___1
  6
CONTINUOUS
 62
    7
 10
1189.7260350000001
 20
765.11565486370398
 11
1189.5141550000001
 21
763.00036486370402
  0
LINE
  8
_0-1_レイヤ___1
  6
CONTINUOUS
 62
    7
 10
1189.5141550000001
 20
763.00036486370402
 11
1189.3022850000002
 21
760.88163486370399
  0
LINE
  8
_0-1_レイヤ___1
  6
CONTINUOUS
 62
    7
 10
1189.3022850000002
 20
760.88163486370399
 11
1188.6683850000002
 21
758.97649486370392
  0
LINE
  8
_0-1_レイヤ___1
  6
CONTINUOUS
 62
    7
 10
1188.6683850000002
 20
758.97649486370392
 11
1188.0327650000002
 21
757.07135486370385
  0
LINE
  8
_0-1_レイヤ___1
  6
CONTINUOUS
 62
    7
 10
1188.0327650000002
 20
757.07135486370385
 11
1187.186995
 21
754.95606486370411
  0
LINE
  8
_0-1_レイヤ___1
  6
CONTINUOUS
 62
    7
 10
1187.186995
 20
754.95606486370411
 11
1186.3395050000001
 21
752.8407848637039
  0
LINE
  8
_0-1_レイヤ___1
  6
CONTINUOUS
 62
    7
 10
1186.3395050000001
 20
752.8407848637039
 11
1185.4920050000001
 21
751.14923486370401
  0
LINE
  8
_0-1_レイヤ___1
  6
CONTINUOUS
 62
    7
 10
1185.4920050000001
 20
751.14923486370401
 11
1184.6462350000002
 21
749.45425486370391
  0
LINE
  8
_0-1_レイヤ___1
  6
CONTINUOUS
 62
    7
 10
1184.6462350000002
 20
749.45425486370391
 11
1183.5868750000002
 21
747.54911486370383
  0
LINE
  8
_0-1_レイヤ___1
  6
CONTINUOUS
 62
    7
 10
1183.5868750000002
 20
747.54911486370383
 11
1182.5292250000002
 21
745.64397486370399
  0
LINE
  8
_0-1_レイヤ___1
  6
CONTINUOUS
 62
    7
 10
1182.5292250000002
 20
745.64397486370399
 11
1181.2579850000002
 21
743.94898486370403
  0
LINE
  8
_0-1_レイヤ___1
  6
CONTINUOUS
 62
    7
 10
1181.2579850000002
 20
743.94898486370403
 11
1179.9884650000001
 21
742.25744486370399
  0
LINE
  8
_0-1_レイヤ___1
  6
CONTINUOUS
 62
    7
 10
1179.9884650000001
 20
742.25744486370399
 11
1178.7189550000003
 21
740.77605486370408
  0
LINE
  8
_0-1_レイヤ___1
  6
CONTINUOUS
 62
    7
 10
1178.7189550000003
 20
740.77605486370408
 11
1177.4494350000002
 21
739.29466486370404
  0
LINE
  8
_0-1_レイヤ___1
  6
CONTINUOUS
 62
    7
 10
1177.4494350000002
 20
739.29466486370404
 11
1175.9663250000001
 21
737.80982486370385
  0
LINE
  8
_0-1_レイヤ___1
  6
CONTINUOUS
 62
    7
 10
1175.9663250000001
 20
737.80982486370385
 11
1174.4849250000002
 21
736.32843486370405
  0
LINE
  8
_0-1_レイヤ___1
  6
CONTINUOUS
 62
    7
 10
1174.4849250000002
 20
736.32843486370405
 11
1172.7916650000002
 21
734.8470448637039
  0
LINE
  8
_0-1_レイヤ___1
  6
CONTINUOUS
 62
    7
 10
1172.7916650000002
 20
734.8470448637039
 11
1171.0984050000002
 21
733.36565486370409
  0
LINE
  8
_0-1_レイヤ___1
  6
CONTINUOUS
 62
    7
 10
1171.0984050000002
 20
733.36565486370409
 11
1169.405135
 21
732.30801486370399
  0
LINE
  8
_0-1_レイヤ___1
  6
CONTINUOUS
 62
    7
 10
1169.405135
 20
732.30801486370399
 11
1167.7118750000002
 21
731.25036486370391
  0
LINE
  8
_0-1_レイヤ___1
  6
CONTINUOUS
 62
    7
 10
1167.7118750000002
 20
731.25036486370391
 11
1166.0186050000002
 21
730.18927486370399
  0
LINE
  8
_0-1_レイヤ___1
  6
CONTINUOUS
 62
    7
 10
1166.0186050000002
 20
730.18927486370399
 11
1164.3253450000002
 21
729.13163486370399
  0
LINE
  8
_0-1_レイヤ___1
  6
CONTINUOUS
 62
    7
 10
1164.3253450000002
 20
729.13163486370399
 11
1162.4202050000001
 21
728.28758486370384
  0
LINE
  8
_0-1_レイヤ___1
  6
CONTINUOUS
 62
    7
 10
1162.4202050000001
 20
728.28758486370384
 11
1160.515065
 21
727.44009486370396
  0
LINE
  8
_0-1_レイヤ___1
  6
CONTINUOUS
 62
    7
 10
1160.515065
 20
727.44009486370396
 11
1158.3997750000001
 21
726.80619486370404
  0
LINE
  8
_0-1_レイヤ___1
  6
CONTINUOUS
 62
    7
 10
1158.3997750000001
 20
726.80619486370404
 11
1156.2827650000002
 21
726.16885486370393
  0
LINE
  8
_0-1_レイヤ___1
  6
CONTINUOUS
 62
    7
 10
1156.2827650000002
 20
726.16885486370393
 11
1154.3776250000001
 21
725.53495486370389
  0
LINE
  8
_0-1_レイヤ___1
  6
CONTINUOUS
 62
    7
 10
1154.3776250000001
 20
725.53495486370389
 11
1152.472495
 21
724.90105486370396
  0
LINE
  8
_0-1_レイヤ___1
  6
CONTINUOUS
 62
    7
 10
1152.472495
 20
724.90105486370396
 11
1150.3554850000003
 21
724.69090486370396
  0
LINE
  8
_0-1_レイヤ___1
  6
CONTINUOUS
 62
    7
 10
1150.3554850000003
 20
724.69090486370396
 11
1148.2384650000001
 21
724.47730486370403
  0
LINE
  8
_0-1_レイヤ___1
  6
CONTINUOUS
 62
    7
 10
1148.2384650000001
 20
724.47730486370403
 11
1146.1214550000002
 21
724.26371486370397
  0
LINE
  8
_0-1_レイヤ___1
  6
CONTINUOUS
 62
    7
 10
1146.1214550000002
 20
724.26371486370397
 11
1144.0061650000002
 21
724.05356486370408
  0
LINE
  8
_0-1_レイヤ___1
  6
CONTINUOUS
 62
    7
 10
1210.4689550000003
 20
914.12981486370404
 11
1210.4689550000003
 21
914.55356486370408
  0
LINE
  8
_0-1_レイヤ___1
  6
CONTINUOUS
 62
    7
 10
1210.4689550000003
 20
914.55356486370408
 11
1210.4689550000003
 21
914.97730486370403
  0
LINE
  8
_0-1_レイヤ___1
  6
CONTINUOUS
 62
    7
 10
1210.4689550000003
 20
914.97730486370403
 11
1210.6808250000001
 21
915.19090486370396
  0
LINE
  8
_0-1_レイヤ___1
  6
CONTINUOUS
 62
    7
 10
1210.6808250000001
 20
915.19090486370396
 11
1210.8926950000002
 21
915.40105486370396
  0
LINE
  8
_0-1_レイヤ___1
  6
CONTINUOUS
 62
    7
 10
1210.8926950000002
 20
915.40105486370396
 11
1211.1045750000001
 21
915.824804863704
  0
LINE
  8
_0-1_レイヤ___1
  6
CONTINUOUS
 62
    7
 10
1211.1045750000001
 20
915.824804863704
 11
1211.3164450000002
 21
916.245104863704
  0
LINE
  8
_0-1_レイヤ___1
  6
CONTINUOUS
 62
    7
 10
1211.3164450000002
 20
916.245104863704
 11
1211.526595
 21
916.45870486370404
  0
LINE
  8
_0-1_レイヤ___1
  6
CONTINUOUS
 62
    7
 10
1211.526595
 20
916.45870486370404
 11
1211.7384650000001
 21
916.66885486370404
  0
LINE
  8
_0-1_レイヤ___1
  6
CONTINUOUS
 62
    7
 10
1211.7384650000001
 20
916.66885486370404
 11
1211.9503450000002
 21
916.87900486370393
  0
LINE
  8
_0-1_レイヤ___1
  6
CONTINUOUS
 62
    7
 10
1211.9503450000002
 20
916.87900486370393
 11
1212.1622150000003
 21
917.09259486370399
  0
LINE
  8
_0-1_レイヤ___1
  6
CONTINUOUS
 62
    7
 10
1212.1622150000003
 20
917.09259486370399
 11
1212.5859650000002
 21
917.30619486370404
  0
LINE
  8
_0-1_レイヤ___1
  6
CONTINUOUS
 62
    7
 10
1212.5859650000002
 20
917.30619486370404
 11
1213.0097050000002
 21
917.51634486370403
  0
LINE
  8
_0-1_レイヤ___1
  6
CONTINUOUS
 62
    7
 10
1213.0097050000002
 20
917.51634486370403
 11
1213.4317350000001
 21
917.72649486370392
  0
LINE
  8
_0-1_レイヤ___1
  6
CONTINUOUS
 62
    7
 10
1213.4317350000001
 20
917.72649486370392
 11
1213.855485
 21
917.94009486370396
  0
LINE
  8
_0-1_レイヤ___1
  6
CONTINUOUS
 62
    7
 10
1213.855485
 20
917.94009486370396
 11
1214.2792250000002
 21
917.94009486370396
  0
LINE
  8
_0-1_レイヤ___1
  6
CONTINUOUS
 62
    7
 10
1214.2792250000002
 20
917.94009486370396
 11
1214.7029750000002
 21
917.94009486370396
  0
LINE
  8
_0-1_レイヤ___1
  6
CONTINUOUS
 62
    7
 10
980.59840500000018
 20
713.89397486370399
 11
981.23402500000009
 21
714.52787486370403
  0
LINE
  8
_0-1_レイヤ___1
  6
CONTINUOUS
 62
    7
 10
981.23402500000009
 20
714.52787486370403
 11
981.86964500000022
 21
715.16177486370395
  0
LINE
  8
_0-1_レイヤ___1
  6
CONTINUOUS
 62
    7
 10
981.86964500000022
 20
715.16177486370395
 11
982.50353500000017
 21
715.58551486370391
  0
LINE
  8
_0-1_レイヤ___1
  6
CONTINUOUS
 62
    7
 10
982.50353500000017
 20
715.58551486370391
 11
983.13915500000019
 21
716.00926486370395
  0
LINE
  8
_0-1_レイヤ___1
  6
CONTINUOUS
 62
    7
 10
983.13915500000019
 20
716.00926486370395
 11
983.77477500000009
 21
716.4330148637041
  0
LINE
  8
_0-1_レイヤ___1
  6
CONTINUOUS
 62
    7
 10
983.77477500000009
 20
716.4330148637041
 11
984.40867500000013
 21
716.85675486370405
  0
LINE
  8
_0-1_レイヤ___1
  6
CONTINUOUS
 62
    7
 10
984.40867500000013
 20
716.85675486370405
 11
985.25616500000012
 21
717.28050486370398
  0
LINE
  8
_0-1_レイヤ___1
  6
CONTINUOUS
 62
    7
 10
985.25616500000012
 20
717.28050486370398
 11
986.10194500000023
 21
717.70425486370402
  0
LINE
  8
_0-1_レイヤ___1
  6
CONTINUOUS
 62
    7
 10
986.10194500000023
 20
717.70425486370402
 11
986.94771500000013
 21
718.12455486370391
  0
LINE
  8
_0-1_レイヤ___1
  6
CONTINUOUS
 62
    7
 10
986.94771500000013
 20
718.12455486370391
 11
987.79520500000012
 21
718.54829486370386
  0
LINE
  8
_0-1_レイヤ___1
  6
CONTINUOUS
 62
    7
 10
987.79520500000012
 20
718.54829486370386
 11
988.43082500000014
 21
718.75845486370395
  0
LINE
  8
_0-1_レイヤ___1
  6
CONTINUOUS
 62
    7
 10
988.43082500000014
 20
718.75845486370395
 11
989.06644500000016
 21
718.97204486370401
  0
LINE
  8
_0-1_レイヤ___1
  6
CONTINUOUS
 62
    7
 10
989.06644500000016
 20
718.97204486370401
 11
989.91393500000015
 21
719.18564486370406
  0
LINE
  8
_0-1_レイヤ___1
  6
CONTINUOUS
 62
    7
 10
989.91393500000015
 20
719.18564486370406
 11
990.75970500000017
 21
719.39579486370405
  0
LINE
  8
_0-1_レイヤ___1
  6
CONTINUOUS
 62
    7
 10
990.75970500000017
 20
719.39579486370405
 11
991.60548500000016
 21
719.60594486370394
  0
LINE
  8
_0-1_レイヤ___1
  6
CONTINUOUS
 62
    7
 10
991.60548500000016
 20
719.60594486370394
 11
992.45297500000015
 21
719.81954486370398
  0
LINE
  8
_0-1_レイヤ___1
  6
CONTINUOUS
 62
    7
 10
696.54166500000019
 20
724.05356486370408
 11
694.6382450000001
 21
724.26371486370397
  0
LINE
  8
_0-1_レイヤ___1
  6
CONTINUOUS
 62
    7
 10
694.6382450000001
 20
724.26371486370397
 11
692.73311500000023
 21
724.47730486370403
  0
LINE
  8
_0-1_レイヤ___1
  6
CONTINUOUS
 62
    7
 10
692.73311500000023
 20
724.47730486370403
 11
690.61610500000018
 21
724.69090486370396
  0
LINE
  8
_0-1_レイヤ___1
  6
CONTINUOUS
 62
    7
 10
690.61610500000018
 20
724.69090486370396
 11
688.49908500000015
 21
724.90105486370396
  0
LINE
  8
_0-1_レイヤ___1
  6
CONTINUOUS
 62
    7
 10
688.49908500000015
 20
724.90105486370396
 11
686.38207500000021
 21
725.53495486370389
  0
LINE
  8
_0-1_レイヤ___1
  6
CONTINUOUS
 62
    7
 10
686.38207500000021
 20
725.53495486370389
 11
684.26506500000016
 21
726.16885486370393
  0
LINE
  8
_0-1_レイヤ___1
  6
CONTINUOUS
 62
    7
 10
684.26506500000016
 20
726.16885486370393
 11
682.35992500000009
 21
726.80619486370404
  0
LINE
  8
_0-1_レイヤ___1
  6
CONTINUOUS
 62
    7
 10
682.35992500000009
 20
726.80619486370404
 11
680.4547950000001
 21
727.44009486370396
  0
LINE
  8
_0-1_レイヤ___1
  6
CONTINUOUS
 62
    7
 10
680.4547950000001
 20
727.44009486370396
 11
678.54965500000026
 21
728.28758486370384
  0
LINE
  8
_0-1_レイヤ___1
  6
CONTINUOUS
 62
    7
 10
678.54965500000026
 20
728.28758486370384
 11
676.64623500000016
 21
729.13163486370399
  0
LINE
  8
_0-1_レイヤ___1
  6
CONTINUOUS
 62
    7
 10
676.64623500000016
 20
729.13163486370399
 11
674.74110500000029
 21
730.18927486370399
  0
LINE
  8
_0-1_レイヤ___1
  6
CONTINUOUS
 62
    7
 10
674.74110500000029
 20
730.18927486370399
 11
672.83596500000021
 21
731.25036486370391
  0
LINE
  8
_0-1_レイヤ___1
  6
CONTINUOUS
 62
    7
 10
672.83596500000021
 20
731.25036486370391
 11
671.142695
 21
732.30801486370399
  0
LINE
  8
_0-1_レイヤ___1
  6
CONTINUOUS
 62
    7
 10
671.142695
 20
732.30801486370399
 11
669.44943500000022
 21
733.36565486370409
  0
LINE
  8
_0-1_レイヤ___1
  6
CONTINUOUS
 62
    7
 10
669.44943500000022
 20
733.36565486370409
 11
667.9663250000001
 21
734.8470448637039
  0
LINE
  8
_0-1_レイヤ___1
  6
CONTINUOUS
 62
    7
 10
667.9663250000001
 20
734.8470448637039
 11
666.4849250000002
 21
736.32843486370405
  0
LINE
  8
_0-1_レイヤ___1
  6
CONTINUOUS
 62
    7
 10
666.4849250000002
 20
736.32843486370405
 11
665.00353500000017
 21
737.80982486370385
  0
LINE
  8
_0-1_レイヤ___1
  6
CONTINUOUS
 62
    7
 10
665.00353500000017
 20
737.80982486370385
 11
663.52214500000014
 21
739.29466486370404
  0
LINE
  8
_0-1_レイヤ___1
  6
CONTINUOUS
 62
    7
 10
663.52214500000014
 20
739.29466486370404
 11
662.04075500000022
 21
740.77605486370408
  0
LINE
  8
_0-1_レイヤ___1
  6
CONTINUOUS
 62
    7
 10
662.04075500000022
 20
740.77605486370408
 11
660.55936500000018
 21
742.25744486370399
  0
LINE
  8
_0-1_レイヤ___1
  6
CONTINUOUS
 62
    7
 10
660.55936500000018
 20
742.25744486370399
 11
659.28812500000026
 21
743.94898486370403
  0
LINE
  8
_0-1_レイヤ___1
  6
CONTINUOUS
 62
    7
 10
659.28812500000026
 20
743.94898486370403
 11
658.01860500000021
 21
745.64397486370399
  0
LINE
  8
_0-1_レイヤ___1
  6
CONTINUOUS
 62
    7
 10
658.01860500000021
 20
745.64397486370399
 11
656.95924500000024
 21
747.54911486370383
  0
LINE
  8
_0-1_レイヤ___1
  6
CONTINUOUS
 62
    7
 10
656.95924500000024
 20
747.54911486370383
 11
655.90159500000016
 21
749.45425486370391
  0
LINE
  8
_0-1_レイヤ___1
  6
CONTINUOUS
 62
    7
 10
655.90159500000016
 20
749.45425486370391
 11
655.05410500000016
 21
751.14923486370401
  0
LINE
  8
_0-1_レイヤ___1
  6
CONTINUOUS
 62
    7
 10
655.05410500000016
 20
751.14923486370401
 11
654.20833500000015
 21
752.8407848637039
  0
LINE
  8
_0-1_レイヤ___1
  6
CONTINUOUS
 62
    7
 10
654.20833500000015
 20
752.8407848637039
 11
653.57271500000024
 21
754.95606486370411
  0
LINE
  8
_0-1_レイヤ___1
  6
CONTINUOUS
 62
    7
 10
653.57271500000024
 20
754.95606486370411
 11
652.93881500000009
 21
757.07135486370385
  0
LINE
  8
_0-1_レイヤ___1
  6
CONTINUOUS
 62
    7
 10
652.93881500000009
 20
757.07135486370385
 11
652.30491500000016
 21
758.97649486370392
  0
LINE
  8
_0-1_レイヤ___1
  6
CONTINUOUS
 62
    7
 10
652.30491500000016
 20
758.97649486370392
 11
651.66929500000015
 21
760.88163486370399
  0
LINE
  8
_0-1_レイヤ___1
  6
CONTINUOUS
 62
    7
 10
651.66929500000015
 20
760.88163486370399
 11
651.24554500000022
 21
763.00036486370402
  0
LINE
  8
_0-1_レイヤ___1
  6
CONTINUOUS
 62
    7
 10
651.24554500000022
 20
763.00036486370402
 11
650.82180500000027
 21
765.11565486370398
  0
LINE
  8
_0-1_レイヤ___1
  6
CONTINUOUS
 62
    7
 10
626.26860500000021
 20
917.94009486370396
 11
626.69235500000013
 21
917.94009486370396
  0
LINE
  8
_0-1_レイヤ___1
  6
CONTINUOUS
 62
    7
 10
626.69235500000013
 20
917.94009486370396
 11
627.11610500000006
 21
917.94009486370396
  0
LINE
  8
_0-1_レイヤ___1
  6
CONTINUOUS
 62
    7
 10
627.11610500000006
 20
917.94009486370396
 11
627.53812500000004
 21
917.72649486370392
  0
LINE
  8
_0-1_レイヤ___1
  6
CONTINUOUS
 62
    7
 10
627.53812500000004
 20
917.72649486370392
 11
627.96187500000019
 21
917.51634486370403
  0
LINE
  8
_0-1_レイヤ___1
  6
CONTINUOUS
 62
    7
 10
627.96187500000019
 20
917.51634486370403
 11
628.17374500000017
 21
917.30619486370404
  0
LINE
  8
_0-1_レイヤ___1
  6
CONTINUOUS
 62
    7
 10
628.17374500000017
 20
917.30619486370404
 11
628.38561500000026
 21
917.09259486370399
  0
LINE
  8
_0-1_レイヤ___1
  6
CONTINUOUS
 62
    7
 10
628.38561500000026
 20
917.09259486370399
 11
628.80936500000018
 21
916.87900486370393
  0
LINE
  8
_0-1_レイヤ___1
  6
CONTINUOUS
 62
    7
 10
628.80936500000018
 20
916.87900486370393
 11
629.23311500000011
 21
916.66885486370404
  0
LINE
  8
_0-1_レイヤ___1
  6
CONTINUOUS
 62
    7
 10
629.23311500000011
 20
916.66885486370404
 11
629.44326500000011
 21
916.45870486370404
  0
LINE
  8
_0-1_レイヤ___1
  6
CONTINUOUS
 62
    7
 10
629.44326500000011
 20
916.45870486370404
 11
629.6551350000002
 21
916.245104863704
  0
LINE
  8
_0-1_レイヤ___1
  6
CONTINUOUS
 62
    7
 10
629.6551350000002
 20
916.245104863704
 11
629.86700500000006
 21
915.824804863704
  0
LINE
  8
_0-1_レイヤ___1
  6
CONTINUOUS
 62
    7
 10
629.86700500000006
 20
915.824804863704
 11
630.07888500000013
 21
915.40105486370396
  0
LINE
  8
_0-1_レイヤ___1
  6
CONTINUOUS
 62
    7
 10
630.07888500000013
 20
915.40105486370396
 11
630.29075500000022
 21
915.19090486370396
  0
LINE
  8
_0-1_レイヤ___1
  6
CONTINUOUS
 62
    7
 10
630.29075500000022
 20
915.19090486370396
 11
630.50262500000019
 21
914.97730486370403
  0
LINE
  8
_0-1_レイヤ___1
  6
CONTINUOUS
 62
    7
 10
630.50262500000019
 20
914.97730486370403
 11
630.50262500000019
 21
914.55356486370408
  0
LINE
  8
_0-1_レイヤ___1
  6
CONTINUOUS
 62
    7
 10
630.50262500000019
 20
914.55356486370408
 11
630.50262500000019
 21
914.12981486370404
  0
LINE
  8
_0-1_レイヤ___1
  6
CONTINUOUS
 62
    7
 10
848.09486500000025
 20
719.81954486370398
 11
848.94063500000016
 21
719.60594486370394
  0
LINE
  8
_0-1_レイヤ___1
  6
CONTINUOUS
 62
    7
 10
848.94063500000016
 20
719.60594486370394
 11
849.78812500000015
 21
719.39579486370405
  0
LINE
  8
_0-1_レイヤ___1
  6
CONTINUOUS
 62
    7
 10
849.78812500000015
 20
719.39579486370405
 11
850.63561500000014
 21
719.18564486370406
  0
LINE
  8
_0-1_レイヤ___1
  6
CONTINUOUS
 62
    7
 10
850.63561500000014
 20
719.18564486370406
 11
851.48311500000023
 21
718.97204486370401
  0
LINE
  8
_0-1_レイヤ___1
  6
CONTINUOUS
 62
    7
 10
851.48311500000023
 20
718.97204486370401
 11
852.33060500000022
 21
718.75845486370395
  0
LINE
  8
_0-1_レイヤ___1
  6
CONTINUOUS
 62
    7
 10
852.33060500000022
 20
718.75845486370395
 11
853.17637500000023
 21
718.54829486370386
  0
LINE
  8
_0-1_レイヤ___1
  6
CONTINUOUS
 62
    7
 10
853.17637500000023
 20
718.54829486370386
 11
854.02214500000014
 21
718.12455486370391
  0
LINE
  8
_0-1_レイヤ___1
  6
CONTINUOUS
 62
    7
 10
854.02214500000014
 20
718.12455486370391
 11
854.86964500000011
 21
717.70425486370402
  0
LINE
  8
_0-1_レイヤ___1
  6
CONTINUOUS
 62
    7
 10
854.86964500000011
 20
717.70425486370402
 11
855.50353500000017
 21
717.28050486370398
  0
LINE
  8
_0-1_レイヤ___1
  6
CONTINUOUS
 62
    7
 10
855.50353500000017
 20
717.28050486370398
 11
856.13915500000019
 21
716.85675486370405
  0
LINE
  8
_0-1_レイヤ___1
  6
CONTINUOUS
 62
    7
 10
856.13915500000019
 20
716.85675486370405
 11
856.9849250000002
 21
716.4330148637041
  0
LINE
  8
_0-1_レイヤ___1
  6
CONTINUOUS
 62
    7
 10
856.9849250000002
 20
716.4330148637041
 11
857.83242500000017
 21
716.00926486370395
  0
LINE
  8
_0-1_レイヤ___1
  6
CONTINUOUS
 62
    7
 10
857.83242500000017
 20
716.00926486370395
 11
858.4663250000001
 21
715.58551486370391
  0
LINE
  8
_0-1_レイヤ___1
  6
CONTINUOUS
 62
    7
 10
858.4663250000001
 20
715.58551486370391
 11
859.10194500000011
 21
715.16177486370395
  0
LINE
  8
_0-1_レイヤ___1
  6
CONTINUOUS
 62
    7
 10
859.10194500000011
 20
715.16177486370395
 11
859.73756500000025
 21
714.52787486370403
  0
LINE
  8
_0-1_レイヤ___1
  6
CONTINUOUS
 62
    7
 10
859.73756500000025
 20
714.52787486370403
 11
860.3714550000002
 21
713.89397486370399
  0
LINE
  8
_0-1_レイヤ___1
  6
CONTINUOUS
 62
    7
 10
992.45297500000015
 20
719.81954486370398
 11
1068.2295750000001
 21
721.93482486370397
  0
LINE
  8
_0-1_レイヤ___1
  6
CONTINUOUS
 62
    7
 10
1068.2295750000001
 20
721.93482486370397
 11
1144.0061650000002
 21
724.05356486370408
  0
LINE
  8
_0-1_レイヤ___1
  6
CONTINUOUS
 62
    7
 10
1210.0452050000001
 20
914.12981486370404
 11
1200.0974950000002
 21
839.62273486370407
  0
LINE
  8
_0-1_レイヤ___1
  6
CONTINUOUS
 62
    7
 10
1200.0974950000002
 20
839.62273486370407
 11
1190.1497750000001
 21
765.11565486370398
  0
LINE
  8
_0-1_レイヤ___1
  6
CONTINUOUS
 62
    7
 10
863.75970500000017
 20
708.81246486370401
 11
920.48492500000009
 21
708.81246486370401
  0
LINE
  8
_0-1_レイヤ___1
  6
CONTINUOUS
 62
    7
 10
920.48492500000009
 20
708.81246486370401
 11
977.21187500000019
 21
708.81246486370401
  0
LINE
  8
_0-1_レイヤ___1
  6
CONTINUOUS
 62
    7
 10
848.51860500000021
 20
719.81954486370398
 11
772.53013500000009
 21
721.93482486370397
  0
LINE
  8
_0-1_レイヤ___1
  6
CONTINUOUS
 62
    7
 10
772.53013500000009
 20
721.93482486370397
 11
696.54166500000019
 21
724.05356486370408
  0
LINE
  8
_0-1_レイヤ___1
  6
CONTINUOUS
 62
    7
 10
630.50262500000019
 20
914.12981486370404
 11
640.66221500000006
 21
839.62273486370407
  0
LINE
  8
_0-1_レイヤ___1
  6
CONTINUOUS
 62
    7
 10
640.66221500000006
 20
839.62273486370407
 11
650.82180500000027
 21
765.11565486370398
  0
LINE
  8
_0-1_レイヤ___1
  6
CONTINUOUS
 62
    7
 10
863.75970500000017
 20
708.81246486370401
 11
862.06644500000016
 21
711.14134486370403
  0
LINE
  8
_0-1_レイヤ___1
  6
CONTINUOUS
 62
    7
 10
862.06644500000016
 20
711.14134486370403
 11
860.3714550000002
 21
713.47022486370406
  0
LINE
  8
_0-1_レイヤ___1
  6
CONTINUOUS
 62
    7
 10
602.98492500000009
 20
921.75036486370402
 11
602.98492500000009
 21
922.80801486370387
  0
LINE
  8
_0-1_レイヤ___1
  6
CONTINUOUS
 62
    7
 10
602.98492500000009
 20
922.80801486370387
 11
602.98492500000009
 21
923.86565486370398
  0
LINE
  8
_0-1_レイヤ___1
  6
CONTINUOUS
 62
    7
 10
602.98492500000009
 20
923.86565486370398
 11
603.19680500000015
 21
924.71314486370397
  0
LINE
  8
_0-1_レイヤ___1
  6
CONTINUOUS
 62
    7
 10
603.19680500000015
 20
924.71314486370397
 11
603.40867500000013
 21
925.56064486370406
  0
LINE
  8
_0-1_レイヤ___1
  6
CONTINUOUS
 62
    7
 10
603.40867500000013
 20
925.56064486370406
 11
603.83242500000028
 21
926.19454486370398
  0
LINE
  8
_0-1_レイヤ___1
  6
CONTINUOUS
 62
    7
 10
603.83242500000028
 20
926.19454486370398
 11
604.25616500000024
 21
926.82843486370405
  0
LINE
  8
_0-1_レイヤ___1
  6
CONTINUOUS
 62
    7
 10
604.25616500000024
 20
926.82843486370405
 11
604.89006500000016
 21
927.46233486370397
  0
LINE
  8
_0-1_レイヤ___1
  6
CONTINUOUS
 62
    7
 10
604.89006500000016
 20
927.46233486370397
 11
605.52568500000007
 21
928.09967486370397
  0
LINE
  8
_0-1_レイヤ___1
  6
CONTINUOUS
 62
    7
 10
605.52568500000007
 20
928.09967486370397
 11
606.16130500000031
 21
928.73702486370405
  0
LINE
  8
_0-1_レイヤ___1
  6
CONTINUOUS
 62
    7
 10
606.16130500000031
 20
928.73702486370405
 11
606.79520500000024
 21
929.370914863704
  0
LINE
  8
_0-1_レイヤ___1
  6
CONTINUOUS
 62
    7
 10
606.79520500000024
 20
929.370914863704
 11
607.64269500000012
 21
929.791214863704
  0
LINE
  8
_0-1_レイヤ___1
  6
CONTINUOUS
 62
    7
 10
607.64269500000012
 20
929.791214863704
 11
608.48846500000013
 21
930.21496486370393
  0
LINE
  8
_0-1_レイヤ___1
  6
CONTINUOUS
 62
    7
 10
608.48846500000013
 20
930.21496486370393
 11
609.33424500000012
 21
930.42511486370404
  0
LINE
  8
_0-1_レイヤ___1
  6
CONTINUOUS
 62
    7
 10
609.33424500000012
 20
930.42511486370404
 11
610.18173500000012
 21
930.63871486370408
  0
LINE
  8
_0-1_レイヤ___1
  6
CONTINUOUS
 62
    7
 10
610.18173500000012
 20
930.63871486370408
 11
611.029225
 21
930.85230486370403
  0
LINE
  8
_0-1_レイヤ___1
  6
CONTINUOUS
 62
    7
 10
611.029225
 20
930.85230486370403
 11
611.87499500000013
 21
931.06246486370401
  0
LINE
  8
_0-1_レイヤ___1
  6
CONTINUOUS
 62
    7
 10
611.87499500000013
 20
931.06246486370401
 11
920.48492500000009
 21
931.06246486370401
  0
LINE
  8
_0-1_レイヤ___1
  6
CONTINUOUS
 62
    7
 10
920.48492500000009
 20
931.06246486370401
 11
1229.094865
 21
931.06246486370401
  0
LINE
  8
_0-1_レイヤ___1
  6
CONTINUOUS
 62
    7
 10
1229.094865
 20
931.06246486370401
 11
1229.9406350000002
 21
930.85230486370403
  0
LINE
  8
_0-1_レイヤ___1
  6
CONTINUOUS
 62
    7
 10
1229.9406350000002
 20
930.85230486370403
 11
1230.788125
 21
930.63871486370408
  0
LINE
  8
_0-1_レイヤ___1
  6
CONTINUOUS
 62
    7
 10
1230.788125
 20
930.63871486370408
 11
1231.6356150000001
 21
930.42511486370404
  0
LINE
  8
_0-1_レイヤ___1
  6
CONTINUOUS
 62
    7
 10
1231.6356150000001
 20
930.42511486370404
 11
1232.4831150000002
 21
930.21496486370393
  0
LINE
  8
_0-1_レイヤ___1
  6
CONTINUOUS
 62
    7
 10
1232.4831150000002
 20
930.21496486370393
 11
1233.1170050000001
 21
929.791214863704
  0
LINE
  8
_0-1_レイヤ___1
  6
CONTINUOUS
 62
    7
 10
1233.1170050000001
 20
929.791214863704
 11
1233.7526250000001
 21
929.370914863704
  0
LINE
  8
_0-1_レイヤ___1
  6
CONTINUOUS
 62
    7
 10
1233.7526250000001
 20
929.370914863704
 11
1234.5984050000002
 21
928.73702486370405
  0
LINE
  8
_0-1_レイヤ___1
  6
CONTINUOUS
 62
    7
 10
1234.5984050000002
 20
928.73702486370405
 11
1235.4458950000001
 21
928.09967486370397
  0
LINE
  8
_0-1_レイヤ___1
  6
CONTINUOUS
 62
    7
 10
1235.4458950000001
 20
928.09967486370397
 11
1235.8696450000002
 21
927.46233486370397
  0
LINE
  8
_0-1_レイヤ___1
  6
CONTINUOUS
 62
    7
 10
1235.8696450000002
 20
927.46233486370397
 11
1236.2916650000002
 21
926.82843486370405
  0
LINE
  8
_0-1_レイヤ___1
  6
CONTINUOUS
 62
    7
 10
1236.2916650000002
 20
926.82843486370405
 11
1236.7154150000001
 21
926.19454486370398
  0
LINE
  8
_0-1_レイヤ___1
  6
CONTINUOUS
 62
    7
 10
1236.7154150000001
 20
926.19454486370398
 11
1237.1391550000001
 21
925.56064486370406
  0
LINE
  8
_0-1_レイヤ___1
  6
CONTINUOUS
 62
    7
 10
1237.1391550000001
 20
925.56064486370406
 11
1237.3510350000001
 21
924.71314486370397
  0
LINE
  8
_0-1_レイヤ___1
  6
CONTINUOUS
 62
    7
 10
1237.3510350000001
 20
924.71314486370397
 11
1237.5629050000002
 21
923.86565486370398
  0
LINE
  8
_0-1_レイヤ___1
  6
CONTINUOUS
 62
    7
 10
1237.5629050000002
 20
923.86565486370398
 11
1237.7747750000001
 21
922.80801486370387
  0
LINE
  8
_0-1_レイヤ___1
  6
CONTINUOUS
 62
    7
 10
1237.7747750000001
 20
922.80801486370387
 11
1237.9849250000002
 21
921.75036486370402
  0
LINE
  8
_0-1_レイヤ___1
  6
CONTINUOUS
 62
    7
 10
1237.9849250000002
 20
921.75036486370402
 11
1237.9849250000002
 21
919.84522486370395
  0
LINE
  8
_0-1_レイヤ___1
  6
CONTINUOUS
 62
    7
 10
1237.9849250000002
 20
919.84522486370395
 11
1237.9849250000002
 21
917.94009486370396
  0
LINE
  8
_0-1_レイヤ___1
  6
CONTINUOUS
 62
    7
 10
1237.9849250000002
 20
917.94009486370396
 11
920.48492500000009
 21
917.94009486370396
  0
LINE
  8
_0-1_レイヤ___1
  6
CONTINUOUS
 62
    7
 10
920.48492500000009
 20
917.94009486370396
 11
602.98492500000009
 21
917.94009486370396
  0
LINE
  8
_0-1_レイヤ___1
  6
CONTINUOUS
 62
    7
 10
602.98492500000009
 20
917.94009486370396
 11
602.98492500000009
 21
919.84522486370395
  0
LINE
  8
_0-1_レイヤ___1
  6
CONTINUOUS
 62
    7
 10
602.98492500000009
 20
919.84522486370395
 11
602.98492500000009
 21
921.75036486370402
  0
LINE
  8
_0-1_レイヤ___1
  6
CONTINUOUS
 62
    7
 10
920.48492500000009
 20
955.61565486370398
 11
920.48492500000009
 21
949.26634486370403
  0
LINE
  8
_0-1_レイヤ___1
  6
CONTINUOUS
 62
    7
 10
920.48492500000009
 20
949.26634486370403
 11
920.48492500000009
 21
942.91703486370398
  0
LINE
  8
_0-1_レイヤ___1
  6
CONTINUOUS
 62
    7
 10
920.48492500000009
 20
938.68301486370399
 11
920.48492500000009
 21
938.04566486370402
  0
LINE
  8
_0-1_レイヤ___1
  6
CONTINUOUS
 62
    7
 10
920.48492500000009
 20
938.04566486370402
 11
920.48492500000009
 21
937.41177486370407
  0
LINE
  8
_0-1_レイヤ___1
  6
CONTINUOUS
 62
    7
 10
920.48492500000009
 20
934.44898486370403
 11
920.48492500000009
 21
933.81509486370408
  0
LINE
  8
_0-1_レイヤ___1
  6
CONTINUOUS
 62
    7
 10
920.48492500000009
 20
933.81509486370408
 11
920.48492500000009
 21
933.18119486370404
  0
LINE
  8
_0-1_レイヤ___1
  6
CONTINUOUS
 62
    7
 10
920.48492500000009
 20
930.21496486370393
 11
920.48492500000009
 21
923.86565486370398
  0
LINE
  8
_0-1_レイヤ___1
  6
CONTINUOUS
 62
    7
 10
920.48492500000009
 20
923.86565486370398
 11
920.48492500000009
 21
917.51634486370403
  0
LINE
  8
_0-1_レイヤ___1
  6
CONTINUOUS
 62
    7
 10
920.48492500000009
 20
913.28232486370393
 11
920.48492500000009
 21
912.64842486370401
  0
LINE
  8
_0-1_レイヤ___1
  6
CONTINUOUS
 62
    7
 10
920.48492500000009
 20
912.64842486370401
 11
920.48492500000009
 21
912.01452486370397
  0
LINE
  8
_0-1_レイヤ___1
  6
CONTINUOUS
 62
    7
 10
920.48492500000009
 20
909.04829486370409
 11
920.48492500000009
 21
908.41440486370402
  0
LINE
  8
_0-1_レイヤ___1
  6
CONTINUOUS
 62
    7
 10
920.48492500000009
 20
908.41440486370402
 11
920.48492500000009
 21
907.78050486370398
  0
LINE
  8
_0-1_レイヤ___1
  6
CONTINUOUS
 62
    7
 10
920.48492500000009
 20
904.81772486370403
 11
920.48492500000009
 21
898.46841486370397
  0
LINE
  8
_0-1_レイヤ___1
  6
CONTINUOUS
 62
    7
 10
920.48492500000009
 20
898.46841486370397
 11
920.48492500000009
 21
892.11565486370409
  0
LINE
  8
_0-1_レイヤ___1
  6
CONTINUOUS
 62
    7
 10
920.48492500000009
 20
887.88163486370399
 11
920.48492500000009
 21
887.24773486370395
  0
LINE
  8
_0-1_レイヤ___1
  6
CONTINUOUS
 62
    7
 10
920.48492500000009
 20
887.24773486370395
 11
920.48492500000009
 21
886.61383486370391
  0
LINE
  8
_0-1_レイヤ___1
  6
CONTINUOUS
 62
    7
 10
920.48492500000009
 20
883.65105486370396
 11
920.48492500000009
 21
883.01371486370397
  0
LINE
  8
_0-1_レイヤ___1
  6
CONTINUOUS
 62
    7
 10
920.48492500000009
 20
883.01371486370397
 11
920.48492500000009
 21
882.37981486370404
  0
LINE
  8
_0-1_レイヤ___1
  6
CONTINUOUS
 62
    7
 10
920.48492500000009
 20
881.10857486370401
 11
920.48492500000009
 21
880.68482486370397
  0
LINE
  8
_0-1_レイヤ___1
  6
CONTINUOUS
 62
    7
 10
920.48492500000009
 20
880.68482486370397
 11
920.48492500000009
 21
880.26452486370408
  0
LINE
  8
_0-1_レイヤ___1
  6
CONTINUOUS
 62
    7
 10
977.21187500000019
 20
708.81246486370401
 11
978.90513500000009
 21
711.14134486370403
  0
LINE
  8
_0-1_レイヤ___1
  6
CONTINUOUS
 62
    7
 10
978.90513500000009
 20
711.14134486370403
 11
980.59840500000018
 21
713.47022486370406
  0
LINE
  8
_0-1_レイヤ___1
  6
CONTINUOUS
 62
    5
 10
583.08950500000014
 20
931.06246486370401
 11
504.13824500000021
 21
931.06246486370401
  0
LINE
  8
_0-1_レイヤ___1
  6
CONTINUOUS
 62
    5
 10
504.13824500000021
 20
931.06246486370401
 11
425.18527500000016
 21
931.06246486370401
  0
LINE
  8
_0-1_レイヤ___1
  6
CONTINUOUS
 62
    5
 10
795.17819500000019
 20
708.81246486370401
 11
610.18173500000012
 21
708.81246486370401
  0
LINE
  8
_0-1_レイヤ___1
  6
CONTINUOUS
 62
    5
 10
610.18173500000012
 20
708.81246486370401
 11
425.18527500000016
 21
708.81246486370401
  0
LINE
  8
_0-1_レイヤ___1
  6
CONTINUOUS
 62
    5
 10
438.73311500000011
 20
931.06246486370401
 11
437.68752500000005
 21
933.753074863704
  0
LINE
  8
_0-1_レイヤ___1
  6
CONTINUOUS
 62
    5
 10
437.68752500000005
 20
933.753074863704
 11
435.13470500000011
 21
934.87273486370395
  0
LINE
  8
_0-1_レイヤ___1
  6
CONTINUOUS
 62
    5
 10
435.13470500000011
 20
934.87273486370395
 11
432.58017500000022
 21
933.753074863704
  0
LINE
  8
_0-1_レイヤ___1
  6
CONTINUOUS
 62
    5
 10
432.58017500000022
 20
933.753074863704
 11
431.5363050000002
 21
931.06246486370401
  0
LINE
  8
_0-1_レイヤ___1
  6
CONTINUOUS
 62
    5
 10
431.5363050000002
 20
931.06246486370401
 11
432.58017500000022
 21
928.37184486370404
  0
LINE
  8
_0-1_レイヤ___1
  6
CONTINUOUS
 62
    5
 10
432.58017500000022
 20
928.37184486370404
 11
435.13470500000011
 21
927.25218486370397
  0
LINE
  8
_0-1_レイヤ___1
  6
CONTINUOUS
 62
    5
 10
435.13470500000011
 20
927.25218486370397
 11
437.68752500000005
 21
928.37184486370404
  0
LINE
  8
_0-1_レイヤ___1
  6
CONTINUOUS
 62
    5
 10
437.68752500000005
 20
928.37184486370404
 11
438.73311500000011
 21
931.06246486370401
  0
LINE
  8
_0-1_レイヤ___1
  6
CONTINUOUS
 62
    5
 10
438.73311500000011
 20
708.81246486370401
 11
437.68752500000005
 21
711.50307486370389
  0
LINE
  8
_0-1_レイヤ___1
  6
CONTINUOUS
 62
    5
 10
437.68752500000005
 20
711.50307486370389
 11
435.13470500000011
 21
712.62273486370395
  0
LINE
  8
_0-1_レイヤ___1
  6
CONTINUOUS
 62
    5
 10
435.13470500000011
 20
712.62273486370395
 11
432.58017500000022
 21
711.50307486370389
  0
LINE
  8
_0-1_レイヤ___1
  6
CONTINUOUS
 62
    5
 10
432.58017500000022
 20
711.50307486370389
 11
431.5363050000002
 21
708.81246486370401
  0
LINE
  8
_0-1_レイヤ___1
  6
CONTINUOUS
 62
    5
 10
431.5363050000002
 20
708.81246486370401
 11
432.58017500000022
 21
706.12184486370415
  0
LINE
  8
_0-1_レイヤ___1
  6
CONTINUOUS
 62
    5
 10
432.58017500000022
 20
706.12184486370415
 11
435.13470500000011
 21
705.00218486370397
  0
LINE
  8
_0-1_レイヤ___1
  6
CONTINUOUS
 62
    5
 10
435.13470500000011
 20
705.00218486370397
 11
437.68752500000005
 21
706.12184486370415
  0
LINE
  8
_0-1_レイヤ___1
  6
CONTINUOUS
 62
    5
 10
437.68752500000005
 20
706.12184486370415
 11
438.73311500000011
 21
708.81246486370401
  0
LINE
  8
_0-1_レイヤ___1
  6
CONTINUOUS
 62
    5
 10
435.34486500000014
 20
931.06246486370401
 11
435.34486500000014
 21
819.93746486370401
  0
LINE
  8
_0-1_レイヤ___1
  6
CONTINUOUS
 62
    5
 10
435.34486500000014
 20
819.93746486370401
 11
435.34486500000014
 21
708.81246486370401
  0
LINE
  8
_0-1_レイヤ___1
  6
CONTINUOUS
 62
    5
 10
583.08950500000014
 20
931.06246486370401
 11
555.14977500000009
 21
931.06246486370401
  0
LINE
  8
_0-1_レイヤ___1
  6
CONTINUOUS
 62
    5
 10
555.14977500000009
 20
931.06246486370401
 11
527.20833500000015
 21
931.06246486370401
  0
LINE
  8
_0-1_レイヤ___1
  6
CONTINUOUS
 62
    5
 10
583.08950500000014
 20
917.94009486370396
 11
555.14977500000009
 21
917.94009486370396
  0
LINE
  8
_0-1_レイヤ___1
  6
CONTINUOUS
 62
    5
 10
555.14977500000009
 20
917.94009486370396
 11
527.20833500000015
 21
917.94009486370396
  0
LINE
  8
_0-1_レイヤ___1
  6
CONTINUOUS
 62
    5
 10
540.75616500000024
 20
931.06246486370401
 11
539.71058500000015
 21
933.753074863704
  0
LINE
  8
_0-1_レイヤ___1
  6
CONTINUOUS
 62
    5
 10
539.71058500000015
 20
933.753074863704
 11
537.15776500000015
 21
934.87273486370395
  0
LINE
  8
_0-1_レイヤ___1
  6
CONTINUOUS
 62
    5
 10
537.15776500000015
 20
934.87273486370395
 11
534.60322500000018
 21
933.753074863704
  0
LINE
  8
_0-1_レイヤ___1
  6
CONTINUOUS
 62
    5
 10
534.60322500000018
 20
933.753074863704
 11
533.55936500000007
 21
931.06246486370401
  0
LINE
  8
_0-1_レイヤ___1
  6
CONTINUOUS
 62
    5
 10
533.55936500000007
 20
931.06246486370401
 11
534.60322500000018
 21
928.37184486370404
  0
LINE
  8
_0-1_レイヤ___1
  6
CONTINUOUS
 62
    5
 10
534.60322500000018
 20
928.37184486370404
 11
537.15776500000015
 21
927.25218486370397
  0
LINE
  8
_0-1_レイヤ___1
  6
CONTINUOUS
 62
    5
 10
537.15776500000015
 20
927.25218486370397
 11
539.71058500000015
 21
928.37184486370404
  0
LINE
  8
_0-1_レイヤ___1
  6
CONTINUOUS
 62
    5
 10
539.71058500000015
 20
928.37184486370404
 11
540.75616500000024
 21
931.06246486370401
  0
LINE
  8
_0-1_レイヤ___1
  6
CONTINUOUS
 62
    5
 10
540.75616500000024
 20
917.94009486370396
 11
539.71058500000015
 21
920.63071486370404
  0
LINE
  8
_0-1_レイヤ___1
  6
CONTINUOUS
 62
    5
 10
539.71058500000015
 20
920.63071486370404
 11
537.15776500000015
 21
921.75036486370402
  0
LINE
  8
_0-1_レイヤ___1
  6
CONTINUOUS
 62
    5
 10
537.15776500000015
 20
921.75036486370402
 11
534.60322500000018
 21
920.63071486370404
  0
LINE
  8
_0-1_レイヤ___1
  6
CONTINUOUS
 62
    5
 10
534.60322500000018
 20
920.63071486370404
 11
533.55936500000007
 21
917.94009486370396
  0
LINE
  8
_0-1_レイヤ___1
  6
CONTINUOUS
 62
    5
 10
533.55936500000007
 20
917.94009486370396
 11
534.60322500000018
 21
915.24947486370388
  0
LINE
  8
_0-1_レイヤ___1
  6
CONTINUOUS
 62
    5
 10
534.60322500000018
 20
915.24947486370388
 11
537.15776500000015
 21
914.12981486370404
  0
LINE
  8
_0-1_レイヤ___1
  6
CONTINUOUS
 62
    5
 10
537.15776500000015
 20
914.12981486370404
 11
539.71058500000015
 21
915.24947486370388
  0
LINE
  8
_0-1_レイヤ___1
  6
CONTINUOUS
 62
    5
 10
539.71058500000015
 20
915.24947486370388
 11
540.75616500000024
 21
917.94009486370396
  0
LINE
  8
_0-1_レイヤ___1
  6
CONTINUOUS
 62
    5
 10
536.94589500000006
 20
931.06246486370401
 11
536.94589500000006
 21
924.49955486370402
  0
LINE
  8
_0-1_レイヤ___1
  6
CONTINUOUS
 62
    5
 10
536.94589500000006
 20
924.49955486370402
 11
536.94589500000006
 21
917.94009486370396
  0
LINE
  8
_0-7_
  6
CONTINUOUS
 62
    7
 10
582.9849250745059
 20
931.080164863704
 11
425.23362327478821
 21
931.080164863704
  0
LINE
  8
_0-7_
  6
CONTINUOUS
 62
    7
 10
795.2336233120418
 20
709.08016486370389
 11
425.23362327478821
 21
709.08016486370389
  0
LINE
  8
_0-7_
  6
CONTINUOUS
 62
    7
 10
435.23362323753531
 20
931.080164863704
 11
435.23362323753531
 21
709.08016486370389
  0
CIRCLE
  8
_0-7_
  6
CONTINUOUS
 62
    7
 10
435.23362323753531
 20
931.080164863704
 40
3.751708984375
  0
CIRCLE
  8
_0-7_
  6
CONTINUOUS
 62
    7
 10
435.23362323753531
 20
709.08016486370389
 40
3.751708984375
  0
TEXT
  8
_0-7_
 62
    7
 10
423.31917881171762
 20
783.03849819703771
 40
38.0062934027778
 41
0.9999999999999994
 50
90
  1
222
  0
LINE
  8
_0-7_
  6
CONTINUOUS
 62
    7
 10
582.9849250745059
 20
931.080164863704
 11
527.23362327478844
 21
931.080164863704
  0
LINE
  8
_0-7_
  6
CONTINUOUS
 62
    7
 10
582.9849250745059
 20
918.08016486370434
 11
527.23362327478844
 21
918.08016486370434
  0
LINE
  8
_0-7_
  6
CONTINUOUS
 62
    7
 10
537.23362323753554
 20
931.080164863704
 11
537.23362323753554
 21
918.08016486370434
  0
CIRCLE
  8
_0-7_
  6
CONTINUOUS
 62
    7
 10
537.23362323753554
 20
931.080164863704
 40
3.751708984375
  0
CIRCLE
  8
_0-7_
  6
CONTINUOUS
 62
    7
 10
537.23362323753554
 20
918.08016486370434
 40
3.751708984375
  0
TEXT
  8
_0-7_
 62
    7
 10
525.31917881171762
 20
899.88572041925977
 40
38.0062934027778
 41
0.9999999999999994
 50
90
  1
13
  0
LINE
  8
_0-1_レイヤ___1
  6
CONTINUOUS
 62
    7
 10
2231.970765
 20
469.98184926670899
 11
2231.970765
 21
485.85684926670893
  0
LINE
  8
_0-1_レイヤ___1
  6
CONTINUOUS
 62
    7
 10
2231.970765
 20
485.85684926670893
 11
2231.970765
 21
501.73184926670888
  0
LINE
  8
_0-1_レイヤ___1
  6
CONTINUOUS
 62
    7
 10
2231.970765
 20
512.31517926670892
 11
2231.970765
 21
514.00672926670893
  0
LINE
  8
_0-1_レイヤ___1
  6
CONTINUOUS
 62
    7
 10
2231.970765
 20
514.00672926670893
 11
2231.970765
 21
515.70170926670903
  0
LINE
  8
_0-1_レイヤ___1
  6
CONTINUOUS
 62
    7
 10
2231.970765
 20
522.89851926670894
 11
2231.970765
 21
538.77351926670894
  0
LINE
  8
_0-1_レイヤ___1
  6
CONTINUOUS
 62
    7
 10
2231.970765
 20
538.77351926670894
 11
2231.970765
 21
554.64851926670894
  0
LINE
  8
_0-1_レイヤ___1
  6
CONTINUOUS
 62
    7
 10
2231.970765
 20
565.23184926670888
 11
2231.970765
 21
566.92338926670891
  0
LINE
  8
_0-1_レイヤ___1
  6
CONTINUOUS
 62
    7
 10
2231.970765
 20
566.92338926670891
 11
2231.970765
 21
568.61837926670898
  0
LINE
  8
_0-1_レイヤ___1
  6
CONTINUOUS
 62
    7
 10
2231.970765
 20
575.81517926670904
 11
2231.970765
 21
591.69017926670892
  0
LINE
  8
_0-1_レイヤ___1
  6
CONTINUOUS
 62
    7
 10
2231.970765
 20
591.69017926670892
 11
2231.970765
 21
607.56517926670892
  0
LINE
  8
_0-1_レイヤ___1
  6
CONTINUOUS
 62
    7
 10
2231.970765
 20
618.14851926670894
 11
2231.970765
 21
619.84005926670898
  0
LINE
  8
_0-1_レイヤ___1
  6
CONTINUOUS
 62
    7
 10
2231.970765
 20
619.84005926670898
 11
2231.970765
 21
621.53504926670894
  0
LINE
  8
_0-1_レイヤ___1
  6
CONTINUOUS
 62
    7
 10
2231.970765
 20
628.73184926670899
 11
2231.970765
 21
644.60684926670888
  0
LINE
  8
_0-1_レイヤ___1
  6
CONTINUOUS
 62
    7
 10
2231.970765
 20
644.60684926670888
 11
2231.970765
 21
660.48184926670899
  0
LINE
  8
_0-1_レイヤ___1
  6
CONTINUOUS
 62
    7
 10
2231.970765
 20
671.06517926670904
 11
2231.970765
 21
672.75672926670893
  0
LINE
  8
_0-1_レイヤ___1
  6
CONTINUOUS
 62
    7
 10
2231.970765
 20
672.75672926670893
 11
2231.970765
 21
674.45170926670903
  0
LINE
  8
_0-1_レイヤ___1
  6
CONTINUOUS
 62
    7
 10
2231.970765
 20
681.64851926670894
 11
2231.970765
 21
697.52351926670894
  0
LINE
  8
_0-1_レイヤ___1
  6
CONTINUOUS
 62
    7
 10
2231.970765
 20
697.52351926670894
 11
2231.970765
 21
713.39851926670894
  0
LINE
  8
_0-1_レイヤ___1
  6
CONTINUOUS
 62
    7
 10
2231.970765
 20
718.90377926670897
 11
2231.970765
 21
719.32752926670901
  0
LINE
  8
_0-1_レイヤ___1
  6
CONTINUOUS
 62
    7
 10
2231.970765
 20
719.32752926670901
 11
2231.970765
 21
719.747829266709
  0
LINE
  8
_0-1_レイヤ___1
  6
CONTINUOUS
 62
    7
 10
2433.4778450000003
 20
854.79212926670903
 11
2433.6914449999999
 21
855.63961926670902
  0
LINE
  8
_0-1_レイヤ___1
  6
CONTINUOUS
 62
    7
 10
2433.6914449999999
 20
855.63961926670902
 11
2433.9015950000003
 21
856.48710926670901
  0
LINE
  8
_0-1_レイヤ___1
  6
CONTINUOUS
 62
    7
 10
2433.9015950000003
 20
856.48710926670901
 11
2434.1117450000002
 21
857.33115926670894
  0
LINE
  8
_0-1_レイヤ___1
  6
CONTINUOUS
 62
    7
 10
2434.1117450000002
 20
857.33115926670894
 11
2434.3253450000002
 21
858.17865926670891
  0
LINE
  8
_0-1_レイヤ___1
  6
CONTINUOUS
 62
    7
 10
2434.3253450000002
 20
858.17865926670891
 11
2434.7490850000004
 21
858.81254926670886
  0
LINE
  8
_0-1_レイヤ___1
  6
CONTINUOUS
 62
    7
 10
2434.7490850000004
 20
858.81254926670886
 11
2435.1728350000003
 21
859.44989926670905
  0
LINE
  8
_0-1_レイヤ___1
  6
CONTINUOUS
 62
    7
 10
2435.1728350000003
 20
859.44989926670905
 11
2435.8067350000001
 21
860.083789266709
  0
LINE
  8
_0-1_レイヤ___1
  6
CONTINUOUS
 62
    7
 10
2435.8067350000001
 20
860.083789266709
 11
2436.4406349999999
 21
860.71768926670893
  0
LINE
  8
_0-1_レイヤ___1
  6
CONTINUOUS
 62
    7
 10
2436.4406349999999
 20
860.71768926670893
 11
2437.074525
 21
861.35502926670893
  0
LINE
  8
_0-1_レイヤ___1
  6
CONTINUOUS
 62
    7
 10
2437.074525
 20
861.35502926670893
 11
2437.7118750000004
 21
861.98892926670896
  0
LINE
  8
_0-1_レイヤ___1
  6
CONTINUOUS
 62
    7
 10
2437.7118750000004
 20
861.98892926670896
 11
2438.5593650000001
 21
862.41267926670901
  0
LINE
  8
_0-1_レイヤ___1
  6
CONTINUOUS
 62
    7
 10
2438.5593650000001
 20
862.41267926670901
 11
2439.4068550000002
 21
862.83641926670896
  0
LINE
  8
_0-1_レイヤ___1
  6
CONTINUOUS
 62
    7
 10
2439.4068550000002
 20
862.83641926670896
 11
2440.0407550000004
 21
863.050019266709
  0
LINE
  8
_0-1_レイヤ___1
  6
CONTINUOUS
 62
    7
 10
2440.0407550000004
 20
863.050019266709
 11
2440.6746550000003
 21
863.26016926670889
  0
LINE
  8
_0-1_レイヤ___1
  6
CONTINUOUS
 62
    7
 10
2440.6746550000003
 20
863.26016926670889
 11
2441.5221449999999
 21
863.47031926670888
  0
LINE
  8
_0-1_レイヤ___1
  6
CONTINUOUS
 62
    7
 10
2441.5221449999999
 20
863.47031926670888
 11
2442.3696450000002
 21
863.680469266709
  0
LINE
  8
_0-1_レイヤ___1
  6
CONTINUOUS
 62
    7
 10
2417.392695
 20
718.05628926670897
 11
2417.392695
 21
716.78504926670894
  0
LINE
  8
_0-1_レイヤ___1
  6
CONTINUOUS
 62
    7
 10
2417.392695
 20
716.78504926670894
 11
2417.392695
 21
715.51380926670902
  0
LINE
  8
_0-1_レイヤ___1
  6
CONTINUOUS
 62
    7
 10
2417.392695
 20
715.51380926670902
 11
2417.392695
 21
714.24256926670887
  0
LINE
  8
_0-1_レイヤ___1
  6
CONTINUOUS
 62
    7
 10
2417.392695
 20
714.24256926670887
 11
2417.392695
 21
712.97476926670902
  0
LINE
  8
_0-1_レイヤ___1
  6
CONTINUOUS
 62
    7
 10
2417.392695
 20
712.97476926670902
 11
2417.1825450000001
 21
711.70697926670891
  0
LINE
  8
_0-1_レイヤ___1
  6
CONTINUOUS
 62
    7
 10
2417.1825450000001
 20
711.70697926670891
 11
2416.9689550000003
 21
710.43573926670888
  0
LINE
  8
_0-1_レイヤ___1
  6
CONTINUOUS
 62
    7
 10
2416.9689550000003
 20
710.43573926670888
 11
2416.7553550000002
 21
709.16448926670898
  0
LINE
  8
_0-1_レイヤ___1
  6
CONTINUOUS
 62
    7
 10
2416.7553550000002
 20
709.16448926670898
 11
2416.5452050000004
 21
707.89669926670899
  0
LINE
  8
_0-1_レイヤ___1
  6
CONTINUOUS
 62
    7
 10
2416.5452050000004
 20
707.89669926670899
 11
2416.335055
 21
706.83560926670896
  0
LINE
  8
_0-1_レイヤ___1
  6
CONTINUOUS
 62
    7
 10
2416.335055
 20
706.83560926670896
 11
2416.1214550000004
 21
705.77796926670885
  0
LINE
  8
_0-1_レイヤ___1
  6
CONTINUOUS
 62
    7
 10
2416.1214550000004
 20
705.77796926670885
 11
2415.6977150000002
 21
704.50672926670904
  0
LINE
  8
_0-1_レイヤ___1
  6
CONTINUOUS
 62
    7
 10
2415.6977150000002
 20
704.50672926670904
 11
2415.2739650000003
 21
703.23892926670896
  0
LINE
  8
_0-1_レイヤ___1
  6
CONTINUOUS
 62
    7
 10
2415.2739650000003
 20
703.23892926670896
 11
2414.8536650000001
 21
701.97113926670897
  0
LINE
  8
_0-1_レイヤ___1
  6
CONTINUOUS
 62
    7
 10
2414.8536650000001
 20
701.97113926670897
 11
2414.4299150000002
 21
700.69989926670905
  0
LINE
  8
_0-1_レイヤ___1
  6
CONTINUOUS
 62
    7
 10
2414.4299150000002
 20
700.69989926670905
 11
2414.0061650000002
 21
699.64224926670897
  0
LINE
  8
_0-1_レイヤ___1
  6
CONTINUOUS
 62
    7
 10
2414.0061650000002
 20
699.64224926670897
 11
2413.5824250000001
 21
698.58115926670905
  0
LINE
  8
_0-1_レイヤ___1
  6
CONTINUOUS
 62
    7
 10
2413.5824250000001
 20
698.58115926670905
 11
2413.1586750000001
 21
697.31336926670895
  0
LINE
  8
_0-1_レイヤ___1
  6
CONTINUOUS
 62
    7
 10
2413.1586750000001
 20
697.31336926670895
 11
2412.7349250000002
 21
696.04212926670903
  0
LINE
  8
_0-1_レイヤ___1
  6
CONTINUOUS
 62
    7
 10
2412.7349250000002
 20
696.04212926670903
 11
2412.1010350000001
 21
694.98447926670895
  0
LINE
  8
_0-1_レイヤ___1
  6
CONTINUOUS
 62
    7
 10
2412.1010350000001
 20
694.98447926670895
 11
2411.4671349999999
 21
693.92683926670895
  0
LINE
  8
_0-1_レイヤ___1
  6
CONTINUOUS
 62
    7
 10
2411.4671349999999
 20
693.92683926670895
 11
2410.8297950000001
 21
692.86918926670887
  0
LINE
  8
_0-1_レイヤ___1
  6
CONTINUOUS
 62
    7
 10
2410.8297950000001
 20
692.86918926670887
 11
2410.1958950000003
 21
691.80809926670895
  0
LINE
  8
_0-1_レイヤ___1
  6
CONTINUOUS
 62
    7
 10
2410.1958950000003
 20
691.80809926670895
 11
2409.561995
 21
690.75045926670896
  0
LINE
  8
_0-1_レイヤ___1
  6
CONTINUOUS
 62
    7
 10
2409.561995
 20
690.75045926670896
 11
2408.9246550000003
 21
689.69281926670897
  0
LINE
  8
_0-1_レイヤ___1
  6
CONTINUOUS
 62
    7
 10
2408.9246550000003
 20
689.69281926670897
 11
2408.0806050000001
 21
688.63172926670904
  0
LINE
  8
_0-1_レイヤ___1
  6
CONTINUOUS
 62
    7
 10
2408.0806050000001
 20
688.63172926670904
 11
2407.233115
 21
687.57407926670896
  0
LINE
  8
_0-1_レイヤ___1
  6
CONTINUOUS
 62
    7
 10
2407.233115
 20
687.57407926670896
 11
2406.5992150000002
 21
686.51643926670886
  0
LINE
  8
_0-1_レイヤ___1
  6
CONTINUOUS
 62
    7
 10
2406.5992150000002
 20
686.51643926670886
 11
2405.961875
 21
685.45878926670889
  0
LINE
  8
_0-1_レイヤ___1
  6
CONTINUOUS
 62
    7
 10
2405.961875
 20
685.45878926670889
 11
2405.1178250000003
 21
684.40114926670901
  0
LINE
  8
_0-1_レイヤ___1
  6
CONTINUOUS
 62
    7
 10
2405.1178250000003
 20
684.40114926670901
 11
2404.2703250000004
 21
683.34349926670893
  0
LINE
  8
_0-1_レイヤ___1
  6
CONTINUOUS
 62
    7
 10
2404.2703250000004
 20
683.34349926670893
 11
2403.4228350000003
 21
682.49600926670894
  0
LINE
  8
_0-1_レイヤ___1
  6
CONTINUOUS
 62
    7
 10
2403.4228350000003
 20
682.49600926670894
 11
2402.5753450000002
 21
681.64851926670894
  0
LINE
  8
_0-1_レイヤ___1
  6
CONTINUOUS
 62
    7
 10
2402.5753450000002
 20
681.64851926670894
 11
2401.5176950000005
 21
680.80446926670902
  0
LINE
  8
_0-1_レイヤ___1
  6
CONTINUOUS
 62
    7
 10
2401.5176950000005
 20
680.80446926670902
 11
2400.460055
 21
679.95697926670891
  0
LINE
  8
_0-1_レイヤ___1
  6
CONTINUOUS
 62
    7
 10
2400.460055
 20
679.95697926670891
 11
2399.6125650000004
 21
679.10947926670906
  0
LINE
  8
_0-1_レイヤ___1
  6
CONTINUOUS
 62
    7
 10
2399.6125650000004
 20
679.10947926670906
 11
2398.765065
 21
678.26198926670895
  0
LINE
  8
_0-1_レイヤ___1
  6
CONTINUOUS
 62
    7
 10
2398.765065
 20
678.26198926670895
 11
2397.7074250000001
 21
677.41448926670898
  0
LINE
  8
_0-1_レイヤ___1
  6
CONTINUOUS
 62
    7
 10
2397.7074250000001
 20
677.41448926670898
 11
2396.6497750000003
 21
676.57044926670892
  0
LINE
  8
_0-1_レイヤ___1
  6
CONTINUOUS
 62
    7
 10
2396.6497750000003
 20
676.57044926670892
 11
2395.5886850000002
 21
675.93309926670895
  0
LINE
  8
_0-1_レイヤ___1
  6
CONTINUOUS
 62
    7
 10
2395.5886850000002
 20
675.93309926670895
 11
2394.5310450000002
 21
675.299209266709
  0
LINE
  8
_0-1_レイヤ___1
  6
CONTINUOUS
 62
    7
 10
2394.5310450000002
 20
675.299209266709
 11
2393.4734050000002
 21
674.66530926670885
  0
LINE
  8
_0-1_レイヤ___1
  6
CONTINUOUS
 62
    7
 10
2393.4734050000002
 20
674.66530926670885
 11
2392.415755
 21
674.02796926670908
  0
LINE
  8
_0-1_レイヤ___1
  6
CONTINUOUS
 62
    7
 10
2392.415755
 20
674.02796926670908
 11
2391.358115
 21
673.39406926670904
  0
LINE
  8
_0-1_レイヤ___1
  6
CONTINUOUS
 62
    7
 10
2391.358115
 20
673.39406926670904
 11
2390.3004650000003
 21
672.76016926670889
  0
LINE
  8
_0-1_レイヤ___1
  6
CONTINUOUS
 62
    7
 10
2390.3004650000003
 20
672.76016926670889
 11
2389.2428250000003
 21
672.122829266709
  0
LINE
  8
_0-1_レイヤ___1
  6
CONTINUOUS
 62
    7
 10
2389.2428250000003
 20
672.122829266709
 11
2388.1817350000001
 21
671.48892926670896
  0
LINE
  8
_0-1_レイヤ___1
  6
CONTINUOUS
 62
    7
 10
2388.1817350000001
 20
671.48892926670896
 11
2386.913935
 21
671.06517926670904
  0
LINE
  8
_0-1_レイヤ___1
  6
CONTINUOUS
 62
    7
 10
2386.913935
 20
671.06517926670904
 11
2385.6426950000005
 21
670.64143926670897
  0
LINE
  8
_0-1_レイヤ___1
  6
CONTINUOUS
 62
    7
 10
2385.6426950000005
 20
670.64143926670897
 11
2384.5850550000005
 21
670.21768926670893
  0
LINE
  8
_0-1_レイヤ___1
  6
CONTINUOUS
 62
    7
 10
2384.5850550000005
 20
670.21768926670893
 11
2383.5239650000003
 21
669.793939266709
  0
LINE
  8
_0-1_レイヤ___1
  6
CONTINUOUS
 62
    7
 10
2383.5239650000003
 20
669.793939266709
 11
2382.2561650000002
 21
669.37363926670901
  0
LINE
  8
_0-1_レイヤ___1
  6
CONTINUOUS
 62
    7
 10
2382.2561650000002
 20
669.37363926670901
 11
2380.9849250000002
 21
668.94989926670883
  0
LINE
  8
_0-1_レイヤ___1
  6
CONTINUOUS
 62
    7
 10
2380.9849250000002
 20
668.94989926670883
 11
2379.7136850000002
 21
668.5261492667089
  0
LINE
  8
_0-1_レイヤ___1
  6
CONTINUOUS
 62
    7
 10
2379.7136850000002
 20
668.5261492667089
 11
2378.4458950000003
 21
668.10239926670897
  0
LINE
  8
_0-1_レイヤ___1
  6
CONTINUOUS
 62
    7
 10
2378.4458950000003
 20
668.10239926670897
 11
2377.1780950000002
 21
667.89224926670897
  0
LINE
  8
_0-1_レイヤ___1
  6
CONTINUOUS
 62
    7
 10
2377.1780950000002
 20
667.89224926670897
 11
2375.9068550000002
 21
667.67865926670891
  0
LINE
  8
_0-1_レイヤ___1
  6
CONTINUOUS
 62
    7
 10
2375.9068550000002
 20
667.67865926670891
 11
2374.8492150000002
 21
667.46505926670898
  0
LINE
  8
_0-1_レイヤ___1
  6
CONTINUOUS
 62
    7
 10
2374.8492150000002
 20
667.46505926670898
 11
2373.788125
 21
667.25490926670886
  0
LINE
  8
_0-1_レイヤ___1
  6
CONTINUOUS
 62
    7
 10
2373.788125
 20
667.25490926670886
 11
2372.520325
 21
667.04475926670898
  0
LINE
  8
_0-1_レイヤ___1
  6
CONTINUOUS
 62
    7
 10
2372.520325
 20
667.04475926670898
 11
2371.2490849999999
 21
666.83115926670894
  0
LINE
  8
_0-1_レイヤ___1
  6
CONTINUOUS
 62
    7
 10
2371.2490849999999
 20
666.83115926670894
 11
2369.9778450000003
 21
666.83115926670894
  0
LINE
  8
_0-1_レイヤ___1
  6
CONTINUOUS
 62
    7
 10
2369.9778450000003
 20
666.83115926670894
 11
2368.7100550000005
 21
666.83115926670894
  0
LINE
  8
_0-1_レイヤ___1
  6
CONTINUOUS
 62
    7
 10
2368.7100550000005
 20
666.83115926670894
 11
2367.438815
 21
666.83115926670894
  0
LINE
  8
_0-1_レイヤ___1
  6
CONTINUOUS
 62
    7
 10
2367.438815
 20
666.83115926670894
 11
2366.1675749999999
 21
666.83115926670894
  0
LINE
  8
_0-1_レイヤ___1
  6
CONTINUOUS
 62
    7
 10
2289.5452050000004
 20
656.67157926670893
 11
2290.392695
 21
657.72921926670904
  0
LINE
  8
_0-1_レイヤ___1
  6
CONTINUOUS
 62
    7
 10
2290.392695
 20
657.72921926670904
 11
2291.2401949999999
 21
658.79030926670896
  0
LINE
  8
_0-1_レイヤ___1
  6
CONTINUOUS
 62
    7
 10
2291.2401949999999
 20
658.79030926670896
 11
2292.084245
 21
659.63779926670895
  0
LINE
  8
_0-1_レイヤ___1
  6
CONTINUOUS
 62
    7
 10
2292.084245
 20
659.63779926670895
 11
2292.9317350000001
 21
660.48184926670899
  0
LINE
  8
_0-1_レイヤ___1
  6
CONTINUOUS
 62
    7
 10
2292.9317350000001
 20
660.48184926670899
 11
2293.7792250000002
 21
661.32933926670887
  0
LINE
  8
_0-1_レイヤ___1
  6
CONTINUOUS
 62
    7
 10
2293.7792250000002
 20
661.32933926670887
 11
2294.6267250000001
 21
662.17683926670907
  0
LINE
  8
_0-1_レイヤ___1
  6
CONTINUOUS
 62
    7
 10
2294.6267250000001
 20
662.17683926670907
 11
2295.6843650000001
 21
662.81073926670899
  0
LINE
  8
_0-1_レイヤ___1
  6
CONTINUOUS
 62
    7
 10
2295.6843650000001
 20
662.81073926670899
 11
2296.7420050000001
 21
663.44462926670894
  0
LINE
  8
_0-1_レイヤ___1
  6
CONTINUOUS
 62
    7
 10
2296.7420050000001
 20
663.44462926670894
 11
2297.7996549999998
 21
663.86837926670887
  0
LINE
  8
_0-1_レイヤ___1
  6
CONTINUOUS
 62
    7
 10
2297.7996549999998
 20
663.86837926670887
 11
2298.8572950000002
 21
664.2921292667088
  0
LINE
  8
_0-1_レイヤ___1
  6
CONTINUOUS
 62
    7
 10
2298.8572950000002
 20
664.2921292667088
 11
2299.9183850000004
 21
664.71586926670898
  0
LINE
  8
_0-1_レイヤ___1
  6
CONTINUOUS
 62
    7
 10
2299.9183850000004
 20
664.71586926670898
 11
2300.9760350000001
 21
665.13961926670902
  0
LINE
  8
_0-1_レイヤ___1
  6
CONTINUOUS
 62
    7
 10
2300.9760350000001
 20
665.13961926670902
 11
2302.2472750000002
 21
665.3497692667089
  0
LINE
  8
_0-1_レイヤ___1
  6
CONTINUOUS
 62
    7
 10
2302.2472750000002
 20
665.3497692667089
 11
2303.5150650000005
 21
665.56336926670895
  0
LINE
  8
_0-1_レイヤ___1
  6
CONTINUOUS
 62
    7
 10
2303.5150650000005
 20
665.56336926670895
 11
2304.7828650000001
 21
665.56336926670895
  0
LINE
  8
_0-1_レイヤ___1
  6
CONTINUOUS
 62
    7
 10
2304.7828650000001
 20
665.56336926670895
 11
2306.0541050000002
 21
665.56336926670895
  0
LINE
  8
_0-1_レイヤ___1
  6
CONTINUOUS
 62
    7
 10
2157.8874350000001
 20
665.56336926670895
 11
2159.1586750000001
 21
665.56336926670895
  0
LINE
  8
_0-1_レイヤ___1
  6
CONTINUOUS
 62
    7
 10
2159.1586750000001
 20
665.56336926670895
 11
2160.4299150000002
 21
665.56336926670895
  0
LINE
  8
_0-1_レイヤ___1
  6
CONTINUOUS
 62
    7
 10
2160.4299150000002
 20
665.56336926670895
 11
2161.4875650000004
 21
665.3497692667089
  0
LINE
  8
_0-1_レイヤ___1
  6
CONTINUOUS
 62
    7
 10
2161.4875650000004
 20
665.3497692667089
 11
2162.5452050000004
 21
665.13961926670902
  0
LINE
  8
_0-1_レイヤ___1
  6
CONTINUOUS
 62
    7
 10
2162.5452050000004
 20
665.13961926670902
 11
2163.8164450000004
 21
664.71586926670898
  0
LINE
  8
_0-1_レイヤ___1
  6
CONTINUOUS
 62
    7
 10
2163.8164450000004
 20
664.71586926670898
 11
2165.084245
 21
664.2921292667088
  0
LINE
  8
_0-1_レイヤ___1
  6
CONTINUOUS
 62
    7
 10
2165.084245
 20
664.2921292667088
 11
2166.1453250000004
 21
663.86837926670887
  0
LINE
  8
_0-1_レイヤ___1
  6
CONTINUOUS
 62
    7
 10
2166.1453250000004
 20
663.86837926670887
 11
2167.2029750000002
 21
663.44462926670894
  0
LINE
  8
_0-1_レイヤ___1
  6
CONTINUOUS
 62
    7
 10
2167.2029750000002
 20
663.44462926670894
 11
2168.2606150000001
 21
662.81073926670899
  0
LINE
  8
_0-1_レイヤ___1
  6
CONTINUOUS
 62
    7
 10
2168.2606150000001
 20
662.81073926670899
 11
2169.3182650000003
 21
662.17683926670907
  0
LINE
  8
_0-1_レイヤ___1
  6
CONTINUOUS
 62
    7
 10
2169.3182650000003
 20
662.17683926670907
 11
2170.165755
 21
661.32933926670887
  0
LINE
  8
_0-1_レイヤ___1
  6
CONTINUOUS
 62
    7
 10
2170.165755
 20
661.32933926670887
 11
2171.0132450000001
 21
660.48184926670899
  0
LINE
  8
_0-1_レイヤ___1
  6
CONTINUOUS
 62
    7
 10
2171.0132450000001
 20
660.48184926670899
 11
2171.8572950000002
 21
659.63779926670895
  0
LINE
  8
_0-1_レイヤ___1
  6
CONTINUOUS
 62
    7
 10
2171.8572950000002
 20
659.63779926670895
 11
2172.7047950000001
 21
658.79030926670896
  0
LINE
  8
_0-1_レイヤ___1
  6
CONTINUOUS
 62
    7
 10
2172.7047950000001
 20
658.79030926670896
 11
2173.3386850000002
 21
657.72921926670904
  0
LINE
  8
_0-1_レイヤ___1
  6
CONTINUOUS
 62
    7
 10
2173.3386850000002
 20
657.72921926670904
 11
2173.9760350000001
 21
656.67157926670893
  0
LINE
  8
_0-1_レイヤ___1
  6
CONTINUOUS
 62
    7
 10
2096.0824250000001
 20
667.67865926670891
 11
2093.7535350000003
 21
667.89224926670897
  0
LINE
  8
_0-1_レイヤ___1
  6
CONTINUOUS
 62
    7
 10
2093.7535350000003
 20
667.89224926670897
 11
2091.4246550000003
 21
668.10239926670897
  0
LINE
  8
_0-1_レイヤ___1
  6
CONTINUOUS
 62
    7
 10
2091.4246550000003
 20
668.10239926670897
 11
2089.0992150000002
 21
668.5261492667089
  0
LINE
  8
_0-1_レイヤ___1
  6
CONTINUOUS
 62
    7
 10
2089.0992150000002
 20
668.5261492667089
 11
2086.7703250000004
 21
668.94989926670883
  0
LINE
  8
_0-1_レイヤ___1
  6
CONTINUOUS
 62
    7
 10
2086.7703250000004
 20
668.94989926670883
 11
2084.655045
 21
669.58378926670889
  0
LINE
  8
_0-1_レイヤ___1
  6
CONTINUOUS
 62
    7
 10
2084.655045
 20
669.58378926670889
 11
2082.5363050000001
 21
670.21768926670893
  0
LINE
  8
_0-1_レイヤ___1
  6
CONTINUOUS
 62
    7
 10
2082.5363050000001
 20
670.21768926670893
 11
2080.2074250000001
 21
671.06517926670904
  0
LINE
  8
_0-1_レイヤ___1
  6
CONTINUOUS
 62
    7
 10
2080.2074250000001
 20
671.06517926670904
 11
2077.8785350000003
 21
671.91267926670889
  0
LINE
  8
_0-1_レイヤ___1
  6
CONTINUOUS
 62
    7
 10
2077.8785350000003
 20
671.91267926670889
 11
2075.9734050000002
 21
672.970319266709
  0
LINE
  8
_0-1_レイヤ___1
  6
CONTINUOUS
 62
    7
 10
2075.9734050000002
 20
672.970319266709
 11
2074.0682650000003
 21
674.02796926670908
  0
LINE
  8
_0-1_レイヤ___1
  6
CONTINUOUS
 62
    7
 10
2074.0682650000003
 20
674.02796926670908
 11
2071.9495250000004
 21
675.299209266709
  0
LINE
  8
_0-1_レイヤ___1
  6
CONTINUOUS
 62
    7
 10
2071.9495250000004
 20
675.299209266709
 11
2069.834245
 21
676.57044926670892
  0
LINE
  8
_0-1_レイヤ___1
  6
CONTINUOUS
 62
    7
 10
2069.834245
 20
676.57044926670892
 11
2068.139255
 21
678.05183926670895
  0
LINE
  8
_0-1_レイヤ___1
  6
CONTINUOUS
 62
    7
 10
2068.139255
 20
678.05183926670895
 11
2066.4477150000002
 21
679.53322926670899
  0
LINE
  8
_0-1_レイヤ___1
  6
CONTINUOUS
 62
    7
 10
2066.4477150000002
 20
679.53322926670899
 11
2064.7561650000002
 21
681.22476926670879
  0
LINE
  8
_0-1_レイヤ___1
  6
CONTINUOUS
 62
    7
 10
2064.7561650000002
 20
681.22476926670879
 11
2063.0611850000005
 21
682.91975926670887
  0
LINE
  8
_0-1_レイヤ___1
  6
CONTINUOUS
 62
    7
 10
2063.0611850000005
 20
682.91975926670887
 11
2061.3661950000001
 21
684.61473926670897
  0
LINE
  8
_0-1_レイヤ___1
  6
CONTINUOUS
 62
    7
 10
2061.3661950000001
 20
684.61473926670897
 11
2059.6746549999998
 21
686.30628926670897
  0
LINE
  8
_0-1_レイヤ___1
  6
CONTINUOUS
 62
    7
 10
2059.6746549999998
 20
686.30628926670897
 11
2058.4034150000002
 21
688.21141926670884
  0
LINE
  8
_0-1_レイヤ___1
  6
CONTINUOUS
 62
    7
 10
2058.4034150000002
 20
688.21141926670884
 11
2057.1356150000001
 21
690.11655926670892
  0
LINE
  8
_0-1_レイヤ___1
  6
CONTINUOUS
 62
    7
 10
2057.1356150000001
 20
690.11655926670892
 11
2055.8678250000003
 21
692.02169926670899
  0
LINE
  8
_0-1_レイヤ___1
  6
CONTINUOUS
 62
    7
 10
2055.8678250000003
 20
692.02169926670899
 11
2054.5965850000002
 21
693.92683926670895
  0
LINE
  8
_0-1_レイヤ___1
  6
CONTINUOUS
 62
    7
 10
2054.5965850000002
 20
693.92683926670895
 11
2053.5389350000005
 21
696.04212926670903
  0
LINE
  8
_0-1_レイヤ___1
  6
CONTINUOUS
 62
    7
 10
2053.5389350000005
 20
696.04212926670903
 11
2052.4778450000003
 21
698.15740926670901
  0
LINE
  8
_0-1_レイヤ___1
  6
CONTINUOUS
 62
    7
 10
2052.4778450000003
 20
698.15740926670901
 11
2051.6303550000002
 21
700.2761492667089
  0
LINE
  8
_0-1_レイヤ___1
  6
CONTINUOUS
 62
    7
 10
2051.6303550000002
 20
700.2761492667089
 11
2050.7863050000001
 21
702.39143926670886
  0
LINE
  8
_0-1_レイヤ___1
  6
CONTINUOUS
 62
    7
 10
2050.7863050000001
 20
702.39143926670886
 11
2050.3625649999999
 21
704.72031926670888
  0
LINE
  8
_0-1_レイヤ___1
  6
CONTINUOUS
 62
    7
 10
2050.3625649999999
 20
704.72031926670888
 11
2049.938815
 21
707.04920926670889
  0
LINE
  8
_0-1_レイヤ___1
  6
CONTINUOUS
 62
    7
 10
2049.938815
 20
707.04920926670889
 11
2049.515065
 21
709.37808926670891
  0
LINE
  8
_0-1_レイヤ___1
  6
CONTINUOUS
 62
    7
 10
2049.515065
 20
709.37808926670891
 11
2049.0913250000003
 21
711.70697926670891
  0
LINE
  8
_0-1_レイヤ___1
  6
CONTINUOUS
 62
    7
 10
2049.0913250000003
 20
711.70697926670891
 11
2048.8811650000002
 21
714.03585926670894
  0
LINE
  8
_0-1_レイヤ___1
  6
CONTINUOUS
 62
    7
 10
2048.8811650000002
 20
714.03585926670894
 11
2048.6675749999999
 21
716.3612992667089
  0
LINE
  8
_0-1_レイヤ___1
  6
CONTINUOUS
 62
    7
 10
2480.8926950000005
 20
865.79920926670889
 11
2461.6311650000002
 21
864.73811926670896
  0
LINE
  8
_0-1_レイヤ___1
  6
CONTINUOUS
 62
    7
 10
2461.6311650000002
 20
864.73811926670896
 11
2442.3696450000002
 21
863.680469266709
  0
LINE
  8
_0-1_レイヤ___1
  6
CONTINUOUS
 62
    7
 10
2433.4778450000003
 20
854.79212926670903
 11
2425.436995
 21
786.42420926670889
  0
LINE
  8
_0-1_レイヤ___1
  6
CONTINUOUS
 62
    7
 10
2425.436995
 20
786.42420926670889
 11
2417.392695
 21
718.05628926670897
  0
LINE
  8
_0-1_レイヤ___1
  6
CONTINUOUS
 62
    7
 10
2366.1675749999999
 20
666.83115926670894
 11
2336.1125650000004
 21
666.1972592667089
  0
LINE
  8
_0-1_レイヤ___1
  6
CONTINUOUS
 62
    7
 10
2336.1125650000004
 20
666.1972592667089
 11
2306.0541050000002
 21
665.56336926670895
  0
LINE
  8
_0-1_レイヤ___1
  6
CONTINUOUS
 62
    7
 10
2157.8874350000001
 20
665.56336926670895
 11
2126.9849250000002
 21
666.62100926670882
  0
LINE
  8
_0-1_レイヤ___1
  6
CONTINUOUS
 62
    7
 10
2126.9849250000002
 20
666.62100926670882
 11
2096.0824250000001
 21
667.67865926670891
  0
LINE
  8
_0-1_レイヤ___1
  6
CONTINUOUS
 62
    7
 10
2048.6675749999999
 20
716.3612992667089
 11
2038.2978350000003
 21
791.08197926670891
  0
LINE
  8
_0-1_レイヤ___1
  6
CONTINUOUS
 62
    7
 10
2038.2978350000003
 20
791.08197926670891
 11
2027.9246550000003
 21
865.79920926670889
  0
LINE
  8
_0-1_レイヤ___1
  6
CONTINUOUS
 62
    7
 10
2173.9760350000001
 20
656.67157926670893
 11
2231.7606150000001
 21
656.67157926670893
  0
LINE
  8
_0-1_レイヤ___1
  6
CONTINUOUS
 62
    7
 10
2231.7606150000001
 20
656.67157926670893
 11
2289.5452050000004
 21
656.67157926670893
  0
LINE
  8
_0-1_レイヤ___1
  6
CONTINUOUS
 62
    7
 10
1991.0965850000002
 20
869.60947926670895
 11
1991.0965850000002
 21
870.66712926670891
  0
LINE
  8
_0-1_レイヤ___1
  6
CONTINUOUS
 62
    7
 10
1991.0965850000002
 20
870.66712926670891
 11
1991.0965850000002
 21
871.72476926670902
  0
LINE
  8
_0-1_レイヤ___1
  6
CONTINUOUS
 62
    7
 10
1991.0965850000002
 20
871.72476926670902
 11
1991.3067350000003
 21
872.57225926670901
  0
LINE
  8
_0-1_レイヤ___1
  6
CONTINUOUS
 62
    7
 10
1991.3067350000003
 20
872.57225926670901
 11
1991.5203250000002
 21
873.41975926670898
  0
LINE
  8
_0-1_レイヤ___1
  6
CONTINUOUS
 62
    7
 10
1991.5203250000002
 20
873.41975926670898
 11
1991.9406350000004
 21
874.05365926670902
  0
LINE
  8
_0-1_レイヤ___1
  6
CONTINUOUS
 62
    7
 10
1991.9406350000004
 20
874.05365926670902
 11
1992.3643750000001
 21
874.68754926670897
  0
LINE
  8
_0-1_レイヤ___1
  6
CONTINUOUS
 62
    7
 10
1992.3643750000001
 20
874.68754926670897
 11
1993.0017250000001
 21
875.3214492667089
  0
LINE
  8
_0-1_レイヤ___1
  6
CONTINUOUS
 62
    7
 10
1993.0017250000001
 20
875.3214492667089
 11
1993.6356150000001
 21
875.95878926670889
  0
LINE
  8
_0-1_レイヤ___1
  6
CONTINUOUS
 62
    7
 10
1993.6356150000001
 20
875.95878926670889
 11
1994.269515
 21
876.59613926670897
  0
LINE
  8
_0-1_レイヤ___1
  6
CONTINUOUS
 62
    7
 10
1994.269515
 20
876.59613926670897
 11
1994.9068550000002
 21
877.23002926670904
  0
LINE
  8
_0-1_レイヤ___1
  6
CONTINUOUS
 62
    7
 10
1994.9068550000002
 20
877.23002926670904
 11
1995.7509050000001
 21
877.65032926670892
  0
LINE
  8
_0-1_レイヤ___1
  6
CONTINUOUS
 62
    7
 10
1995.7509050000001
 20
877.65032926670892
 11
1996.598405
 21
878.07407926670885
  0
LINE
  8
_0-1_レイヤ___1
  6
CONTINUOUS
 62
    7
 10
1996.598405
 20
878.07407926670885
 11
1997.4458950000003
 21
878.28422926670896
  0
LINE
  8
_0-1_レイヤ___1
  6
CONTINUOUS
 62
    7
 10
1997.4458950000003
 20
878.28422926670896
 11
1998.2933849999999
 21
878.497829266709
  0
LINE
  8
_0-1_レイヤ___1
  6
CONTINUOUS
 62
    7
 10
1998.2933849999999
 20
878.497829266709
 11
1999.1408850000003
 21
878.71141926670907
  0
LINE
  8
_0-1_レイヤ___1
  6
CONTINUOUS
 62
    7
 10
1999.1408850000003
 20
878.71141926670907
 11
1999.9849250000002
 21
878.92157926670893
  0
LINE
  8
_0-1_レイヤ___1
  6
CONTINUOUS
 62
    7
 10
1999.9849250000002
 20
878.92157926670893
 11
2270.4972750000002
 21
878.92157926670893
  0
LINE
  8
_0-1_レイヤ___1
  6
CONTINUOUS
 62
    7
 10
2270.4972750000002
 20
878.92157926670893
 11
2541.0061650000002
 21
878.92157926670893
  0
LINE
  8
_0-1_レイヤ___1
  6
CONTINUOUS
 62
    7
 10
2541.0061650000002
 20
878.92157926670893
 11
2541.8536650000001
 21
878.71141926670907
  0
LINE
  8
_0-1_レイヤ___1
  6
CONTINUOUS
 62
    7
 10
2541.8536650000001
 20
878.71141926670907
 11
2542.6977150000002
 21
878.497829266709
  0
LINE
  8
_0-1_レイヤ___1
  6
CONTINUOUS
 62
    7
 10
2542.6977150000002
 20
878.497829266709
 11
2543.5452049999999
 21
878.28422926670896
  0
LINE
  8
_0-1_レイヤ___1
  6
CONTINUOUS
 62
    7
 10
2543.5452049999999
 20
878.28422926670896
 11
2544.3926950000005
 21
878.07407926670885
  0
LINE
  8
_0-1_レイヤ___1
  6
CONTINUOUS
 62
    7
 10
2544.3926950000005
 20
878.07407926670885
 11
2545.2367450000002
 21
877.65032926670892
  0
LINE
  8
_0-1_レイヤ___1
  6
CONTINUOUS
 62
    7
 10
2545.2367450000002
 20
877.65032926670892
 11
2546.084245
 21
877.23002926670904
  0
LINE
  8
_0-1_レイヤ___1
  6
CONTINUOUS
 62
    7
 10
2546.084245
 20
877.23002926670904
 11
2546.7181350000001
 21
876.59613926670897
  0
LINE
  8
_0-1_レイヤ___1
  6
CONTINUOUS
 62
    7
 10
2546.7181350000001
 20
876.59613926670897
 11
2547.355485
 21
875.95878926670889
  0
LINE
  8
_0-1_レイヤ___1
  6
CONTINUOUS
 62
    7
 10
2547.355485
 20
875.95878926670889
 11
2547.7792250000002
 21
875.3214492667089
  0
LINE
  8
_0-1_レイヤ___1
  6
CONTINUOUS
 62
    7
 10
2547.7792250000002
 20
875.3214492667089
 11
2548.2029750000002
 21
874.68754926670897
  0
LINE
  8
_0-1_レイヤ___1
  6
CONTINUOUS
 62
    7
 10
2548.2029750000002
 20
874.68754926670897
 11
2548.6267250000001
 21
874.05365926670902
  0
LINE
  8
_0-1_レイヤ___1
  6
CONTINUOUS
 62
    7
 10
2548.6267250000001
 20
874.05365926670902
 11
2549.0504650000003
 21
873.41975926670898
  0
LINE
  8
_0-1_レイヤ___1
  6
CONTINUOUS
 62
    7
 10
2549.0504650000003
 20
873.41975926670898
 11
2549.4742150000002
 21
872.57225926670901
  0
LINE
  8
_0-1_レイヤ___1
  6
CONTINUOUS
 62
    7
 10
2549.4742150000002
 20
872.57225926670901
 11
2549.894515
 21
871.72476926670902
  0
LINE
  8
_0-1_レイヤ___1
  6
CONTINUOUS
 62
    7
 10
2549.894515
 20
871.72476926670902
 11
2549.894515
 21
870.66712926670891
  0
LINE
  8
_0-1_レイヤ___1
  6
CONTINUOUS
 62
    7
 10
2549.894515
 20
870.66712926670891
 11
2549.894515
 21
869.60947926670895
  0
LINE
  8
_0-1_レイヤ___1
  6
CONTINUOUS
 62
    7
 10
2549.894515
 20
869.60947926670895
 11
2549.894515
 21
867.70433926670887
  0
LINE
  8
_0-1_レイヤ___1
  6
CONTINUOUS
 62
    7
 10
2549.894515
 20
867.70433926670887
 11
2549.894515
 21
865.79920926670889
  0
LINE
  8
_0-1_レイヤ___1
  6
CONTINUOUS
 62
    7
 10
2549.894515
 20
865.79920926670889
 11
2270.4972750000002
 21
865.79920926670889
  0
LINE
  8
_0-1_レイヤ___1
  6
CONTINUOUS
 62
    7
 10
2270.4972750000002
 20
865.79920926670889
 11
1991.0965850000002
 21
865.79920926670889
  0
LINE
  8
_0-1_レイヤ___1
  6
CONTINUOUS
 62
    7
 10
1991.0965850000002
 20
865.79920926670889
 11
1991.0965850000002
 21
867.70433926670887
  0
LINE
  8
_0-1_レイヤ___1
  6
CONTINUOUS
 62
    7
 10
1991.0965850000002
 20
867.70433926670887
 11
1991.0965850000002
 21
869.60947926670895
  0
LINE
  8
_0-1_レイヤ___1
  6
CONTINUOUS
 62
    7
 10
2470.733115
 20
903.4747692667089
 11
2470.733115
 21
897.12545926670896
  0
LINE
  8
_0-1_レイヤ___1
  6
CONTINUOUS
 62
    7
 10
2470.733115
 20
897.12545926670896
 11
2470.733115
 21
890.7761492667089
  0
LINE
  8
_0-1_レイヤ___1
  6
CONTINUOUS
 62
    7
 10
2470.733115
 20
886.54212926670891
 11
2470.733115
 21
885.90477926670906
  0
LINE
  8
_0-1_レイヤ___1
  6
CONTINUOUS
 62
    7
 10
2470.733115
 20
885.90477926670906
 11
2470.733115
 21
885.27088926670899
  0
LINE
  8
_0-1_レイヤ___1
  6
CONTINUOUS
 62
    7
 10
2470.733115
 20
882.30809926670895
 11
2470.733115
 21
881.674209266709
  0
LINE
  8
_0-1_レイヤ___1
  6
CONTINUOUS
 62
    7
 10
2470.733115
 20
881.674209266709
 11
2470.733115
 21
881.04030926670907
  0
LINE
  8
_0-1_レイヤ___1
  6
CONTINUOUS
 62
    7
 10
2470.733115
 20
878.07407926670885
 11
2470.733115
 21
871.72476926670902
  0
LINE
  8
_0-1_レイヤ___1
  6
CONTINUOUS
 62
    7
 10
2470.733115
 20
871.72476926670902
 11
2470.733115
 21
865.37545926670896
  0
LINE
  8
_0-1_レイヤ___1
  6
CONTINUOUS
 62
    7
 10
2470.733115
 20
861.14143926670886
 11
2470.733115
 21
860.50753926670893
  0
LINE
  8
_0-1_レイヤ___1
  6
CONTINUOUS
 62
    7
 10
2470.733115
 20
860.50753926670893
 11
2470.733115
 21
859.87363926670901
  0
LINE
  8
_0-1_レイヤ___1
  6
CONTINUOUS
 62
    7
 10
2470.733115
 20
856.90740926670901
 11
2470.733115
 21
856.27351926670894
  0
LINE
  8
_0-1_レイヤ___1
  6
CONTINUOUS
 62
    7
 10
2470.733115
 20
856.27351926670894
 11
2470.733115
 21
855.63961926670902
  0
LINE
  8
_0-1_レイヤ___1
  6
CONTINUOUS
 62
    7
 10
2470.733115
 20
852.67683926670895
 11
2470.733115
 21
846.32752926670889
  0
LINE
  8
_0-1_レイヤ___1
  6
CONTINUOUS
 62
    7
 10
2470.733115
 20
846.32752926670889
 11
2470.733115
 21
839.97476926670902
  0
LINE
  8
_0-1_レイヤ___1
  6
CONTINUOUS
 62
    7
 10
2470.733115
 20
835.74074926670892
 11
2470.733115
 21
835.10684926670888
  0
LINE
  8
_0-1_レイヤ___1
  6
CONTINUOUS
 62
    7
 10
2470.733115
 20
835.10684926670888
 11
2470.733115
 21
834.47294926670895
  0
LINE
  8
_0-1_レイヤ___1
  6
CONTINUOUS
 62
    7
 10
2470.733115
 20
831.51016926670889
 11
2470.733115
 21
830.872829266709
  0
LINE
  8
_0-1_レイヤ___1
  6
CONTINUOUS
 62
    7
 10
2470.733115
 20
830.872829266709
 11
2470.733115
 21
830.23892926670896
  0
LINE
  8
_0-1_レイヤ___1
  6
CONTINUOUS
 62
    7
 10
2470.733115
 20
828.96768926670904
 11
2470.733115
 21
828.543939266709
  0
LINE
  8
_0-1_レイヤ___1
  6
CONTINUOUS
 62
    7
 10
2470.733115
 20
828.543939266709
 11
2470.733115
 21
828.12363926670901
  0
LINE
  8
_0-1_レイヤ___1
  6
CONTINUOUS
 62
    5
 10
1991.0965850000002
 20
898.82044926670903
 11
1991.0965850000002
 21
990.26016926670889
  0
LINE
  8
_0-1_レイヤ___1
  6
CONTINUOUS
 62
    5
 10
1991.0965850000002
 20
990.26016926670889
 11
1991.0965850000002
 21
1081.6998992667091
  0
LINE
  8
_0-1_レイヤ___1
  6
CONTINUOUS
 62
    5
 10
2549.894515
 20
898.82044926670903
 11
2549.894515
 21
990.26016926670889
  0
LINE
  8
_0-1_レイヤ___1
  6
CONTINUOUS
 62
    5
 10
2549.894515
 20
990.26016926670889
 11
2549.894515
 21
1081.6998992667091
  0
LINE
  8
_0-1_レイヤ___1
  6
CONTINUOUS
 62
    5
 10
1994.4831150000002
 20
1071.750459266709
 11
1993.4358050000001
 21
1074.292939266709
  0
LINE
  8
_0-1_レイヤ___1
  6
CONTINUOUS
 62
    5
 10
1993.4358050000001
 20
1074.292939266709
 11
1990.8829850000002
 21
1075.3471392667088
  0
LINE
  8
_0-1_レイヤ___1
  6
CONTINUOUS
 62
    5
 10
1990.8829850000002
 20
1075.3471392667088
 11
1988.3301750000001
 21
1074.292939266709
  0
LINE
  8
_0-1_レイヤ___1
  6
CONTINUOUS
 62
    5
 10
1988.3301750000001
 20
1074.292939266709
 11
1987.2863050000001
 21
1071.750459266709
  0
LINE
  8
_0-1_レイヤ___1
  6
CONTINUOUS
 62
    5
 10
1987.2863050000001
 20
1071.750459266709
 11
1988.3301750000001
 21
1069.204529266709
  0
LINE
  8
_0-1_レイヤ___1
  6
CONTINUOUS
 62
    5
 10
1988.3301750000001
 20
1069.204529266709
 11
1990.8829850000002
 21
1068.1503292667089
  0
LINE
  8
_0-1_レイヤ___1
  6
CONTINUOUS
 62
    5
 10
1990.8829850000002
 20
1068.1503292667089
 11
1993.4358050000001
 21
1069.204529266709
  0
LINE
  8
_0-1_レイヤ___1
  6
CONTINUOUS
 62
    5
 10
1993.4358050000001
 20
1069.204529266709
 11
1994.4831150000002
 21
1071.750459266709
  0
LINE
  8
_0-1_レイヤ___1
  6
CONTINUOUS
 62
    5
 10
2553.7047950000001
 20
1071.750459266709
 11
2552.5954750000001
 21
1074.292939266709
  0
LINE
  8
_0-1_レイヤ___1
  6
CONTINUOUS
 62
    5
 10
2552.5954750000001
 20
1074.292939266709
 11
2549.894515
 21
1075.3471392667088
  0
LINE
  8
_0-1_レイヤ___1
  6
CONTINUOUS
 62
    5
 10
2549.894515
 20
1075.3471392667088
 11
2547.197005
 21
1074.292939266709
  0
LINE
  8
_0-1_レイヤ___1
  6
CONTINUOUS
 62
    5
 10
2547.197005
 20
1074.292939266709
 11
2546.084245
 21
1071.750459266709
  0
LINE
  8
_0-1_レイヤ___1
  6
CONTINUOUS
 62
    5
 10
2546.084245
 20
1071.750459266709
 11
2547.197005
 21
1069.204529266709
  0
LINE
  8
_0-1_レイヤ___1
  6
CONTINUOUS
 62
    5
 10
2547.197005
 20
1069.204529266709
 11
2549.894515
 21
1068.1503292667089
  0
LINE
  8
_0-1_レイヤ___1
  6
CONTINUOUS
 62
    5
 10
2549.894515
 20
1068.1503292667089
 11
2552.5954750000001
 21
1069.204529266709
  0
LINE
  8
_0-1_レイヤ___1
  6
CONTINUOUS
 62
    5
 10
2552.5954750000001
 20
1069.204529266709
 11
2553.7047950000001
 21
1071.750459266709
  0
LINE
  8
_0-1_レイヤ___1
  6
CONTINUOUS
 62
    5
 10
1991.0965850000002
 20
1071.9606092667091
 11
2270.4972750000002
 21
1071.9606092667091
  0
LINE
  8
_0-1_レイヤ___1
  6
CONTINUOUS
 62
    5
 10
2270.4972750000002
 20
1071.9606092667091
 11
2549.894515
 21
1071.9606092667091
  0
LINE
  8
_0-1_レイヤ___1
  6
CONTINUOUS
 62
    5
 10
2231.970765
 20
766.73892926670896
 11
2231.970765
 21
890.35239926670897
  0
LINE
  8
_0-1_レイヤ___1
  6
CONTINUOUS
 62
    5
 10
2231.970765
 20
890.35239926670897
 11
2231.970765
 21
1013.965869266709
  0
LINE
  8
_0-1_レイヤ___1
  6
CONTINUOUS
 62
    5
 10
2549.894515
 20
898.82044926670903
 11
2549.894515
 21
956.39143926670897
  0
LINE
  8
_0-1_レイヤ___1
  6
CONTINUOUS
 62
    5
 10
2549.894515
 20
956.39143926670897
 11
2549.894515
 21
1013.965869266709
  0
LINE
  8
_0-1_レイヤ___1
  6
CONTINUOUS
 62
    5
 10
2235.7810450000002
 20
1003.806289266709
 11
2234.6717250000002
 21
1006.4969092667091
  0
LINE
  8
_0-1_レイヤ___1
  6
CONTINUOUS
 62
    5
 10
2234.6717250000002
 20
1006.4969092667091
 11
2231.970765
 21
1007.6165592667089
  0
LINE
  8
_0-1_レイヤ___1
  6
CONTINUOUS
 62
    5
 10
2231.970765
 20
1007.6165592667089
 11
2229.2732550000001
 21
1006.4969092667091
  0
LINE
  8
_0-1_レイヤ___1
  6
CONTINUOUS
 62
    5
 10
2229.2732550000001
 20
1006.4969092667091
 11
2228.163935
 21
1003.806289266709
  0
LINE
  8
_0-1_レイヤ___1
  6
CONTINUOUS
 62
    5
 10
2228.163935
 20
1003.806289266709
 11
2229.2732550000001
 21
1001.1156692667089
  0
LINE
  8
_0-1_レイヤ___1
  6
CONTINUOUS
 62
    5
 10
2229.2732550000001
 20
1001.1156692667089
 11
2231.970765
 21
999.99600926670894
  0
LINE
  8
_0-1_レイヤ___1
  6
CONTINUOUS
 62
    5
 10
2231.970765
 20
999.99600926670894
 11
2234.6717250000002
 21
1001.1156692667089
  0
LINE
  8
_0-1_レイヤ___1
  6
CONTINUOUS
 62
    5
 10
2234.6717250000002
 20
1001.1156692667089
 11
2235.7810450000002
 21
1003.806289266709
  0
LINE
  8
_0-1_レイヤ___1
  6
CONTINUOUS
 62
    5
 10
2553.7047950000001
 20
1003.806289266709
 11
2552.5954750000001
 21
1006.4969092667091
  0
LINE
  8
_0-1_レイヤ___1
  6
CONTINUOUS
 62
    5
 10
2552.5954750000001
 20
1006.4969092667091
 11
2549.894515
 21
1007.6165592667089
  0
LINE
  8
_0-1_レイヤ___1
  6
CONTINUOUS
 62
    5
 10
2549.894515
 20
1007.6165592667089
 11
2547.197005
 21
1006.4969092667091
  0
LINE
  8
_0-1_レイヤ___1
  6
CONTINUOUS
 62
    5
 10
2547.197005
 20
1006.4969092667091
 11
2546.084245
 21
1003.806289266709
  0
LINE
  8
_0-1_レイヤ___1
  6
CONTINUOUS
 62
    5
 10
2546.084245
 20
1003.806289266709
 11
2547.197005
 21
1001.1156692667089
  0
LINE
  8
_0-1_レイヤ___1
  6
CONTINUOUS
 62
    5
 10
2547.197005
 20
1001.1156692667089
 11
2549.894515
 21
999.99600926670894
  0
LINE
  8
_0-1_レイヤ___1
  6
CONTINUOUS
 62
    5
 10
2549.894515
 20
999.99600926670894
 11
2552.5954750000001
 21
1001.1156692667089
  0
LINE
  8
_0-1_レイヤ___1
  6
CONTINUOUS
 62
    5
 10
2552.5954750000001
 20
1001.1156692667089
 11
2553.7047950000001
 21
1003.806289266709
  0
LINE
  8
_0-1_レイヤ___1
  6
CONTINUOUS
 62
    5
 10
2231.970765
 20
1003.806289266709
 11
2390.9309149999999
 21
1003.806289266709
  0
LINE
  8
_0-1_レイヤ___1
  6
CONTINUOUS
 62
    5
 10
2390.9309149999999
 20
1003.806289266709
 11
2549.894515
 21
1003.806289266709
  0
LINE
  8
_0-7_
  6
CONTINUOUS
 62
    7
 10
1990.9849250000002
 20
898.93927919220323
 11
1990.9849250000002
 21
1081.9392792294564
  0
LINE
  8
_0-7_
  6
CONTINUOUS
 62
    7
 10
2549.9849250000002
 20
898.93927919220323
 11
2549.9849250000002
 21
1081.9392792294564
  0
LINE
  8
_0-7_
  6
CONTINUOUS
 62
    7
 10
1990.9849250000002
 20
1071.9392792667093
 11
2549.9849250000002
 21
1071.9392792667093
  0
CIRCLE
  8
_0-7_
  6
CONTINUOUS
 62
    7
 10
1990.9849250000002
 20
1071.9392792667093
 40
3.751708984375
  0
CIRCLE
  8
_0-7_
  6
CONTINUOUS
 62
    7
 10
2549.9849250000002
 20
1071.9392792667093
 40
3.751708984375
  0
TEXT
  8
_0-7_
 62
    7
 10
2233.4432583333337
 20
1083.8537236925272
 40
38.006293402777786
 41
0.9999999999999998
 50
0
  1
559
  0
LINE
  8
_0-7_
  6
CONTINUOUS
 62
    7
 10
2231.9849250000002
 20
766.939279192203
 11
2231.9849250000002
 21
1013.9392792294561
  0
LINE
  8
_0-7_
  6
CONTINUOUS
 62
    7
 10
2549.9849250000002
 20
898.93927919220323
 11
2549.9849250000002
 21
1013.9392792294561
  0
LINE
  8
_0-7_
  6
CONTINUOUS
 62
    7
 10
2231.9849250000002
 20
1003.939279266709
 11
2549.9849250000002
 21
1003.939279266709
  0
CIRCLE
  8
_0-7_
  6
CONTINUOUS
 62
    7
 10
2231.9849250000002
 20
1003.939279266709
 40
3.751708984375
  0
CIRCLE
  8
_0-7_
  6
CONTINUOUS
 62
    7
 10
2549.9849250000002
 20
1003.939279266709
 40
3.751708984375
  0
TEXT
  8
_0-7_
 62
    7
 10
2353.9432583333328
 20
1015.853723692527
 40
38.006293402777786
 41
0.9999999999999998
 50
0
  1
318
  0
TEXT
  8
_f-0_
 62
    7
 10
1111.1467034703219
 20
216.01644236760961
 40
34.616986052576095
 41
1.0000000000000056
 50
0
  1
キッチンシンク
  0
TEXT
  8
_f-0_
 62
    7
 10
1118.9898407252256
 20
170.91840315192343
 40
34.616986052576095
 41
1.0000000000000056
 50
0
  1
K-5964
  0
TEXT
  8
_f-0_
 62
    7
 10
2045.705526999735
 20
224.34977570094276
 40
34.616986052576095
 41
1.000000000000008
 50
0
  1
KOHLER　メイフィールド
  0
TEXT
  8
_f-0_
 62
    7
 10
1817.2741544507153
 20
193.95761883819773
 40
34.616986052576237
 41
1.0000000000000038
 50
0
  1
19/04/10
  0
TEXT
  8
_f-0_
 62
    7
 10
2174.7535403050106
 20
164.29057734204775
 40
34.616986052575953
 41
1.000000000000012
 50
0
  1
日鉄物産マテックス株式会社
  0
CIRCLE
  8
_0-1_レイヤ___1
  6
CONTINUOUS
 62
    7
 10
920.48492500000009
 20
1475.316045
 40
63.922285884722584
  0
TEXT
  8
_0-7_
 62
    7
 10
1021.8948196562574
 20
1854.4299201161946
 40
38.0062934027778
 41
0.9999999999999994
 50
0
  1
317.5
  0
TEXT
  8
_0-1_レイヤ___1
 62
    7
 10
1268.3817477608327
 20
1945.1161946259983
 40
38.0062934027778
 41
0.9999999999999994
 50
0
  1
【１ホール】
  0
TEXT
  8
_0-1_レイヤ___1
 62
    7
 10
2428.1856693294599
 20
1907.3710965867826
 40
38.0062934027778
 41
0.9999999999999994
 50
0
  1
【３ホール】
  0
TEXT
  8
_0-1_レイヤ___1
 62
    7
 10
2428.1856693294599
 20
1535.3122730573707
 40
38.0062934027778
 41
0.9999999999999994
 50
0
  1
【４ホール】
  0
ENDSEC
  0
EOF
