  0
SECTION
  2
HEADER
  9
$ACADVER
  1
AC1009
  9
$INSBASE
 10
0
 20
0
 30
0
  9
$EXTMIN
 10
0
 20
0
  9
$EXTMAX
 10
2970
 20
2100
  9
$LIMMIN
 10
0
 20
0
  9
$LIMMAX
 10
2970
 20
2100
  9
$LTSCALE
 40
10
  0
ENDSEC
  0
SECTION
  2
TABLES
  0
TABLE
  2
LTYPE
 70
     9
  0
LTYPE
  2
CONTINUOUS
 70
    64
  3
実線
 72
    65
 73
     0
 40
0.0
  0
LTYPE
  2
DASHED1
 70
    64
  3
--  --  --  --  --  --  --  --  
 72
    65
 73
     2
 40
2.5
 49
1.25
 49
-1.25
  0
LTYPE
  2
DASHED2
 70
    64
  3
----    ----    ----    ----    
 72
    65
 73
     2
 40
5.0
 49
2.5
 49
-2.5
  0
LTYPE
  2
DASHED3
 70
    64
  3
------  ------  ------  ------  
 72
    65
 73
     2
 40
5.0
 49
3.75
 49
-1.25
  0
LTYPE
  2
CENTER1
 70
    64
  3
----- - ----- - ----- - ----- - 
 72
    65
 73
     4
 40
10.0
 49
6.25
 49
-1.25
 49
1.25
 49
-1.25
  0
LTYPE
  2
CENTER2
 70
    64
  3
----------  --  ----------  --  
 72
    65
 73
     4
 40
20.0
 49
12.5
 49
-2.5
 49
2.5
 49
-2.5
  0
LTYPE
  2
PHANTOM1
 70
    64
  3
--- - - --- - - --- - - --- - - 
 72
    65
 73
     6
 40
10.0
 49
3.25
 49
-1.25
 49
1.25
 49
-1.25
 49
1.25
 49
-1.25
  0
LTYPE
  2
PHANTOM2
 70
    64
  3
--------  -  -  --------  -  -  
 72
    65
 73
     6
 40
20.0
 49
10.0
 49
-2.5
 49
1.25
 49
-2.5
 49
1.25
 49
-2.5
  0
LTYPE
  2
DOT
 70
    64
  3
-   -   -   -   -   -   -   -   
 72
    65
 73
     2
 40
2.5
 49
0.625
 49
-1.875
  0
LTYPE
  2
DUMMY
 70
    64
  3
ダミー
 72
    65
 73
     0
 40
0.0
  0
LTYPE
  2
RAND1
 70
    64
  3
ランダム線1
 72
    65
 73
     4
 40
10.0
 49
1.0
 49
-2.0
 49
3.0
 49
-4.0
  0
LTYPE
  2
RAND2
 70
    64
  3
ランダム線2
 72
    65
 73
     4
 40
14.0
 49
2.0
 49
-3.0
 49
4.0
 49
-5.0
  0
LTYPE
  2
RAND3
 70
    64
  3
ランダム線3
 72
    65
 73
     4
 40
18.0
 49
3.0
 49
-4.0
 49
5.0
 49
-6.0
  0
LTYPE
  2
RAND4
 70
    64
  3
ランダム線4
 72
    65
 73
     4
 40
22.0
 49
4.0
 49
-5.0
 49
6.0
 49
-7.0
  0
LTYPE
  2
RAND5
 70
    64
  3
ランダム線5
 72
    65
 73
     4
 40
26.0
 49
5.0
 49
-6.0
 49
7.0
 49
-8.0
  0
LTYPE
  2
LONG1
 70
    64
  3
----------  --  ----------  --  
 72
    65
 73
     4
 40
40.0
 49
32.5
 49
-2.5
 49
2.5
 49
-2.5
  0
LTYPE
  2
LONG2
 70
    64
  3
--------  -  -  --------  -  -  
 72
    65
 73
     6
 40
40.0
 49
30.0
 49
-2.5
 49
1.25
 49
-2.5
 49
1.25
 49
-2.5
  0
LTYPE
  2
LONG3
 70
    64
  3
+++++++++++++++..+++++++++++++++
 72
    65
 73
     2
 40
40.0
 49
37.5
 49
-2.5
  0
LTYPE
  2
LONG4
 70
    64
  3
+++++++++++++++..+++++++++++++++
 72
    65
 73
     2
 40
80.0
 49
75.0
 49
-5.0
  0
LTYPE
  2
LONG5
 70
    64
  3
----------  --  ----------  --  
 72
    65
 73
     4
 40
60.0
 49
37.5
 49
-7.5
 49
7.5
 49
-7.5
  0
LTYPE
  2
dashed
 70
   64
  3
-------   -------------   ------
 72
   65
 73
    2
 40
7.5
 49
6
 49
-1.5
  0
LTYPE
  2
dashed_spaced
 70
   64
  3
----        --------        ----
 72
   65
 73
    2
 40
12
 49
6
 49
-6
  0
LTYPE
  2
long_dashed_dotted
 70
   64
  3
------------- --- --------------
 72
   65
 73
    4
 40
15.25
 49
12
 49
-1.5
 49
0.25
 49
-1.5
  0
LTYPE
  2
long_dashed_double-dotted
 70
   64
  3
----------- --- --- ------------
 72
   65
 73
    6
 40
17
 49
12
 49
-1.5
 49
0.25
 49
-1.5
 49
0.25
 49
-1.5
  0
LTYPE
  2
long_dashed_triplicate-dotted
 70
   64
  3
--------- --- --- --- ----------
 72
   65
 73
    8
 40
18.75
 49
12
 49
-1.5
 49
0.25
 49
-1.5
 49
0.25
 49
-1.5
 49
0.25
 49
-1.5
  0
LTYPE
  2
dotted
 70
   64
  3
   -       -       -       -    
 72
   65
 73
    2
 40
1.75
 49
0.25
 49
-1.5
  0
LTYPE
  2
chain
 70
   64
  3
-------------- -- --------------
 72
   65
 73
    4
 40
18.5
 49
12
 49
-1.5
 49
3.5
 49
-1.5
  0
LTYPE
  2
chain_double_dash
 70
   64
  3
------------ -- -- -------------
 72
   65
 73
    6
 40
23.5
 49
12
 49
-1.5
 49
3.5
 49
-1.5
 49
3.5
 49
-1.5
  0
LTYPE
  2
dashed_dotted
 70
   64
  3
-----------     -     ----------
 72
   65
 73
    4
 40
9.25
 49
6
 49
-1.5
 49
0.25
 49
-1.5
  0
LTYPE
  2
double-dashed_dotted
 70
   64
  3
------   -----------   -   -----
 72
   65
 73
    6
 40
16.75
 49
6
 49
-1.5
 49
6
 49
-1.5
 49
0.25
 49
-1.5
  0
LTYPE
  2
dashed_double-dotted
 70
   64
  3
---------    -    -    ---------
 72
   65
 73
    6
 40
11
 49
6
 49
-1.5
 49
0.25
 49
-1.5
 49
0.25
 49
-1.5
  0
LTYPE
  2
double-dashed_double-dotted
 70
   64
  3
-----   ---------   -   -   ----
 72
   65
 73
    8
 40
18.5
 49
6
 49
-1.5
 49
6
 49
-1.5
 49
0.25
 49
-1.5
 49
0.25
 49
-1.5
  0
LTYPE
  2
dashed_triplicate-dotted
 70
   64
  3
-------    -    -    -    ------
 72
   65
 73
    8
 40
12.75
 49
6
 49
-1.5
 49
0.25
 49
-1.5
 49
0.25
 49
-1.5
 49
0.25
 49
-1.5
  0
LTYPE
  2
double-dashed_triplicate-dotted
 70
   64
  3
-----  ---------  -  -  -  -----
 72
   65
 73
   10
 40
20.25
 49
6
 49
-1.5
 49
6
 49
-1.5
 49
0.25
 49
-1.5
 49
0.25
 49
-1.5
 49
0.25
 49
-1.5
  0
LTYPE
  2
undefined
 70
   64
  3
--------------------------------
 72
   65
 73
    0
 40
0
  0
LTYPE
  2
_
 70
   64
  3
                                
 72
   65
 73
    0
 40
0
  0
LTYPE
  2
__18
 70
   64
  3
                                
 72
   65
 73
    0
 40
0
  0
LTYPE
  2
__19
 70
   64
  3
                                
 72
   65
 73
    0
 40
0
  0
LTYPE
  2
__20
 70
   64
  3
                                
 72
   65
 73
    0
 40
0
  0
LTYPE
  2
__21
 70
   64
  3
                                
 72
   65
 73
    0
 40
0
  0
LTYPE
  2
__22
 70
   64
  3
                                
 72
   65
 73
    0
 40
0
  0
LTYPE
  2
__23
 70
   64
  3
                                
 72
   65
 73
    0
 40
0
  0
LTYPE
  2
__24
 70
   64
  3
                                
 72
   65
 73
    0
 40
0
  0
LTYPE
  2
__25
 70
   64
  3
                                
 72
   65
 73
    0
 40
0
  0
LTYPE
  2
__26
 70
   64
  3
                                
 72
   65
 73
    0
 40
0
  0
LTYPE
  2
__27
 70
   64
  3
                                
 72
   65
 73
    0
 40
0
  0
LTYPE
  2
__28
 70
   64
  3
                                
 72
   65
 73
    0
 40
0
  0
LTYPE
  2
__29
 70
   64
  3
                                
 72
   65
 73
    0
 40
0
  0
LTYPE
  2
__30
 70
   64
  3
                                
 72
   65
 73
    0
 40
0
  0
LTYPE
  2
__31
 70
   64
  3
                                
 72
   65
 73
    0
 40
0
  0
LTYPE
  2
__32
 70
   64
  3
                                
 72
   65
 73
    0
 40
0
  0
ENDTAB
  0
TABLE
  2
STYLE
  5
3
100
AcDbSymbolTable
 70
     1
  0
STYLE
  5
10
100
AcDbSymbolTableRecord
100
AcDbTextStyleTableRecord
  2
STANDARD
 70
     0
 40
0.0
 41
1.0
 50
0.0
 71
     0
 42
0.2
  3
txt
  4
bigfont.shx
  0
STYLE
  5
26
100
AcDbSymbolTableRecord
100
AcDbTextStyleTableRecord
  2
TATEGAKI
 70
    68
 40
0.0
 41
1.0
 50
0.0
 71
     0
 42
1.0
  3
txt
  4
bigfont.shx
  0
ENDTAB
  0
TABLE
  2
LAYER
 70
    4
  0
LAYER
  2
_0-1_レイヤ___1
 70
   64
 62
    7
  6
CONTINUOUS
  0
LAYER
  2
_0-7_
 70
   64
 62
    7
  6
CONTINUOUS
  0
LAYER
  2
_f-0_
 70
   64
 62
    7
  6
CONTINUOUS
  0
LAYER
  2
ADD_LINE
 70
   64
 62
    7
  6
CONTINUOUS
  0
ENDTAB
  0
ENDSEC
  0
SECTION
  2
BLOCKS
  0
ENDSEC
  0
SECTION
  2
ENTITIES
  0
LINE
  8
_0-1_レイヤ___1
  6
CONTINUOUS
 62
    7
 10
1334.0824250000003
 20
347.90245499999997
 11
1334.0824250000003
 21
354.25177500000007
  0
LINE
  8
_0-1_レイヤ___1
  6
CONTINUOUS
 62
    7
 10
1334.0824250000003
 20
354.25177500000007
 11
1334.0824250000003
 21
360.60108500000001
  0
LINE
  8
_0-1_レイヤ___1
  6
CONTINUOUS
 62
    7
 10
1334.0824250000003
 20
364.83510499999994
 11
1334.0824250000003
 21
365.47244500000005
  0
LINE
  8
_0-1_レイヤ___1
  6
CONTINUOUS
 62
    7
 10
1334.0824250000003
 20
365.47244500000005
 11
1334.0824250000003
 21
366.10634500000003
  0
LINE
  8
_0-1_レイヤ___1
  6
CONTINUOUS
 62
    7
 10
1334.0824250000003
 20
369.06912500000004
 11
1334.0824250000003
 21
369.70302500000003
  0
LINE
  8
_0-1_レイヤ___1
  6
CONTINUOUS
 62
    7
 10
1334.0824250000003
 20
369.70302500000003
 11
1334.0824250000003
 21
370.34036500000002
  0
LINE
  8
_0-1_レイヤ___1
  6
CONTINUOUS
 62
    7
 10
1334.0824250000003
 20
373.30314499999997
 11
1334.0824250000003
 21
379.65245500000009
  0
LINE
  8
_0-1_レイヤ___1
  6
CONTINUOUS
 62
    7
 10
1334.0824250000003
 20
379.65245500000009
 11
1334.0824250000003
 21
386.00177500000001
  0
LINE
  8
_0-1_レイヤ___1
  6
CONTINUOUS
 62
    7
 10
1334.0824250000003
 20
390.23579499999994
 11
1334.0824250000003
 21
390.869685
  0
LINE
  8
_0-1_レイヤ___1
  6
CONTINUOUS
 62
    7
 10
1334.0824250000003
 20
390.869685
 11
1334.0824250000003
 21
391.50703499999992
  0
LINE
  8
_0-1_レイヤ___1
  6
CONTINUOUS
 62
    7
 10
1334.0824250000003
 20
394.46981499999993
 11
1334.0824250000003
 21
395.10371499999991
  0
LINE
  8
_0-1_レイヤ___1
  6
CONTINUOUS
 62
    7
 10
1334.0824250000003
 20
395.10371499999991
 11
1334.0824250000003
 21
395.73760499999992
  0
LINE
  8
_0-1_レイヤ___1
  6
CONTINUOUS
 62
    7
 10
1334.0824250000003
 20
398.70383500000003
 11
1334.0824250000003
 21
405.05314499999997
  0
LINE
  8
_0-1_レイヤ___1
  6
CONTINUOUS
 62
    7
 10
1334.0824250000003
 20
405.05314499999997
 11
1334.0824250000003
 21
411.40245499999997
  0
LINE
  8
_0-1_レイヤ___1
  6
CONTINUOUS
 62
    7
 10
1334.0824250000003
 20
415.21273500000001
 11
1334.0824250000003
 21
415.63648499999999
  0
LINE
  8
_0-1_レイヤ___1
  6
CONTINUOUS
 62
    7
 10
1334.0824250000003
 20
415.63648499999999
 11
1334.0824250000003
 21
416.060225
  0
LINE
  8
_0-1_レイヤ___1
  6
CONTINUOUS
 62
    7
 10
1334.0824250000003
 20
331.81730500000003
 11
1334.0824250000003
 21
347.69230499999992
  0
LINE
  8
_0-1_レイヤ___1
  6
CONTINUOUS
 62
    7
 10
1334.0824250000003
 20
347.69230499999992
 11
1334.0824250000003
 21
363.56730499999998
  0
LINE
  8
_0-1_レイヤ___1
  6
CONTINUOUS
 62
    7
 10
1334.0824250000003
 20
374.150645
 11
1334.0824250000003
 21
375.84218499999992
  0
LINE
  8
_0-1_レイヤ___1
  6
CONTINUOUS
 62
    7
 10
1334.0824250000003
 20
375.84218499999992
 11
1334.0824250000003
 21
377.53717499999993
  0
LINE
  8
_0-1_レイヤ___1
  6
CONTINUOUS
 62
    7
 10
1334.0824250000003
 20
384.73397500000004
 11
1334.0824250000003
 21
400.6089750000001
  0
LINE
  8
_0-1_レイヤ___1
  6
CONTINUOUS
 62
    7
 10
1334.0824250000003
 20
400.6089750000001
 11
1334.0824250000003
 21
416.48397499999999
  0
LINE
  8
_0-1_レイヤ___1
  6
CONTINUOUS
 62
    7
 10
1334.0824250000003
 20
427.06730499999998
 11
1334.0824250000003
 21
428.75885500000004
  0
LINE
  8
_0-1_レイヤ___1
  6
CONTINUOUS
 62
    7
 10
1334.0824250000003
 20
428.75885500000004
 11
1334.0824250000003
 21
430.45383500000003
  0
LINE
  8
_0-1_レイヤ___1
  6
CONTINUOUS
 62
    7
 10
1334.0824250000003
 20
437.650645
 11
1334.0824250000003
 21
453.525645
  0
LINE
  8
_0-1_レイヤ___1
  6
CONTINUOUS
 62
    7
 10
1334.0824250000003
 20
453.525645
 11
1334.0824250000003
 21
469.400645
  0
LINE
  8
_0-1_レイヤ___1
  6
CONTINUOUS
 62
    7
 10
1334.0824250000003
 20
479.98397500000004
 11
1334.0824250000003
 21
481.67551500000002
  0
LINE
  8
_0-1_レイヤ___1
  6
CONTINUOUS
 62
    7
 10
1334.0824250000003
 20
481.67551500000002
 11
1334.0824250000003
 21
483.37050499999998
  0
LINE
  8
_0-1_レイヤ___1
  6
CONTINUOUS
 62
    7
 10
1334.0824250000003
 20
490.56730500000003
 11
1334.0824250000003
 21
506.44230499999998
  0
LINE
  8
_0-1_レイヤ___1
  6
CONTINUOUS
 62
    7
 10
1334.0824250000003
 20
506.44230499999998
 11
1334.0824250000003
 21
522.31730500000003
  0
LINE
  8
_0-1_レイヤ___1
  6
CONTINUOUS
 62
    7
 10
1334.0824250000003
 20
532.90064499999994
 11
1334.0824250000003
 21
534.59218499999997
  0
LINE
  8
_0-1_レイヤ___1
  6
CONTINUOUS
 62
    7
 10
1334.0824250000003
 20
534.59218499999997
 11
1334.0824250000003
 21
536.28717500000005
  0
LINE
  8
_0-1_レイヤ___1
  6
CONTINUOUS
 62
    7
 10
1334.0824250000003
 20
543.48397499999999
 11
1334.0824250000003
 21
559.35897499999999
  0
LINE
  8
_0-1_レイヤ___1
  6
CONTINUOUS
 62
    7
 10
1334.0824250000003
 20
559.35897499999999
 11
1334.0824250000003
 21
575.23397499999999
  0
LINE
  8
_0-1_レイヤ___1
  6
CONTINUOUS
 62
    7
 10
1334.0824250000003
 20
581.15953500000001
 11
1334.0824250000003
 21
581.58328499999993
  0
LINE
  8
_0-1_レイヤ___1
  6
CONTINUOUS
 62
    7
 10
1334.0824250000003
 20
581.58328499999993
 11
1334.0824250000003
 21
582.00703500000009
  0
LINE
  8
_0-1_レイヤ___1
  6
CONTINUOUS
 62
    7
 10
662.25262500000008
 20
579.04080499999998
 11
662.25262500000008
 21
578.83065499999998
  0
LINE
  8
_0-1_レイヤ___1
  6
CONTINUOUS
 62
    7
 10
662.25262500000008
 20
578.83065499999998
 11
662.25262500000008
 21
578.62050499999998
  0
LINE
  8
_0-1_レイヤ___1
  6
CONTINUOUS
 62
    7
 10
662.25262500000008
 20
578.62050499999998
 11
662.25262500000008
 21
578.40690500000005
  0
LINE
  8
_0-1_レイヤ___1
  6
CONTINUOUS
 62
    7
 10
662.25262500000008
 20
578.40690500000005
 11
662.25262500000008
 21
578.19675500000005
  0
LINE
  8
_0-1_レイヤ___1
  6
CONTINUOUS
 62
    7
 10
662.25262500000008
 20
578.19675500000005
 11
662.25262500000008
 21
577.98660499999994
  0
LINE
  8
_0-1_レイヤ___1
  6
CONTINUOUS
 62
    7
 10
662.25262500000008
 20
577.98660499999994
 11
662.25262500000008
 21
577.77301499999999
  0
LINE
  8
_0-1_レイヤ___1
  6
CONTINUOUS
 62
    7
 10
662.25262500000008
 20
577.77301499999999
 11
662.25262500000008
 21
577.55941499999994
  0
LINE
  8
_0-1_レイヤ___1
  6
CONTINUOUS
 62
    7
 10
662.25262500000008
 20
577.55941499999994
 11
662.25262500000008
 21
577.34926500000006
  0
LINE
  8
_0-1_レイヤ___1
  6
CONTINUOUS
 62
    7
 10
662.25262500000008
 20
577.34926500000006
 11
662.25262500000008
 21
577.13911500000006
  0
LINE
  8
_0-1_レイヤ___1
  6
CONTINUOUS
 62
    7
 10
662.25262500000008
 20
577.13911500000006
 11
662.25262500000008
 21
576.92551500000002
  0
LINE
  8
_0-1_レイヤ___1
  6
CONTINUOUS
 62
    7
 10
662.25262500000008
 20
576.92551500000002
 11
662.46450500000014
 21
576.71192499999995
  0
LINE
  8
_0-1_レイヤ___1
  6
CONTINUOUS
 62
    7
 10
662.46450500000014
 20
576.71192499999995
 11
662.67637500000001
 21
576.50177499999995
  0
LINE
  8
_0-1_レイヤ___1
  6
CONTINUOUS
 62
    7
 10
662.67637500000001
 20
576.50177499999995
 11
662.67637500000001
 21
576.29161499999998
  0
LINE
  8
_0-1_レイヤ___1
  6
CONTINUOUS
 62
    7
 10
662.67637500000001
 20
576.29161499999998
 11
662.67637500000001
 21
576.07802500000003
  0
LINE
  8
_0-1_レイヤ___1
  6
CONTINUOUS
 62
    7
 10
662.67637500000001
 20
576.07802500000003
 11
662.67637500000001
 21
575.86442499999998
  0
LINE
  8
_0-1_レイヤ___1
  6
CONTINUOUS
 62
    7
 10
662.67637500000001
 20
575.86442499999998
 11
662.67637500000001
 21
575.65427499999998
  0
LINE
  8
_0-1_レイヤ___1
  6
CONTINUOUS
 62
    7
 10
662.67637500000001
 20
575.65427499999998
 11
662.67637500000001
 21
575.44412499999999
  0
LINE
  8
_0-1_レイヤ___1
  6
CONTINUOUS
 62
    7
 10
662.67637500000001
 20
575.44412499999999
 11
662.67637500000001
 21
575.23397499999999
  0
LINE
  8
_0-1_レイヤ___1
  6
CONTINUOUS
 62
    7
 10
662.67637500000001
 20
575.23397499999999
 11
662.67637500000001
 21
575.02382499999999
  0
LINE
  8
_0-1_レイヤ___1
  6
CONTINUOUS
 62
    7
 10
662.67637500000001
 20
575.02382499999999
 11
662.67637500000001
 21
574.81022500000006
  0
LINE
  8
_0-1_レイヤ___1
  6
CONTINUOUS
 62
    7
 10
662.67637500000001
 20
574.81022500000006
 11
662.67637500000001
 21
574.59663499999999
  0
LINE
  8
_0-1_レイヤ___1
  6
CONTINUOUS
 62
    7
 10
662.67637500000001
 20
574.59663499999999
 11
662.67637500000001
 21
574.38648499999999
  0
LINE
  8
_0-1_レイヤ___1
  6
CONTINUOUS
 62
    7
 10
662.67637500000001
 20
574.38648499999999
 11
662.88824500000021
 21
574.17633499999999
  0
LINE
  8
_0-1_レイヤ___1
  6
CONTINUOUS
 62
    7
 10
662.88824500000021
 20
574.17633499999999
 11
663.09840500000007
 21
573.96273499999995
  0
LINE
  8
_0-1_レイヤ___1
  6
CONTINUOUS
 62
    7
 10
663.09840500000007
 20
573.96273499999995
 11
663.09840500000007
 21
573.74913500000002
  0
LINE
  8
_0-1_レイヤ___1
  6
CONTINUOUS
 62
    7
 10
663.09840500000007
 20
573.74913500000002
 11
663.09840500000007
 21
573.53898500000003
  0
LINE
  8
_0-1_レイヤ___1
  6
CONTINUOUS
 62
    7
 10
663.09840500000007
 20
573.53898500000003
 11
663.09840500000007
 21
573.32883500000003
  0
LINE
  8
_0-1_レイヤ___1
  6
CONTINUOUS
 62
    7
 10
663.09840500000007
 20
573.32883500000003
 11
663.09840500000007
 21
573.11524499999996
  0
LINE
  8
_0-1_レイヤ___1
  6
CONTINUOUS
 62
    7
 10
663.09840500000007
 20
573.11524499999996
 11
663.09840500000007
 21
572.90164500000003
  0
LINE
  8
_0-1_レイヤ___1
  6
CONTINUOUS
 62
    7
 10
663.09840500000007
 20
572.90164500000003
 11
663.09840500000007
 21
572.69149500000003
  0
LINE
  8
_0-1_レイヤ___1
  6
CONTINUOUS
 62
    7
 10
663.09840500000007
 20
572.69149500000003
 11
663.09840500000007
 21
572.48134500000003
  0
LINE
  8
_0-1_レイヤ___1
  6
CONTINUOUS
 62
    7
 10
663.09840500000007
 20
572.48134500000003
 11
663.09840500000007
 21
572.26774499999999
  0
LINE
  8
_0-1_レイヤ___1
  6
CONTINUOUS
 62
    7
 10
663.09840500000007
 20
572.26774499999999
 11
663.31027500000016
 21
572.26774499999999
  0
LINE
  8
_0-1_レイヤ___1
  6
CONTINUOUS
 62
    7
 10
663.31027500000016
 20
572.26774499999999
 11
663.52214500000014
 21
572.26774499999999
  0
LINE
  8
_0-1_レイヤ___1
  6
CONTINUOUS
 62
    7
 10
663.52214500000014
 20
572.26774499999999
 11
663.52214500000014
 21
572.05415500000004
  0
LINE
  8
_0-1_レイヤ___1
  6
CONTINUOUS
 62
    7
 10
663.52214500000014
 20
572.05415500000004
 11
663.52214500000014
 21
571.84400500000004
  0
LINE
  8
_0-1_レイヤ___1
  6
CONTINUOUS
 62
    7
 10
663.52214500000014
 20
571.84400500000004
 11
663.52214500000014
 21
571.63385499999993
  0
LINE
  8
_0-1_レイヤ___1
  6
CONTINUOUS
 62
    7
 10
663.52214500000014
 20
571.63385499999993
 11
663.52214500000014
 21
571.42369499999995
  0
LINE
  8
_0-1_レイヤ___1
  6
CONTINUOUS
 62
    7
 10
663.52214500000014
 20
571.42369499999995
 11
663.52214500000014
 21
571.21354500000007
  0
LINE
  8
_0-1_レイヤ___1
  6
CONTINUOUS
 62
    7
 10
663.52214500000014
 20
571.21354500000007
 11
663.52214500000014
 21
570.999955
  0
LINE
  8
_0-1_レイヤ___1
  6
CONTINUOUS
 62
    7
 10
663.52214500000014
 20
570.999955
 11
663.52214500000014
 21
570.78635499999996
  0
LINE
  8
_0-1_レイヤ___1
  6
CONTINUOUS
 62
    7
 10
663.52214500000014
 20
570.78635499999996
 11
663.52214500000014
 21
570.57620499999996
  0
LINE
  8
_0-1_レイヤ___1
  6
CONTINUOUS
 62
    7
 10
663.52214500000014
 20
570.57620499999996
 11
663.7340250000002
 21
570.57620499999996
  0
LINE
  8
_0-1_レイヤ___1
  6
CONTINUOUS
 62
    7
 10
663.7340250000002
 20
570.57620499999996
 11
663.94589500000029
 21
570.57620499999996
  0
LINE
  8
_0-1_レイヤ___1
  6
CONTINUOUS
 62
    7
 10
663.94589500000029
 20
570.57620499999996
 11
663.94589500000029
 21
570.36605499999996
  0
LINE
  8
_0-1_レイヤ___1
  6
CONTINUOUS
 62
    7
 10
663.94589500000029
 20
570.36605499999996
 11
663.94589500000029
 21
570.15245500000003
  0
LINE
  8
_0-1_レイヤ___1
  6
CONTINUOUS
 62
    7
 10
663.94589500000029
 20
570.15245500000003
 11
663.94589500000029
 21
569.93886500000008
  0
LINE
  8
_0-1_レイヤ___1
  6
CONTINUOUS
 62
    7
 10
663.94589500000029
 20
569.93886500000008
 11
663.94589500000029
 21
569.72871499999997
  0
LINE
  8
_0-1_レイヤ___1
  6
CONTINUOUS
 62
    7
 10
663.94589500000029
 20
569.72871499999997
 11
663.94589500000029
 21
569.51856499999997
  0
LINE
  8
_0-1_レイヤ___1
  6
CONTINUOUS
 62
    7
 10
663.94589500000029
 20
569.51856499999997
 11
663.94589500000029
 21
569.30496499999992
  0
LINE
  8
_0-1_レイヤ___1
  6
CONTINUOUS
 62
    7
 10
663.94589500000029
 20
569.30496499999992
 11
664.15776500000015
 21
569.30496499999992
  0
LINE
  8
_0-1_レイヤ___1
  6
CONTINUOUS
 62
    7
 10
664.15776500000015
 20
569.30496499999992
 11
664.36964500000022
 21
569.30496499999992
  0
LINE
  8
_0-1_レイヤ___1
  6
CONTINUOUS
 62
    7
 10
664.36964500000022
 20
569.30496499999992
 11
664.36964500000022
 21
569.091365
  0
LINE
  8
_0-1_レイヤ___1
  6
CONTINUOUS
 62
    7
 10
664.36964500000022
 20
569.091365
 11
664.36964500000022
 21
568.881215
  0
LINE
  8
_0-1_レイヤ___1
  6
CONTINUOUS
 62
    7
 10
664.36964500000022
 20
568.881215
 11
664.36964500000022
 21
568.671065
  0
LINE
  8
_0-1_レイヤ___1
  6
CONTINUOUS
 62
    7
 10
664.36964500000022
 20
568.671065
 11
664.36964500000022
 21
568.45747500000004
  0
LINE
  8
_0-1_レイヤ___1
  6
CONTINUOUS
 62
    7
 10
664.36964500000022
 20
568.45747500000004
 11
664.36964500000022
 21
568.24732499999993
  0
LINE
  8
_0-1_レイヤ___1
  6
CONTINUOUS
 62
    7
 10
664.36964500000022
 20
568.24732499999993
 11
664.36964500000022
 21
568.03717499999993
  0
LINE
  8
_0-1_レイヤ___1
  6
CONTINUOUS
 62
    7
 10
664.36964500000022
 20
568.03717499999993
 11
664.57979500000022
 21
568.03717499999993
  0
LINE
  8
_0-1_レイヤ___1
  6
CONTINUOUS
 62
    7
 10
664.57979500000022
 20
568.03717499999993
 11
664.79166500000019
 21
568.03717499999993
  0
LINE
  8
_0-1_レイヤ___1
  6
CONTINUOUS
 62
    7
 10
664.79166500000019
 20
568.03717499999993
 11
664.79166500000019
 21
567.82357500000001
  0
LINE
  8
_0-1_レイヤ___1
  6
CONTINUOUS
 62
    7
 10
664.79166500000019
 20
567.82357500000001
 11
664.79166500000019
 21
567.61342500000001
  0
LINE
  8
_0-1_レイヤ___1
  6
CONTINUOUS
 62
    7
 10
664.79166500000019
 20
567.61342500000001
 11
664.79166500000019
 21
567.40327500000001
  0
LINE
  8
_0-1_レイヤ___1
  6
CONTINUOUS
 62
    7
 10
664.79166500000019
 20
567.40327500000001
 11
664.79166500000019
 21
567.18967499999997
  0
LINE
  8
_0-1_レイヤ___1
  6
CONTINUOUS
 62
    7
 10
664.79166500000019
 20
567.18967499999997
 11
665.00353500000017
 21
566.97608500000001
  0
LINE
  8
_0-1_レイヤ___1
  6
CONTINUOUS
 62
    7
 10
665.00353500000017
 20
566.97608500000001
 11
665.21541500000012
 21
566.76593500000001
  0
LINE
  8
_0-1_レイヤ___1
  6
CONTINUOUS
 62
    7
 10
665.21541500000012
 20
566.76593500000001
 11
665.21541500000012
 21
566.55577500000004
  0
LINE
  8
_0-1_レイヤ___1
  6
CONTINUOUS
 62
    7
 10
665.21541500000012
 20
566.55577500000004
 11
665.21541500000012
 21
566.34218499999997
  0
LINE
  8
_0-1_レイヤ___1
  6
CONTINUOUS
 62
    7
 10
665.21541500000012
 20
566.34218499999997
 11
665.21541500000012
 21
566.12858500000004
  0
LINE
  8
_0-1_レイヤ___1
  6
CONTINUOUS
 62
    7
 10
665.21541500000012
 20
566.12858500000004
 11
665.21541500000012
 21
565.91843500000004
  0
LINE
  8
_0-1_レイヤ___1
  6
CONTINUOUS
 62
    7
 10
665.21541500000012
 20
565.91843500000004
 11
665.4272850000001
 21
565.91843500000004
  0
LINE
  8
_0-1_レイヤ___1
  6
CONTINUOUS
 62
    7
 10
665.4272850000001
 20
565.91843500000004
 11
665.63915500000007
 21
565.91843500000004
  0
LINE
  8
_0-1_レイヤ___1
  6
CONTINUOUS
 62
    7
 10
665.63915500000007
 20
565.91843500000004
 11
665.63915500000007
 21
565.70828499999993
  0
LINE
  8
_0-1_レイヤ___1
  6
CONTINUOUS
 62
    7
 10
665.63915500000007
 20
565.70828499999993
 11
665.63915500000007
 21
565.494685
  0
LINE
  8
_0-1_レイヤ___1
  6
CONTINUOUS
 62
    7
 10
665.63915500000007
 20
565.494685
 11
665.63915500000007
 21
565.28109500000005
  0
LINE
  8
_0-1_レイヤ___1
  6
CONTINUOUS
 62
    7
 10
665.63915500000007
 20
565.28109500000005
 11
665.63915500000007
 21
565.07094500000005
  0
LINE
  8
_0-1_レイヤ___1
  6
CONTINUOUS
 62
    7
 10
665.63915500000007
 20
565.07094500000005
 11
665.85103500000014
 21
565.07094500000005
  0
LINE
  8
_0-1_レイヤ___1
  6
CONTINUOUS
 62
    7
 10
665.85103500000014
 20
565.07094500000005
 11
666.06290500000011
 21
565.07094500000005
  0
LINE
  8
_0-1_レイヤ___1
  6
CONTINUOUS
 62
    7
 10
666.06290500000011
 20
565.07094500000005
 11
666.06290500000011
 21
564.86079500000005
  0
LINE
  8
_0-1_レイヤ___1
  6
CONTINUOUS
 62
    7
 10
666.06290500000011
 20
564.86079500000005
 11
666.06290500000011
 21
564.65064499999994
  0
LINE
  8
_0-1_レイヤ___1
  6
CONTINUOUS
 62
    7
 10
666.06290500000011
 20
564.65064499999994
 11
666.06290500000011
 21
564.44049499999994
  0
LINE
  8
_0-1_レイヤ___1
  6
CONTINUOUS
 62
    7
 10
666.06290500000011
 20
564.44049499999994
 11
666.06290500000011
 21
564.22689500000001
  0
LINE
  8
_0-1_レイヤ___1
  6
CONTINUOUS
 62
    7
 10
666.06290500000011
 20
564.22689500000001
 11
666.27477500000009
 21
564.22689500000001
  0
LINE
  8
_0-1_レイヤ___1
  6
CONTINUOUS
 62
    7
 10
666.27477500000009
 20
564.22689500000001
 11
666.4849250000002
 21
564.22689500000001
  0
LINE
  8
_0-1_レイヤ___1
  6
CONTINUOUS
 62
    7
 10
666.4849250000002
 20
564.22689500000001
 11
666.4849250000002
 21
564.01329499999997
  0
LINE
  8
_0-1_レイヤ___1
  6
CONTINUOUS
 62
    7
 10
666.4849250000002
 20
564.01329499999997
 11
666.4849250000002
 21
563.80314499999997
  0
LINE
  8
_0-1_レイヤ___1
  6
CONTINUOUS
 62
    7
 10
666.4849250000002
 20
563.80314499999997
 11
666.4849250000002
 21
563.59299499999997
  0
LINE
  8
_0-1_レイヤ___1
  6
CONTINUOUS
 62
    7
 10
666.4849250000002
 20
563.59299499999997
 11
666.4849250000002
 21
563.37940500000002
  0
LINE
  8
_0-1_レイヤ___1
  6
CONTINUOUS
 62
    7
 10
666.4849250000002
 20
563.37940500000002
 11
666.69680500000015
 21
563.37940500000002
  0
LINE
  8
_0-1_レイヤ___1
  6
CONTINUOUS
 62
    7
 10
666.69680500000015
 20
563.37940500000002
 11
666.90867500000024
 21
563.37940500000002
  0
LINE
  8
_0-1_レイヤ___1
  6
CONTINUOUS
 62
    7
 10
666.90867500000024
 20
563.37940500000002
 11
666.90867500000024
 21
563.16580499999998
  0
LINE
  8
_0-1_レイヤ___1
  6
CONTINUOUS
 62
    7
 10
666.90867500000024
 20
563.16580499999998
 11
666.90867500000024
 21
562.95565499999998
  0
LINE
  8
_0-1_レイヤ___1
  6
CONTINUOUS
 62
    7
 10
666.90867500000024
 20
562.95565499999998
 11
666.90867500000024
 21
562.74550499999998
  0
LINE
  8
_0-1_レイヤ___1
  6
CONTINUOUS
 62
    7
 10
666.90867500000024
 20
562.74550499999998
 11
666.90867500000024
 21
562.53190500000005
  0
LINE
  8
_0-1_レイヤ___1
  6
CONTINUOUS
 62
    7
 10
666.90867500000024
 20
562.53190500000005
 11
667.12054500000022
 21
562.53190500000005
  0
LINE
  8
_0-1_レイヤ___1
  6
CONTINUOUS
 62
    7
 10
667.12054500000022
 20
562.53190500000005
 11
667.33242500000017
 21
562.53190500000005
  0
LINE
  8
_0-1_レイヤ___1
  6
CONTINUOUS
 62
    7
 10
667.33242500000017
 20
562.53190500000005
 11
667.33242500000017
 21
562.31831499999998
  0
LINE
  8
_0-1_レイヤ___1
  6
CONTINUOUS
 62
    7
 10
667.33242500000017
 20
562.31831499999998
 11
667.33242500000017
 21
562.10816499999999
  0
LINE
  8
_0-1_レイヤ___1
  6
CONTINUOUS
 62
    7
 10
667.33242500000017
 20
562.10816499999999
 11
667.33242500000017
 21
561.89801499999999
  0
LINE
  8
_0-1_レイヤ___1
  6
CONTINUOUS
 62
    7
 10
667.33242500000017
 20
561.89801499999999
 11
667.33242500000017
 21
561.68441499999994
  0
LINE
  8
_0-1_レイヤ___1
  6
CONTINUOUS
 62
    7
 10
667.33242500000017
 20
561.68441499999994
 11
667.54429500000015
 21
561.68441499999994
  0
LINE
  8
_0-1_レイヤ___1
  6
CONTINUOUS
 62
    7
 10
667.54429500000015
 20
561.68441499999994
 11
667.75616500000012
 21
561.68441499999994
  0
LINE
  8
_0-1_レイヤ___1
  6
CONTINUOUS
 62
    7
 10
667.75616500000012
 20
561.68441499999994
 11
667.75616500000012
 21
561.47081500000002
  0
LINE
  8
_0-1_レイヤ___1
  6
CONTINUOUS
 62
    7
 10
667.75616500000012
 20
561.47081500000002
 11
667.75616500000012
 21
561.26066500000002
  0
LINE
  8
_0-1_レイヤ___1
  6
CONTINUOUS
 62
    7
 10
667.75616500000012
 20
561.26066500000002
 11
667.9663250000001
 21
561.05051500000002
  0
LINE
  8
_0-1_レイヤ___1
  6
CONTINUOUS
 62
    7
 10
667.9663250000001
 20
561.05051500000002
 11
668.17819500000019
 21
560.84036500000002
  0
LINE
  8
_0-1_レイヤ___1
  6
CONTINUOUS
 62
    7
 10
668.17819500000019
 20
560.84036500000002
 11
668.17819500000019
 21
560.63021500000002
  0
LINE
  8
_0-1_レイヤ___1
  6
CONTINUOUS
 62
    7
 10
668.17819500000019
 20
560.63021500000002
 11
668.17819500000019
 21
560.41661499999998
  0
LINE
  8
_0-1_レイヤ___1
  6
CONTINUOUS
 62
    7
 10
668.17819500000019
 20
560.41661499999998
 11
668.39006500000005
 21
560.41661499999998
  0
LINE
  8
_0-1_レイヤ___1
  6
CONTINUOUS
 62
    7
 10
668.39006500000005
 20
560.41661499999998
 11
668.60194500000011
 21
560.41661499999998
  0
LINE
  8
_0-1_レイヤ___1
  6
CONTINUOUS
 62
    7
 10
668.60194500000011
 20
560.41661499999998
 11
668.60194500000011
 21
560.20302500000003
  0
LINE
  8
_0-1_レイヤ___1
  6
CONTINUOUS
 62
    7
 10
668.60194500000011
 20
560.20302500000003
 11
668.60194500000011
 21
559.99287500000003
  0
LINE
  8
_0-1_レイヤ___1
  6
CONTINUOUS
 62
    7
 10
668.60194500000011
 20
559.99287500000003
 11
668.8138150000002
 21
559.78272500000003
  0
LINE
  8
_0-1_レイヤ___1
  6
CONTINUOUS
 62
    7
 10
668.8138150000002
 20
559.78272500000003
 11
669.02568500000018
 21
559.56912499999999
  0
LINE
  8
_0-1_レイヤ___1
  6
CONTINUOUS
 62
    7
 10
669.02568500000018
 20
559.56912499999999
 11
669.02568500000018
 21
559.35552499999994
  0
LINE
  8
_0-1_レイヤ___1
  6
CONTINUOUS
 62
    7
 10
669.02568500000018
 20
559.35552499999994
 11
669.02568500000018
 21
559.14537500000006
  0
LINE
  8
_0-1_レイヤ___1
  6
CONTINUOUS
 62
    7
 10
669.02568500000018
 20
559.14537500000006
 11
669.23756500000025
 21
559.14537500000006
  0
LINE
  8
_0-1_レイヤ___1
  6
CONTINUOUS
 62
    7
 10
669.23756500000025
 20
559.14537500000006
 11
669.44943500000022
 21
559.14537500000006
  0
LINE
  8
_0-1_レイヤ___1
  6
CONTINUOUS
 62
    7
 10
669.44943500000022
 20
559.14537500000006
 11
669.44943500000022
 21
558.93522500000006
  0
LINE
  8
_0-1_レイヤ___1
  6
CONTINUOUS
 62
    7
 10
669.44943500000022
 20
558.93522500000006
 11
669.44943500000022
 21
558.72163499999999
  0
LINE
  8
_0-1_レイヤ___1
  6
CONTINUOUS
 62
    7
 10
669.44943500000022
 20
558.72163499999999
 11
669.6613050000002
 21
558.50803499999995
  0
LINE
  8
_0-1_レイヤ___1
  6
CONTINUOUS
 62
    7
 10
669.6613050000002
 20
558.50803499999995
 11
669.8714550000002
 21
558.29788499999995
  0
LINE
  8
_0-1_レイヤ___1
  6
CONTINUOUS
 62
    7
 10
669.8714550000002
 20
558.29788499999995
 11
669.8714550000002
 21
558.08773500000007
  0
LINE
  8
_0-1_レイヤ___1
  6
CONTINUOUS
 62
    7
 10
669.8714550000002
 20
558.08773500000007
 11
669.8714550000002
 21
557.87413500000002
  0
LINE
  8
_0-1_レイヤ___1
  6
CONTINUOUS
 62
    7
 10
669.8714550000002
 20
557.87413500000002
 11
670.08333500000026
 21
557.87413500000002
  0
LINE
  8
_0-1_レイヤ___1
  6
CONTINUOUS
 62
    7
 10
670.08333500000026
 20
557.87413500000002
 11
670.29520500000012
 21
557.87413500000002
  0
LINE
  8
_0-1_レイヤ___1
  6
CONTINUOUS
 62
    7
 10
670.29520500000012
 20
557.87413500000002
 11
670.29520500000012
 21
557.66398500000003
  0
LINE
  8
_0-1_レイヤ___1
  6
CONTINUOUS
 62
    7
 10
670.29520500000012
 20
557.66398500000003
 11
670.29520500000012
 21
557.45383500000003
  0
LINE
  8
_0-1_レイヤ___1
  6
CONTINUOUS
 62
    7
 10
670.29520500000012
 20
557.45383500000003
 11
670.50707500000021
 21
557.45383500000003
  0
LINE
  8
_0-1_レイヤ___1
  6
CONTINUOUS
 62
    7
 10
670.50707500000021
 20
557.45383500000003
 11
670.71895500000005
 21
557.45383500000003
  0
LINE
  8
_0-1_レイヤ___1
  6
CONTINUOUS
 62
    7
 10
670.71895500000005
 20
557.45383500000003
 11
670.71895500000005
 21
557.24024499999996
  0
LINE
  8
_0-1_レイヤ___1
  6
CONTINUOUS
 62
    7
 10
670.71895500000005
 20
557.24024499999996
 11
670.71895500000005
 21
557.03009499999996
  0
LINE
  8
_0-1_レイヤ___1
  6
CONTINUOUS
 62
    7
 10
670.71895500000005
 20
557.03009499999996
 11
670.93082500000014
 21
557.03009499999996
  0
LINE
  8
_0-1_レイヤ___1
  6
CONTINUOUS
 62
    7
 10
670.93082500000014
 20
557.03009499999996
 11
671.142695
 21
557.03009499999996
  0
LINE
  8
_0-1_レイヤ___1
  6
CONTINUOUS
 62
    7
 10
671.142695
 20
557.03009499999996
 11
671.142695
 21
556.81993499999999
  0
LINE
  8
_0-1_レイヤ___1
  6
CONTINUOUS
 62
    7
 10
671.142695
 20
556.81993499999999
 11
671.142695
 21
556.60634500000003
  0
LINE
  8
_0-1_レイヤ___1
  6
CONTINUOUS
 62
    7
 10
671.142695
 20
556.60634500000003
 11
671.35457500000018
 21
556.39274499999999
  0
LINE
  8
_0-1_レイヤ___1
  6
CONTINUOUS
 62
    7
 10
671.35457500000018
 20
556.39274499999999
 11
671.56644500000016
 21
556.18259499999999
  0
LINE
  8
_0-1_レイヤ___1
  6
CONTINUOUS
 62
    7
 10
671.56644500000016
 20
556.18259499999999
 11
671.56644500000016
 21
555.97244499999999
  0
LINE
  8
_0-1_レイヤ___1
  6
CONTINUOUS
 62
    7
 10
671.56644500000016
 20
555.97244499999999
 11
671.56644500000016
 21
555.75885500000004
  0
LINE
  8
_0-1_レイヤ___1
  6
CONTINUOUS
 62
    7
 10
671.56644500000016
 20
555.75885500000004
 11
671.77659500000016
 21
555.75885500000004
  0
LINE
  8
_0-1_レイヤ___1
  6
CONTINUOUS
 62
    7
 10
671.77659500000016
 20
555.75885500000004
 11
671.98846500000013
 21
555.75885500000004
  0
LINE
  8
_0-1_レイヤ___1
  6
CONTINUOUS
 62
    7
 10
671.98846500000013
 20
555.75885500000004
 11
671.98846500000013
 21
555.545255
  0
LINE
  8
_0-1_レイヤ___1
  6
CONTINUOUS
 62
    7
 10
671.98846500000013
 20
555.545255
 11
671.98846500000013
 21
555.335105
  0
LINE
  8
_0-1_レイヤ___1
  6
CONTINUOUS
 62
    7
 10
671.98846500000013
 20
555.335105
 11
672.2003450000002
 21
555.335105
  0
LINE
  8
_0-1_レイヤ___1
  6
CONTINUOUS
 62
    7
 10
672.2003450000002
 20
555.335105
 11
672.41221500000029
 21
555.335105
  0
LINE
  8
_0-1_レイヤ___1
  6
CONTINUOUS
 62
    7
 10
672.41221500000029
 20
555.335105
 11
672.41221500000029
 21
555.124955
  0
LINE
  8
_0-1_レイヤ___1
  6
CONTINUOUS
 62
    7
 10
672.41221500000029
 20
555.124955
 11
672.41221500000029
 21
554.91135499999996
  0
LINE
  8
_0-1_レイヤ___1
  6
CONTINUOUS
 62
    7
 10
672.41221500000029
 20
554.91135499999996
 11
672.62408500000015
 21
554.91135499999996
  0
LINE
  8
_0-1_レイヤ___1
  6
CONTINUOUS
 62
    7
 10
672.62408500000015
 20
554.91135499999996
 11
672.83596500000021
 21
554.91135499999996
  0
LINE
  8
_0-1_レイヤ___1
  6
CONTINUOUS
 62
    7
 10
672.83596500000021
 20
554.91135499999996
 11
672.83596500000021
 21
554.697765
  0
LINE
  8
_0-1_レイヤ___1
  6
CONTINUOUS
 62
    7
 10
672.83596500000021
 20
554.697765
 11
672.83596500000021
 21
554.48760500000003
  0
LINE
  8
_0-1_レイヤ___1
  6
CONTINUOUS
 62
    7
 10
672.83596500000021
 20
554.48760500000003
 11
673.04783500000008
 21
554.48760500000003
  0
LINE
  8
_0-1_レイヤ___1
  6
CONTINUOUS
 62
    7
 10
673.04783500000008
 20
554.48760500000003
 11
673.25970500000017
 21
554.48760500000003
  0
LINE
  8
_0-1_レイヤ___1
  6
CONTINUOUS
 62
    7
 10
673.25970500000017
 20
554.48760500000003
 11
673.25970500000017
 21
554.27745500000003
  0
LINE
  8
_0-1_レイヤ___1
  6
CONTINUOUS
 62
    7
 10
673.25970500000017
 20
554.27745500000003
 11
673.25970500000017
 21
554.06730500000003
  0
LINE
  8
_0-1_レイヤ___1
  6
CONTINUOUS
 62
    7
 10
673.25970500000017
 20
554.06730500000003
 11
673.471585
 21
554.06730500000003
  0
LINE
  8
_0-1_レイヤ___1
  6
CONTINUOUS
 62
    7
 10
673.471585
 20
554.06730500000003
 11
673.68173500000012
 21
554.06730500000003
  0
LINE
  8
_0-1_レイヤ___1
  6
CONTINUOUS
 62
    7
 10
673.68173500000012
 20
554.06730500000003
 11
673.68173500000012
 21
553.85715499999992
  0
LINE
  8
_0-1_レイヤ___1
  6
CONTINUOUS
 62
    7
 10
673.68173500000012
 20
553.85715499999992
 11
673.68173500000012
 21
553.64356499999997
  0
LINE
  8
_0-1_レイヤ___1
  6
CONTINUOUS
 62
    7
 10
673.68173500000012
 20
553.64356499999997
 11
673.89360500000009
 21
553.64356499999997
  0
LINE
  8
_0-1_レイヤ___1
  6
CONTINUOUS
 62
    7
 10
673.89360500000009
 20
553.64356499999997
 11
674.10548500000016
 21
553.64356499999997
  0
LINE
  8
_0-1_レイヤ___1
  6
CONTINUOUS
 62
    7
 10
674.10548500000016
 20
553.64356499999997
 11
674.10548500000016
 21
553.42996500000004
  0
LINE
  8
_0-1_レイヤ___1
  6
CONTINUOUS
 62
    7
 10
674.10548500000016
 20
553.42996500000004
 11
674.10548500000016
 21
553.21981500000004
  0
LINE
  8
_0-1_レイヤ___1
  6
CONTINUOUS
 62
    7
 10
674.10548500000016
 20
553.21981500000004
 11
674.31735500000013
 21
553.21981500000004
  0
LINE
  8
_0-1_レイヤ___1
  6
CONTINUOUS
 62
    7
 10
674.31735500000013
 20
553.21981500000004
 11
674.52922500000011
 21
553.21981500000004
  0
LINE
  8
_0-1_レイヤ___1
  6
CONTINUOUS
 62
    7
 10
674.52922500000011
 20
553.21981500000004
 11
674.52922500000011
 21
553.00966500000004
  0
LINE
  8
_0-1_レイヤ___1
  6
CONTINUOUS
 62
    7
 10
674.52922500000011
 20
553.00966500000004
 11
674.52922500000011
 21
552.796065
  0
LINE
  8
_0-1_レイヤ___1
  6
CONTINUOUS
 62
    7
 10
674.52922500000011
 20
552.796065
 11
674.74110500000029
 21
552.796065
  0
LINE
  8
_0-1_レイヤ___1
  6
CONTINUOUS
 62
    7
 10
674.74110500000029
 20
552.796065
 11
674.95297500000015
 21
552.796065
  0
LINE
  8
_0-1_レイヤ___1
  6
CONTINUOUS
 62
    7
 10
674.95297500000015
 20
552.796065
 11
674.95297500000015
 21
552.58247500000004
  0
LINE
  8
_0-1_レイヤ___1
  6
CONTINUOUS
 62
    7
 10
674.95297500000015
 20
552.58247500000004
 11
674.95297500000015
 21
552.37232499999993
  0
LINE
  8
_0-1_レイヤ___1
  6
CONTINUOUS
 62
    7
 10
674.95297500000015
 20
552.37232499999993
 11
675.16312500000015
 21
552.37232499999993
  0
LINE
  8
_0-1_レイヤ___1
  6
CONTINUOUS
 62
    7
 10
675.16312500000015
 20
552.37232499999993
 11
675.37499500000024
 21
552.37232499999993
  0
LINE
  8
_0-1_レイヤ___1
  6
CONTINUOUS
 62
    7
 10
675.37499500000024
 20
552.37232499999993
 11
675.37499500000024
 21
552.16217499999993
  0
LINE
  8
_0-1_レイヤ___1
  6
CONTINUOUS
 62
    7
 10
675.37499500000024
 20
552.16217499999993
 11
675.37499500000024
 21
551.94857500000001
  0
LINE
  8
_0-1_レイヤ___1
  6
CONTINUOUS
 62
    7
 10
675.37499500000024
 20
551.94857500000001
 11
675.58687500000019
 21
551.94857500000001
  0
LINE
  8
_0-1_レイヤ___1
  6
CONTINUOUS
 62
    7
 10
675.58687500000019
 20
551.94857500000001
 11
675.79874500000017
 21
551.94857500000001
  0
LINE
  8
_0-1_レイヤ___1
  6
CONTINUOUS
 62
    7
 10
675.79874500000017
 20
551.94857500000001
 11
675.79874500000017
 21
551.73497499999996
  0
LINE
  8
_0-1_レイヤ___1
  6
CONTINUOUS
 62
    7
 10
675.79874500000017
 20
551.73497499999996
 11
675.79874500000017
 21
551.52482499999996
  0
LINE
  8
_0-1_レイヤ___1
  6
CONTINUOUS
 62
    7
 10
675.79874500000017
 20
551.52482499999996
 11
676.01061500000014
 21
551.52482499999996
  0
LINE
  8
_0-1_レイヤ___1
  6
CONTINUOUS
 62
    7
 10
676.01061500000014
 20
551.52482499999996
 11
676.22249500000009
 21
551.52482499999996
  0
LINE
  8
_0-1_レイヤ___1
  6
CONTINUOUS
 62
    7
 10
676.22249500000009
 20
551.52482499999996
 11
676.22249500000009
 21
551.31467499999997
  0
LINE
  8
_0-1_レイヤ___1
  6
CONTINUOUS
 62
    7
 10
676.22249500000009
 20
551.31467499999997
 11
676.22249500000009
 21
551.10108500000001
  0
LINE
  8
_0-1_レイヤ___1
  6
CONTINUOUS
 62
    7
 10
676.22249500000009
 20
551.10108500000001
 11
676.43436500000007
 21
551.10108500000001
  0
LINE
  8
_0-1_レイヤ___1
  6
CONTINUOUS
 62
    7
 10
676.43436500000007
 20
551.10108500000001
 11
676.64623500000016
 21
551.10108500000001
  0
LINE
  8
_0-1_レイヤ___1
  6
CONTINUOUS
 62
    7
 10
676.64623500000016
 20
551.10108500000001
 11
676.85811500000011
 21
550.88748499999997
  0
LINE
  8
_0-1_レイヤ___1
  6
CONTINUOUS
 62
    7
 10
676.85811500000011
 20
550.88748499999997
 11
677.06826500000011
 21
550.67733500000008
  0
LINE
  8
_0-1_レイヤ___1
  6
CONTINUOUS
 62
    7
 10
677.06826500000011
 20
550.67733500000008
 11
677.2801350000002
 21
550.67733500000008
  0
LINE
  8
_0-1_レイヤ___1
  6
CONTINUOUS
 62
    7
 10
677.2801350000002
 20
550.67733500000008
 11
677.49200500000018
 21
550.67733500000008
  0
LINE
  8
_0-1_レイヤ___1
  6
CONTINUOUS
 62
    7
 10
677.49200500000018
 20
550.67733500000008
 11
677.49200500000018
 21
550.46718499999997
  0
LINE
  8
_0-1_レイヤ___1
  6
CONTINUOUS
 62
    7
 10
677.49200500000018
 20
550.46718499999997
 11
677.49200500000018
 21
550.25703499999997
  0
LINE
  8
_0-1_レイヤ___1
  6
CONTINUOUS
 62
    7
 10
677.49200500000018
 20
550.25703499999997
 11
677.70388500000024
 21
550.25703499999997
  0
LINE
  8
_0-1_レイヤ___1
  6
CONTINUOUS
 62
    7
 10
677.70388500000024
 20
550.25703499999997
 11
677.91575500000022
 21
550.25703499999997
  0
LINE
  8
_0-1_レイヤ___1
  6
CONTINUOUS
 62
    7
 10
677.91575500000022
 20
550.25703499999997
 11
677.91575500000022
 21
550.04688499999997
  0
LINE
  8
_0-1_レイヤ___1
  6
CONTINUOUS
 62
    7
 10
677.91575500000022
 20
550.04688499999997
 11
677.91575500000022
 21
549.83328499999993
  0
LINE
  8
_0-1_レイヤ___1
  6
CONTINUOUS
 62
    7
 10
677.91575500000022
 20
549.83328499999993
 11
678.12762500000019
 21
549.83328499999993
  0
LINE
  8
_0-1_レイヤ___1
  6
CONTINUOUS
 62
    7
 10
678.12762500000019
 20
549.83328499999993
 11
678.33950500000014
 21
549.83328499999993
  0
LINE
  8
_0-1_レイヤ___1
  6
CONTINUOUS
 62
    7
 10
678.33950500000014
 20
549.83328499999993
 11
678.33950500000014
 21
549.619685
  0
LINE
  8
_0-1_レイヤ___1
  6
CONTINUOUS
 62
    7
 10
678.33950500000014
 20
549.619685
 11
678.33950500000014
 21
549.40953500000001
  0
LINE
  8
_0-1_レイヤ___1
  6
CONTINUOUS
 62
    7
 10
678.33950500000014
 20
549.40953500000001
 11
678.54965500000026
 21
549.40953500000001
  0
LINE
  8
_0-1_レイヤ___1
  6
CONTINUOUS
 62
    7
 10
678.54965500000026
 20
549.40953500000001
 11
678.76152500000012
 21
549.40953500000001
  0
LINE
  8
_0-1_レイヤ___1
  6
CONTINUOUS
 62
    7
 10
678.76152500000012
 20
549.40953500000001
 11
678.97340500000018
 21
549.40953500000001
  0
LINE
  8
_0-1_レイヤ___1
  6
CONTINUOUS
 62
    7
 10
678.97340500000018
 20
549.40953500000001
 11
679.18527500000005
 21
549.40953500000001
  0
LINE
  8
_0-1_レイヤ___1
  6
CONTINUOUS
 62
    7
 10
679.18527500000005
 20
549.40953500000001
 11
679.18527500000005
 21
549.19938500000001
  0
LINE
  8
_0-1_レイヤ___1
  6
CONTINUOUS
 62
    7
 10
679.18527500000005
 20
549.19938500000001
 11
679.18527500000005
 21
548.98579499999994
  0
LINE
  8
_0-1_レイヤ___1
  6
CONTINUOUS
 62
    7
 10
679.18527500000005
 20
548.98579499999994
 11
679.39714500000014
 21
548.98579499999994
  0
LINE
  8
_0-1_レイヤ___1
  6
CONTINUOUS
 62
    7
 10
679.39714500000014
 20
548.98579499999994
 11
679.6090250000002
 21
548.98579499999994
  0
LINE
  8
_0-1_レイヤ___1
  6
CONTINUOUS
 62
    7
 10
679.6090250000002
 20
548.98579499999994
 11
679.6090250000002
 21
548.77219500000001
  0
LINE
  8
_0-1_レイヤ___1
  6
CONTINUOUS
 62
    7
 10
679.6090250000002
 20
548.77219500000001
 11
679.6090250000002
 21
548.56204500000001
  0
LINE
  8
_0-1_レイヤ___1
  6
CONTINUOUS
 62
    7
 10
679.6090250000002
 20
548.56204500000001
 11
679.82089500000018
 21
548.56204500000001
  0
LINE
  8
_0-1_レイヤ___1
  6
CONTINUOUS
 62
    7
 10
679.82089500000018
 20
548.56204500000001
 11
680.03276500000015
 21
548.56204500000001
  0
LINE
  8
_0-1_レイヤ___1
  6
CONTINUOUS
 62
    7
 10
680.03276500000015
 20
548.56204500000001
 11
680.24464500000022
 21
548.35189500000001
  0
LINE
  8
_0-1_レイヤ___1
  6
CONTINUOUS
 62
    7
 10
680.24464500000022
 20
548.35189500000001
 11
680.4547950000001
 21
548.13829499999997
  0
LINE
  8
_0-1_レイヤ___1
  6
CONTINUOUS
 62
    7
 10
680.4547950000001
 20
548.13829499999997
 11
680.66666500000019
 21
548.13829499999997
  0
LINE
  8
_0-1_レイヤ___1
  6
CONTINUOUS
 62
    7
 10
680.66666500000019
 20
548.13829499999997
 11
680.87853500000028
 21
548.13829499999997
  0
LINE
  8
_0-1_レイヤ___1
  6
CONTINUOUS
 62
    7
 10
680.87853500000028
 20
548.13829499999997
 11
680.87853500000028
 21
547.92470500000002
  0
LINE
  8
_0-1_レイヤ___1
  6
CONTINUOUS
 62
    7
 10
680.87853500000028
 20
547.92470500000002
 11
680.87853500000028
 21
547.71455500000002
  0
LINE
  8
_0-1_レイヤ___1
  6
CONTINUOUS
 62
    7
 10
680.87853500000028
 20
547.71455500000002
 11
681.09041500000012
 21
547.71455500000002
  0
LINE
  8
_0-1_レイヤ___1
  6
CONTINUOUS
 62
    7
 10
681.09041500000012
 20
547.71455500000002
 11
681.30228500000021
 21
547.71455500000002
  0
LINE
  8
_0-1_レイヤ___1
  6
CONTINUOUS
 62
    7
 10
681.30228500000021
 20
547.71455500000002
 11
681.51415500000007
 21
547.71455500000002
  0
LINE
  8
_0-1_レイヤ___1
  6
CONTINUOUS
 62
    7
 10
681.51415500000007
 20
547.71455500000002
 11
681.72603500000014
 21
547.71455500000002
  0
LINE
  8
_0-1_レイヤ___1
  6
CONTINUOUS
 62
    7
 10
681.72603500000014
 20
547.71455500000002
 11
681.72603500000014
 21
547.50440499999991
  0
LINE
  8
_0-1_レイヤ___1
  6
CONTINUOUS
 62
    7
 10
681.72603500000014
 20
547.50440499999991
 11
681.72603500000014
 21
547.29080499999998
  0
LINE
  8
_0-1_レイヤ___1
  6
CONTINUOUS
 62
    7
 10
681.72603500000014
 20
547.29080499999998
 11
681.937905
 21
547.29080499999998
  0
LINE
  8
_0-1_レイヤ___1
  6
CONTINUOUS
 62
    7
 10
681.937905
 20
547.29080499999998
 11
682.1497750000002
 21
547.29080499999998
  0
LINE
  8
_0-1_レイヤ___1
  6
CONTINUOUS
 62
    7
 10
682.1497750000002
 20
547.29080499999998
 11
682.35992500000009
 21
547.08065499999998
  0
LINE
  8
_0-1_レイヤ___1
  6
CONTINUOUS
 62
    7
 10
682.35992500000009
 20
547.08065499999998
 11
682.57180500000015
 21
546.87050499999998
  0
LINE
  8
_0-1_レイヤ___1
  6
CONTINUOUS
 62
    7
 10
682.57180500000015
 20
546.87050499999998
 11
682.78367500000013
 21
546.87050499999998
  0
LINE
  8
_0-1_レイヤ___1
  6
CONTINUOUS
 62
    7
 10
682.78367500000013
 20
546.87050499999998
 11
682.99554500000011
 21
546.87050499999998
  0
LINE
  8
_0-1_レイヤ___1
  6
CONTINUOUS
 62
    7
 10
682.99554500000011
 20
546.87050499999998
 11
683.20742500000028
 21
546.65690499999994
  0
LINE
  8
_0-1_レイヤ___1
  6
CONTINUOUS
 62
    7
 10
683.20742500000028
 20
546.65690499999994
 11
683.41929500000015
 21
546.44675499999994
  0
LINE
  8
_0-1_レイヤ___1
  6
CONTINUOUS
 62
    7
 10
683.41929500000015
 20
546.44675499999994
 11
683.63116500000024
 21
546.44675499999994
  0
LINE
  8
_0-1_レイヤ___1
  6
CONTINUOUS
 62
    7
 10
683.63116500000024
 20
546.44675499999994
 11
683.84304500000007
 21
546.44675499999994
  0
LINE
  8
_0-1_レイヤ___1
  6
CONTINUOUS
 62
    7
 10
683.84304500000007
 20
546.44675499999994
 11
684.05491500000016
 21
546.23660500000005
  0
LINE
  8
_0-1_レイヤ___1
  6
CONTINUOUS
 62
    7
 10
684.05491500000016
 20
546.23660500000005
 11
684.26506500000016
 21
546.02301499999999
  0
LINE
  8
_0-1_レイヤ___1
  6
CONTINUOUS
 62
    7
 10
684.26506500000016
 20
546.02301499999999
 11
684.47694500000011
 21
546.02301499999999
  0
LINE
  8
_0-1_レイヤ___1
  6
CONTINUOUS
 62
    7
 10
684.47694500000011
 20
546.02301499999999
 11
684.68881500000009
 21
546.02301499999999
  0
LINE
  8
_0-1_レイヤ___1
  6
CONTINUOUS
 62
    7
 10
684.68881500000009
 20
546.02301499999999
 11
684.68881500000009
 21
545.80941500000006
  0
LINE
  8
_0-1_レイヤ___1
  6
CONTINUOUS
 62
    7
 10
684.68881500000009
 20
545.80941500000006
 11
684.68881500000009
 21
545.59926500000006
  0
LINE
  8
_0-1_レイヤ___1
  6
CONTINUOUS
 62
    7
 10
684.68881500000009
 20
545.59926500000006
 11
684.90068500000007
 21
545.59926500000006
  0
LINE
  8
_0-1_レイヤ___1
  6
CONTINUOUS
 62
    7
 10
684.90068500000007
 20
545.59926500000006
 11
685.11256500000013
 21
545.59926500000006
  0
LINE
  8
_0-1_レイヤ___1
  6
CONTINUOUS
 62
    7
 10
685.11256500000013
 20
545.59926500000006
 11
685.32443500000011
 21
545.59926500000006
  0
LINE
  8
_0-1_レイヤ___1
  6
CONTINUOUS
 62
    7
 10
685.32443500000011
 20
545.59926500000006
 11
685.53630500000031
 21
545.59926500000006
  0
LINE
  8
_0-1_レイヤ___1
  6
CONTINUOUS
 62
    7
 10
685.53630500000031
 20
545.59926500000006
 11
685.53630500000031
 21
545.38911499999995
  0
LINE
  8
_0-1_レイヤ___1
  6
CONTINUOUS
 62
    7
 10
685.53630500000031
 20
545.38911499999995
 11
685.53630500000031
 21
545.1755149999999
  0
LINE
  8
_0-1_レイヤ___1
  6
CONTINUOUS
 62
    7
 10
685.53630500000031
 20
545.1755149999999
 11
685.7464550000002
 21
545.1755149999999
  0
LINE
  8
_0-1_レイヤ___1
  6
CONTINUOUS
 62
    7
 10
685.7464550000002
 20
545.1755149999999
 11
685.95833500000015
 21
545.1755149999999
  0
LINE
  8
_0-1_レイヤ___1
  6
CONTINUOUS
 62
    7
 10
685.95833500000015
 20
545.1755149999999
 11
686.17020500000024
 21
545.1755149999999
  0
LINE
  8
_0-1_レイヤ___1
  6
CONTINUOUS
 62
    7
 10
686.17020500000024
 20
545.1755149999999
 11
686.38207500000021
 21
545.1755149999999
  0
LINE
  8
_0-1_レイヤ___1
  6
CONTINUOUS
 62
    7
 10
686.38207500000021
 20
545.1755149999999
 11
686.59395500000016
 21
544.96192499999995
  0
LINE
  8
_0-1_レイヤ___1
  6
CONTINUOUS
 62
    7
 10
686.59395500000016
 20
544.96192499999995
 11
686.80582500000014
 21
544.75177499999995
  0
LINE
  8
_0-1_レイヤ___1
  6
CONTINUOUS
 62
    7
 10
686.80582500000014
 20
544.75177499999995
 11
687.01769500000012
 21
544.75177499999995
  0
LINE
  8
_0-1_レイヤ___1
  6
CONTINUOUS
 62
    7
 10
687.01769500000012
 20
544.75177499999995
 11
687.22957500000018
 21
544.75177499999995
  0
LINE
  8
_0-1_レイヤ___1
  6
CONTINUOUS
 62
    7
 10
687.22957500000018
 20
544.75177499999995
 11
687.44144500000016
 21
544.75177499999995
  0
LINE
  8
_0-1_レイヤ___1
  6
CONTINUOUS
 62
    7
 10
687.44144500000016
 20
544.75177499999995
 11
687.65159500000004
 21
544.75177499999995
  0
LINE
  8
_0-1_レイヤ___1
  6
CONTINUOUS
 62
    7
 10
687.65159500000004
 20
544.75177499999995
 11
687.65159500000004
 21
544.54161499999998
  0
LINE
  8
_0-1_レイヤ___1
  6
CONTINUOUS
 62
    7
 10
687.65159500000004
 20
544.54161499999998
 11
687.65159500000004
 21
544.32802500000003
  0
LINE
  8
_0-1_レイヤ___1
  6
CONTINUOUS
 62
    7
 10
687.65159500000004
 20
544.32802500000003
 11
687.86346500000025
 21
544.32802500000003
  0
LINE
  8
_0-1_レイヤ___1
  6
CONTINUOUS
 62
    7
 10
687.86346500000025
 20
544.32802500000003
 11
688.0753450000002
 21
544.32802500000003
  0
LINE
  8
_0-1_レイヤ___1
  6
CONTINUOUS
 62
    7
 10
688.0753450000002
 20
544.32802500000003
 11
688.28721500000017
 21
544.32802500000003
  0
LINE
  8
_0-1_レイヤ___1
  6
CONTINUOUS
 62
    7
 10
688.28721500000017
 20
544.32802500000003
 11
688.49908500000015
 21
544.32802500000003
  0
LINE
  8
_0-1_レイヤ___1
  6
CONTINUOUS
 62
    7
 10
688.49908500000015
 20
544.32802500000003
 11
688.71096500000021
 21
544.32802500000003
  0
LINE
  8
_0-1_レイヤ___1
  6
CONTINUOUS
 62
    7
 10
688.71096500000021
 20
544.32802500000003
 11
688.92283500000019
 21
544.32802500000003
  0
LINE
  8
_0-1_レイヤ___1
  6
CONTINUOUS
 62
    7
 10
688.92283500000019
 20
544.32802500000003
 11
688.92283500000019
 21
544.11442499999998
  0
LINE
  8
_0-1_レイヤ___1
  6
CONTINUOUS
 62
    7
 10
688.92283500000019
 20
544.11442499999998
 11
688.92283500000019
 21
543.90427499999998
  0
LINE
  8
_0-1_レイヤ___1
  6
CONTINUOUS
 62
    7
 10
688.92283500000019
 20
543.90427499999998
 11
689.13298500000008
 21
543.90427499999998
  0
LINE
  8
_0-1_レイヤ___1
  6
CONTINUOUS
 62
    7
 10
689.13298500000008
 20
543.90427499999998
 11
689.34486500000025
 21
543.90427499999998
  0
LINE
  8
_0-1_レイヤ___1
  6
CONTINUOUS
 62
    7
 10
689.34486500000025
 20
543.90427499999998
 11
689.55673500000012
 21
543.90427499999998
  0
LINE
  8
_0-1_レイヤ___1
  6
CONTINUOUS
 62
    7
 10
689.55673500000012
 20
543.90427499999998
 11
689.76860500000021
 21
543.90427499999998
  0
LINE
  8
_0-1_レイヤ___1
  6
CONTINUOUS
 62
    7
 10
689.76860500000021
 20
543.90427499999998
 11
689.98048500000004
 21
543.90427499999998
  0
LINE
  8
_0-1_レイヤ___1
  6
CONTINUOUS
 62
    7
 10
689.98048500000004
 20
543.90427499999998
 11
690.19235500000025
 21
543.90427499999998
  0
LINE
  8
_0-1_レイヤ___1
  6
CONTINUOUS
 62
    7
 10
690.19235500000025
 20
543.90427499999998
 11
690.19235500000025
 21
543.69412499999999
  0
LINE
  8
_0-1_レイヤ___1
  6
CONTINUOUS
 62
    7
 10
690.19235500000025
 20
543.69412499999999
 11
690.19235500000025
 21
543.48397499999999
  0
LINE
  8
_0-1_レイヤ___1
  6
CONTINUOUS
 62
    7
 10
690.19235500000025
 20
543.48397499999999
 11
690.40422500000022
 21
543.48397499999999
  0
LINE
  8
_0-1_レイヤ___1
  6
CONTINUOUS
 62
    7
 10
690.40422500000022
 20
543.48397499999999
 11
690.61610500000018
 21
543.48397499999999
  0
LINE
  8
_0-1_レイヤ___1
  6
CONTINUOUS
 62
    7
 10
690.61610500000018
 20
543.48397499999999
 11
690.82797500000015
 21
543.48397499999999
  0
LINE
  8
_0-1_レイヤ___1
  6
CONTINUOUS
 62
    7
 10
690.82797500000015
 20
543.48397499999999
 11
691.03812500000015
 21
543.48397499999999
  0
LINE
  8
_0-1_レイヤ___1
  6
CONTINUOUS
 62
    7
 10
691.03812500000015
 20
543.48397499999999
 11
691.24999500000013
 21
543.48397499999999
  0
LINE
  8
_0-1_レイヤ___1
  6
CONTINUOUS
 62
    7
 10
691.24999500000013
 20
543.48397499999999
 11
691.46187500000008
 21
543.48397499999999
  0
LINE
  8
_0-1_レイヤ___1
  6
CONTINUOUS
 62
    7
 10
691.46187500000008
 20
543.48397499999999
 11
691.46187500000008
 21
543.27382499999999
  0
LINE
  8
_0-1_レイヤ___1
  6
CONTINUOUS
 62
    7
 10
691.46187500000008
 20
543.27382499999999
 11
691.46187500000008
 21
543.06022499999995
  0
LINE
  8
_0-1_レイヤ___1
  6
CONTINUOUS
 62
    7
 10
691.46187500000008
 20
543.06022499999995
 11
691.67374500000028
 21
543.06022499999995
  0
LINE
  8
_0-1_レイヤ___1
  6
CONTINUOUS
 62
    7
 10
691.67374500000028
 20
543.06022499999995
 11
691.88561500000014
 21
543.06022499999995
  0
LINE
  8
_0-1_レイヤ___1
  6
CONTINUOUS
 62
    7
 10
691.88561500000014
 20
543.06022499999995
 11
692.09749500000021
 21
543.06022499999995
  0
LINE
  8
_0-1_レイヤ___1
  6
CONTINUOUS
 62
    7
 10
692.09749500000021
 20
543.06022499999995
 11
692.30936500000007
 21
543.06022499999995
  0
LINE
  8
_0-1_レイヤ___1
  6
CONTINUOUS
 62
    7
 10
692.30936500000007
 20
543.06022499999995
 11
692.52123500000016
 21
543.06022499999995
  0
LINE
  8
_0-1_レイヤ___1
  6
CONTINUOUS
 62
    7
 10
692.52123500000016
 20
543.06022499999995
 11
692.73311500000023
 21
543.06022499999995
  0
LINE
  8
_0-1_レイヤ___1
  6
CONTINUOUS
 62
    7
 10
692.73311500000023
 20
543.06022499999995
 11
692.94326500000011
 21
543.06022499999995
  0
LINE
  8
_0-1_レイヤ___1
  6
CONTINUOUS
 62
    7
 10
692.94326500000011
 20
543.06022499999995
 11
693.15513500000009
 21
543.06022499999995
  0
LINE
  8
_0-1_レイヤ___1
  6
CONTINUOUS
 62
    7
 10
693.15513500000009
 20
543.06022499999995
 11
693.15513500000009
 21
542.84663499999999
  0
LINE
  8
_0-1_レイヤ___1
  6
CONTINUOUS
 62
    7
 10
693.15513500000009
 20
542.84663499999999
 11
693.15513500000009
 21
542.63648499999999
  0
LINE
  8
_0-1_レイヤ___1
  6
CONTINUOUS
 62
    7
 10
693.15513500000009
 20
542.63648499999999
 11
693.36700500000018
 21
542.63648499999999
  0
LINE
  8
_0-1_レイヤ___1
  6
CONTINUOUS
 62
    7
 10
693.36700500000018
 20
542.63648499999999
 11
693.57888500000013
 21
542.63648499999999
  0
LINE
  8
_0-1_レイヤ___1
  6
CONTINUOUS
 62
    7
 10
693.57888500000013
 20
542.63648499999999
 11
693.7907550000001
 21
542.63648499999999
  0
LINE
  8
_0-1_レイヤ___1
  6
CONTINUOUS
 62
    7
 10
693.7907550000001
 20
542.63648499999999
 11
694.00262500000008
 21
542.63648499999999
  0
LINE
  8
_0-1_レイヤ___1
  6
CONTINUOUS
 62
    7
 10
694.00262500000008
 20
542.63648499999999
 11
694.21450500000014
 21
542.63648499999999
  0
LINE
  8
_0-1_レイヤ___1
  6
CONTINUOUS
 62
    7
 10
694.21450500000014
 20
542.63648499999999
 11
694.42637500000023
 21
542.63648499999999
  0
LINE
  8
_0-1_レイヤ___1
  6
CONTINUOUS
 62
    7
 10
694.42637500000023
 20
542.63648499999999
 11
694.6382450000001
 21
542.63648499999999
  0
LINE
  8
_0-1_レイヤ___1
  6
CONTINUOUS
 62
    7
 10
694.6382450000001
 20
542.63648499999999
 11
694.84840500000018
 21
542.63648499999999
  0
LINE
  8
_0-1_レイヤ___1
  6
CONTINUOUS
 62
    7
 10
694.84840500000018
 20
542.63648499999999
 11
695.06027500000016
 21
542.63648499999999
  0
LINE
  8
_0-1_レイヤ___1
  6
CONTINUOUS
 62
    7
 10
695.06027500000016
 20
542.63648499999999
 11
695.27214500000014
 21
542.63648499999999
  0
LINE
  8
_0-1_レイヤ___1
  6
CONTINUOUS
 62
    7
 10
695.27214500000014
 20
542.63648499999999
 11
695.27214500000014
 21
542.42633499999999
  0
LINE
  8
_0-1_レイヤ___1
  6
CONTINUOUS
 62
    7
 10
695.27214500000014
 20
542.42633499999999
 11
695.27214500000014
 21
542.21273500000007
  0
LINE
  8
_0-1_レイヤ___1
  6
CONTINUOUS
 62
    7
 10
695.27214500000014
 20
542.21273500000007
 11
695.48402500000009
 21
542.21273500000007
  0
LINE
  8
_0-1_レイヤ___1
  6
CONTINUOUS
 62
    7
 10
695.48402500000009
 20
542.21273500000007
 11
695.69589500000018
 21
542.21273500000007
  0
LINE
  8
_0-1_レイヤ___1
  6
CONTINUOUS
 62
    7
 10
695.69589500000018
 20
542.21273500000007
 11
695.90776500000015
 21
542.21273500000007
  0
LINE
  8
_0-1_レイヤ___1
  6
CONTINUOUS
 62
    7
 10
695.90776500000015
 20
542.21273500000007
 11
696.11964500000011
 21
542.21273500000007
  0
LINE
  8
_0-1_レイヤ___1
  6
CONTINUOUS
 62
    7
 10
696.11964500000011
 20
542.21273500000007
 11
696.32979500000022
 21
542.21273500000007
  0
LINE
  8
_0-1_レイヤ___1
  6
CONTINUOUS
 62
    7
 10
696.32979500000022
 20
542.21273500000007
 11
696.54166500000019
 21
542.21273500000007
  0
LINE
  8
_0-1_レイヤ___1
  6
CONTINUOUS
 62
    7
 10
696.54166500000019
 20
542.21273500000007
 11
696.75353500000017
 21
542.21273500000007
  0
LINE
  8
_0-1_レイヤ___1
  6
CONTINUOUS
 62
    7
 10
696.75353500000017
 20
542.21273500000007
 11
696.96541500000012
 21
542.21273500000007
  0
LINE
  8
_0-1_レイヤ___1
  6
CONTINUOUS
 62
    7
 10
696.96541500000012
 20
542.21273500000007
 11
697.17728500000021
 21
542.21273500000007
  0
LINE
  8
_0-1_レイヤ___1
  6
CONTINUOUS
 62
    7
 10
697.17728500000021
 20
542.21273500000007
 11
697.38915500000019
 21
542.21273500000007
  0
LINE
  8
_0-1_レイヤ___1
  6
CONTINUOUS
 62
    7
 10
697.38915500000019
 20
542.21273500000007
 11
697.60103500000014
 21
542.21273500000007
  0
LINE
  8
_0-1_レイヤ___1
  6
CONTINUOUS
 62
    7
 10
697.60103500000014
 20
542.21273500000007
 11
697.81290500000011
 21
542.21273500000007
  0
LINE
  8
_0-1_レイヤ___1
  6
CONTINUOUS
 62
    7
 10
697.81290500000011
 20
542.21273500000007
 11
698.02477500000009
 21
542.21273500000007
  0
LINE
  8
_0-1_レイヤ___1
  6
CONTINUOUS
 62
    7
 10
698.02477500000009
 20
542.21273500000007
 11
698.2349250000002
 21
542.21273500000007
  0
LINE
  8
_0-1_レイヤ___1
  6
CONTINUOUS
 62
    7
 10
698.2349250000002
 20
542.21273500000007
 11
698.44680500000004
 21
541.99913500000002
  0
LINE
  8
_0-1_レイヤ___1
  6
CONTINUOUS
 62
    7
 10
698.44680500000004
 20
541.99913500000002
 11
698.65867500000024
 21
541.78898500000003
  0
LINE
  8
_0-1_レイヤ___1
  6
CONTINUOUS
 62
    7
 10
698.65867500000024
 20
541.78898500000003
 11
698.87054500000022
 21
541.78898500000003
  0
LINE
  8
_0-1_レイヤ___1
  6
CONTINUOUS
 62
    7
 10
698.87054500000022
 20
541.78898500000003
 11
699.08242500000017
 21
541.78898500000003
  0
LINE
  8
_0-1_レイヤ___1
  6
CONTINUOUS
 62
    7
 10
699.08242500000017
 20
541.78898500000003
 11
699.29429500000015
 21
541.78898500000003
  0
LINE
  8
_0-1_レイヤ___1
  6
CONTINUOUS
 62
    7
 10
699.29429500000015
 20
541.78898500000003
 11
699.50616500000012
 21
541.78898500000003
  0
LINE
  8
_0-1_レイヤ___1
  6
CONTINUOUS
 62
    7
 10
699.50616500000012
 20
541.78898500000003
 11
699.7163250000001
 21
541.78898500000003
  0
LINE
  8
_0-1_レイヤ___1
  6
CONTINUOUS
 62
    7
 10
699.7163250000001
 20
541.78898500000003
 11
699.92819500000007
 21
541.78898500000003
  0
LINE
  8
_0-1_レイヤ___1
  6
CONTINUOUS
 62
    7
 10
699.92819500000007
 20
541.78898500000003
 11
700.14006500000028
 21
541.78898500000003
  0
LINE
  8
_0-1_レイヤ___1
  6
CONTINUOUS
 62
    7
 10
700.14006500000028
 20
541.78898500000003
 11
700.35194500000011
 21
541.78898500000003
  0
LINE
  8
_0-1_レイヤ___1
  6
CONTINUOUS
 62
    7
 10
700.35194500000011
 20
541.78898500000003
 11
700.5638150000002
 21
541.78898500000003
  0
LINE
  8
_0-1_レイヤ___1
  6
CONTINUOUS
 62
    7
 10
700.5638150000002
 20
541.78898500000003
 11
700.77568500000007
 21
541.78898500000003
  0
LINE
  8
_0-1_レイヤ___1
  6
CONTINUOUS
 62
    7
 10
765.96895500000016
 20
535.01593500000001
 11
765.54520500000012
 21
527.81912499999999
  0
LINE
  8
_0-1_レイヤ___1
  6
CONTINUOUS
 62
    7
 10
765.54520500000012
 20
527.81912499999999
 11
765.1214550000002
 21
520.62232500000005
  0
LINE
  8
_0-1_レイヤ___1
  6
CONTINUOUS
 62
    7
 10
765.96895500000016
 20
535.01593500000001
 11
765.54520500000012
 21
526.97163499999999
  0
LINE
  8
_0-1_レイヤ___1
  6
CONTINUOUS
 62
    7
 10
765.54520500000012
 20
526.97163499999999
 11
765.1214550000002
 21
518.92733499999997
  0
LINE
  8
_0-1_レイヤ___1
  6
CONTINUOUS
 62
    7
 10
732.52568500000007
 20
536.70747499999993
 11
733.16130500000008
 21
527.81912499999999
  0
LINE
  8
_0-1_レイヤ___1
  6
CONTINUOUS
 62
    7
 10
733.16130500000008
 20
527.81912499999999
 11
733.79520500000012
 21
518.92733499999997
  0
LINE
  8
_0-1_レイヤ___1
  6
CONTINUOUS
 62
    7
 10
765.1214550000002
 20
518.92733499999997
 11
749.45833500000026
 21
518.92733499999997
  0
LINE
  8
_0-1_レイヤ___1
  6
CONTINUOUS
 62
    7
 10
749.45833500000026
 20
518.92733499999997
 11
733.79520500000012
 21
518.92733499999997
  0
LINE
  8
_0-1_レイヤ___1
  6
CONTINUOUS
 62
    7
 10
1374.2987450000001
 20
521.046065
 11
1374.2987450000001
 21
519.98497499999996
  0
LINE
  8
_0-1_レイヤ___1
  6
CONTINUOUS
 62
    7
 10
1374.2987450000001
 20
519.98497499999996
 11
1374.2987450000001
 21
518.92733499999997
  0
LINE
  8
_0-1_レイヤ___1
  6
CONTINUOUS
 62
    7
 10
1374.2987450000001
 20
518.92733499999997
 11
1358.6356150000001
 21
518.92733499999997
  0
LINE
  8
_0-1_レイヤ___1
  6
CONTINUOUS
 62
    7
 10
1358.6356150000001
 20
518.92733499999997
 11
1342.9724950000002
 21
518.92733499999997
  0
LINE
  8
_0-1_レイヤ___1
  6
CONTINUOUS
 62
    7
 10
1342.5487450000003
 20
521.046065
 11
1342.7606150000001
 21
519.98497499999996
  0
LINE
  8
_0-1_レイヤ___1
  6
CONTINUOUS
 62
    7
 10
1342.7606150000001
 20
519.98497499999996
 11
1342.9724950000002
 21
518.92733499999997
  0
LINE
  8
_0-1_レイヤ___1
  6
CONTINUOUS
 62
    7
 10
662.25262500000008
 20
579.04080499999998
 11
661.82888500000013
 21
586.02745499999992
  0
LINE
  8
_0-1_レイヤ___1
  6
CONTINUOUS
 62
    7
 10
661.82888500000013
 20
586.02745499999992
 11
661.4051350000002
 21
593.01066500000002
  0
LINE
  8
_0-1_レイヤ___1
  6
CONTINUOUS
 62
    7
 10
765.1214550000002
 20
520.62232500000005
 11
765.1214550000002
 21
521.46981500000004
  0
LINE
  8
_0-1_レイヤ___1
  6
CONTINUOUS
 62
    7
 10
765.1214550000002
 20
521.46981500000004
 11
765.1214550000002
 21
522.31730500000003
  0
LINE
  8
_0-1_レイヤ___1
  6
CONTINUOUS
 62
    7
 10
765.1214550000002
 20
522.31730500000003
 11
765.54520500000012
 21
527.81912499999999
  0
LINE
  8
_0-1_レイヤ___1
  6
CONTINUOUS
 62
    7
 10
765.54520500000012
 20
527.81912499999999
 11
765.96895500000016
 21
533.32094499999994
  0
LINE
  8
_0-1_レイヤ___1
  6
CONTINUOUS
 62
    7
 10
765.96895500000016
 20
533.32094499999994
 11
765.96895500000016
 21
534.16843500000004
  0
LINE
  8
_0-1_レイヤ___1
  6
CONTINUOUS
 62
    7
 10
765.96895500000016
 20
534.16843500000004
 11
765.96895500000016
 21
535.01593500000001
  0
LINE
  8
_0-1_レイヤ___1
  6
CONTINUOUS
 62
    7
 10
765.96895500000016
 20
535.01593500000001
 11
766.39269500000012
 21
535.85997499999996
  0
LINE
  8
_0-1_レイヤ___1
  6
CONTINUOUS
 62
    7
 10
766.39269500000012
 20
535.85997499999996
 11
766.81644500000016
 21
536.70747499999993
  0
LINE
  8
_0-1_レイヤ___1
  6
CONTINUOUS
 62
    7
 10
766.81644500000016
 20
536.70747499999993
 11
767.02659500000004
 21
537.131215
  0
LINE
  8
_0-1_レイヤ___1
  6
CONTINUOUS
 62
    7
 10
767.02659500000004
 20
537.131215
 11
767.23846500000025
 21
537.55496500000004
  0
LINE
  8
_0-1_レイヤ___1
  6
CONTINUOUS
 62
    7
 10
767.23846500000025
 20
537.55496500000004
 11
767.66221500000017
 21
538.40245500000003
  0
LINE
  8
_0-1_レイヤ___1
  6
CONTINUOUS
 62
    7
 10
767.66221500000017
 20
538.40245500000003
 11
768.08596500000021
 21
539.249955
  0
LINE
  8
_0-1_レイヤ___1
  6
CONTINUOUS
 62
    7
 10
768.08596500000021
 20
539.249955
 11
768.29783500000019
 21
539.249955
  0
LINE
  8
_0-1_レイヤ___1
  6
CONTINUOUS
 62
    7
 10
768.29783500000019
 20
539.249955
 11
768.50970500000017
 21
539.249955
  0
LINE
  8
_0-1_レイヤ___1
  6
CONTINUOUS
 62
    7
 10
729.98492500000009
 20
540.94149500000003
 11
730.19680500000027
 21
540.94149500000003
  0
LINE
  8
_0-1_レイヤ___1
  6
CONTINUOUS
 62
    7
 10
730.19680500000027
 20
540.94149500000003
 11
730.40867500000013
 21
540.94149500000003
  0
LINE
  8
_0-1_レイヤ___1
  6
CONTINUOUS
 62
    7
 10
730.40867500000013
 20
540.94149500000003
 11
730.40867500000013
 21
540.73134500000003
  0
LINE
  8
_0-1_レイヤ___1
  6
CONTINUOUS
 62
    7
 10
730.40867500000013
 20
540.73134500000003
 11
730.40867500000013
 21
540.51774499999999
  0
LINE
  8
_0-1_レイヤ___1
  6
CONTINUOUS
 62
    7
 10
730.40867500000013
 20
540.51774499999999
 11
730.83242500000006
 21
539.670255
  0
LINE
  8
_0-1_レイヤ___1
  6
CONTINUOUS
 62
    7
 10
730.83242500000006
 20
539.670255
 11
731.25616500000024
 21
538.82620500000007
  0
LINE
  8
_0-1_レイヤ___1
  6
CONTINUOUS
 62
    7
 10
731.25616500000024
 20
538.82620500000007
 11
731.4663250000001
 21
538.61605500000007
  0
LINE
  8
_0-1_レイヤ___1
  6
CONTINUOUS
 62
    7
 10
731.4663250000001
 20
538.61605500000007
 11
731.67819500000019
 21
538.40245500000003
  0
LINE
  8
_0-1_レイヤ___1
  6
CONTINUOUS
 62
    7
 10
731.67819500000019
 20
538.40245500000003
 11
732.10194500000011
 21
537.55496500000004
  0
LINE
  8
_0-1_レイヤ___1
  6
CONTINUOUS
 62
    7
 10
732.10194500000011
 20
537.55496500000004
 11
732.52568500000007
 21
536.70747499999993
  0
LINE
  8
_0-1_レイヤ___1
  6
CONTINUOUS
 62
    7
 10
732.52568500000007
 20
536.70747499999993
 11
732.52568500000007
 21
535.64982499999996
  0
LINE
  8
_0-1_レイヤ___1
  6
CONTINUOUS
 62
    7
 10
732.52568500000007
 20
535.64982499999996
 11
732.52568500000007
 21
534.59218499999997
  0
LINE
  8
_0-1_レイヤ___1
  6
CONTINUOUS
 62
    7
 10
732.52568500000007
 20
534.59218499999997
 11
732.94771500000013
 21
528.45302500000003
  0
LINE
  8
_0-1_レイヤ___1
  6
CONTINUOUS
 62
    7
 10
732.94771500000013
 20
528.45302500000003
 11
733.3714550000002
 21
522.31730500000003
  0
LINE
  8
_0-1_レイヤ___1
  6
CONTINUOUS
 62
    7
 10
733.3714550000002
 20
522.31730500000003
 11
733.3714550000002
 21
521.46981500000004
  0
LINE
  8
_0-1_レイヤ___1
  6
CONTINUOUS
 62
    7
 10
733.3714550000002
 20
521.46981500000004
 11
733.3714550000002
 21
520.62232500000005
  0
LINE
  8
_0-1_レイヤ___1
  6
CONTINUOUS
 62
    7
 10
768.50970500000017
 20
539.67369499999995
 11
768.29783500000019
 21
539.46354499999995
  0
LINE
  8
_0-1_レイヤ___1
  6
CONTINUOUS
 62
    7
 10
768.29783500000019
 20
539.46354499999995
 11
768.08596500000021
 21
539.249955
  0
LINE
  8
_0-1_レイヤ___1
  6
CONTINUOUS
 62
    7
 10
768.08596500000021
 20
539.249955
 11
767.66221500000017
 21
538.40245500000003
  0
LINE
  8
_0-1_レイヤ___1
  6
CONTINUOUS
 62
    7
 10
767.66221500000017
 20
538.40245500000003
 11
767.23846500000025
 21
537.55496500000004
  0
LINE
  8
_0-1_レイヤ___1
  6
CONTINUOUS
 62
    7
 10
767.23846500000025
 20
537.55496500000004
 11
767.02659500000004
 21
537.131215
  0
LINE
  8
_0-1_レイヤ___1
  6
CONTINUOUS
 62
    7
 10
767.02659500000004
 20
537.131215
 11
766.81644500000016
 21
536.70747499999993
  0
LINE
  8
_0-1_レイヤ___1
  6
CONTINUOUS
 62
    7
 10
766.81644500000016
 20
536.70747499999993
 11
766.39269500000012
 21
535.85997499999996
  0
LINE
  8
_0-1_レイヤ___1
  6
CONTINUOUS
 62
    7
 10
766.39269500000012
 20
535.85997499999996
 11
765.96895500000016
 21
535.01593500000001
  0
LINE
  8
_0-1_レイヤ___1
  6
CONTINUOUS
 62
    7
 10
732.52568500000007
 20
536.70747499999993
 11
732.10194500000011
 21
537.55496500000004
  0
LINE
  8
_0-1_レイヤ___1
  6
CONTINUOUS
 62
    7
 10
732.10194500000011
 20
537.55496500000004
 11
731.67819500000019
 21
538.40245500000003
  0
LINE
  8
_0-1_レイヤ___1
  6
CONTINUOUS
 62
    7
 10
731.67819500000019
 20
538.40245500000003
 11
731.4663250000001
 21
538.61605500000007
  0
LINE
  8
_0-1_レイヤ___1
  6
CONTINUOUS
 62
    7
 10
731.4663250000001
 20
538.61605500000007
 11
731.25616500000024
 21
538.82620500000007
  0
LINE
  8
_0-1_レイヤ___1
  6
CONTINUOUS
 62
    7
 10
731.25616500000024
 20
538.82620500000007
 11
730.83242500000006
 21
539.670255
  0
LINE
  8
_0-1_レイヤ___1
  6
CONTINUOUS
 62
    7
 10
730.83242500000006
 20
539.670255
 11
730.40867500000013
 21
540.51774499999999
  0
LINE
  8
_0-1_レイヤ___1
  6
CONTINUOUS
 62
    7
 10
730.40867500000013
 20
540.51774499999999
 11
730.19680500000027
 21
540.73134500000003
  0
LINE
  8
_0-1_レイヤ___1
  6
CONTINUOUS
 62
    7
 10
730.19680500000027
 20
540.73134500000003
 11
729.98492500000009
 21
540.94149500000003
  0
LINE
  8
_0-1_レイヤ___1
  6
CONTINUOUS
 62
    7
 10
1374.2987450000001
 20
521.046065
 11
1375.3581150000002
 21
521.046065
  0
LINE
  8
_0-1_レイヤ___1
  6
CONTINUOUS
 62
    7
 10
1375.3581150000002
 20
521.046065
 11
1376.4157550000002
 21
521.046065
  0
LINE
  8
_0-1_レイヤ___1
  6
CONTINUOUS
 62
    7
 10
1376.4157550000002
 20
521.046065
 11
1379.1683850000002
 21
521.046065
  0
LINE
  8
_0-1_レイヤ___1
  6
CONTINUOUS
 62
    7
 10
1379.1683850000002
 20
521.046065
 11
1381.9192950000001
 21
521.046065
  0
LINE
  8
_0-1_レイヤ___1
  6
CONTINUOUS
 62
    7
 10
1381.9192950000001
 20
521.046065
 11
1382.765065
 21
521.046065
  0
LINE
  8
_0-1_レイヤ___1
  6
CONTINUOUS
 62
    7
 10
1382.765065
 20
521.046065
 11
1383.6125650000004
 21
521.046065
  0
LINE
  8
_0-1_レイヤ___1
  6
CONTINUOUS
 62
    7
 10
1383.6125650000004
 20
521.046065
 11
1383.8244350000002
 21
521.046065
  0
LINE
  8
_0-1_レイヤ___1
  6
CONTINUOUS
 62
    7
 10
1383.8244350000002
 20
521.046065
 11
1384.0363050000001
 21
521.046065
  0
LINE
  8
_0-1_レイヤ___1
  6
CONTINUOUS
 62
    7
 10
1384.0363050000001
 20
521.046065
 11
1384.0363050000001
 21
521.25966499999993
  0
LINE
  8
_0-1_レイヤ___1
  6
CONTINUOUS
 62
    7
 10
1384.0363050000001
 20
521.25966499999993
 11
1384.0363050000001
 21
521.46981500000004
  0
LINE
  8
_0-1_レイヤ___1
  6
CONTINUOUS
 62
    7
 10
1384.0363050000001
 20
521.46981500000004
 11
1384.2464550000002
 21
521.46981500000004
  0
LINE
  8
_0-1_レイヤ___1
  6
CONTINUOUS
 62
    7
 10
1384.2464550000002
 20
521.46981500000004
 11
1384.4583350000003
 21
521.46981500000004
  0
LINE
  8
_0-1_レイヤ___1
  6
CONTINUOUS
 62
    7
 10
1384.4583350000003
 20
521.46981500000004
 11
1384.6702050000001
 21
521.46981500000004
  0
LINE
  8
_0-1_レイヤ___1
  6
CONTINUOUS
 62
    7
 10
1384.6702050000001
 20
521.46981500000004
 11
1384.8820750000002
 21
521.46981500000004
  0
LINE
  8
_0-1_レイヤ___1
  6
CONTINUOUS
 62
    7
 10
1384.8820750000002
 20
521.46981500000004
 11
1384.8820750000002
 21
521.67996500000004
  0
LINE
  8
_0-1_レイヤ___1
  6
CONTINUOUS
 62
    7
 10
1384.8820750000002
 20
521.67996500000004
 11
1384.8820750000002
 21
521.89356500000008
  0
LINE
  8
_0-1_レイヤ___1
  6
CONTINUOUS
 62
    7
 10
1384.8820750000002
 20
521.89356500000008
 11
1385.0939550000001
 21
521.89356500000008
  0
LINE
  8
_0-1_レイヤ___1
  6
CONTINUOUS
 62
    7
 10
1385.0939550000001
 20
521.89356500000008
 11
1385.3058250000001
 21
521.89356500000008
  0
LINE
  8
_0-1_レイヤ___1
  6
CONTINUOUS
 62
    7
 10
1385.3058250000001
 20
521.89356500000008
 11
1385.517695
 21
521.89356500000008
  0
LINE
  8
_0-1_レイヤ___1
  6
CONTINUOUS
 62
    7
 10
1385.517695
 20
521.89356500000008
 11
1385.7295750000003
 21
521.89356500000008
  0
LINE
  8
_0-1_レイヤ___1
  6
CONTINUOUS
 62
    7
 10
1385.7295750000003
 20
521.89356500000008
 11
1385.7295750000003
 21
522.10715500000003
  0
LINE
  8
_0-1_レイヤ___1
  6
CONTINUOUS
 62
    7
 10
1385.7295750000003
 20
522.10715500000003
 11
1385.7295750000003
 21
522.31730500000003
  0
LINE
  8
_0-1_レイヤ___1
  6
CONTINUOUS
 62
    7
 10
1385.7295750000003
 20
522.31730500000003
 11
1385.9414450000004
 21
522.31730500000003
  0
LINE
  8
_0-1_レイヤ___1
  6
CONTINUOUS
 62
    7
 10
1385.9414450000004
 20
522.31730500000003
 11
1386.151595
 21
522.31730500000003
  0
LINE
  8
_0-1_レイヤ___1
  6
CONTINUOUS
 62
    7
 10
1386.151595
 20
522.31730500000003
 11
1386.3634649999999
 21
522.31730500000003
  0
LINE
  8
_0-1_レイヤ___1
  6
CONTINUOUS
 62
    7
 10
1386.3634649999999
 20
522.31730500000003
 11
1386.5753450000002
 21
522.31730500000003
  0
LINE
  8
_0-1_レイヤ___1
  6
CONTINUOUS
 62
    7
 10
1386.5753450000002
 20
522.31730500000003
 11
1386.5753450000002
 21
522.52745499999992
  0
LINE
  8
_0-1_レイヤ___1
  6
CONTINUOUS
 62
    7
 10
1386.5753450000002
 20
522.52745499999992
 11
1386.5753450000002
 21
522.73760500000003
  0
LINE
  8
_0-1_レイヤ___1
  6
CONTINUOUS
 62
    7
 10
1386.5753450000002
 20
522.73760500000003
 11
1389.3279750000002
 21
524.42915500000004
  0
LINE
  8
_0-1_レイヤ___1
  6
CONTINUOUS
 62
    7
 10
1389.3279750000002
 20
524.42915500000004
 11
1392.0788850000004
 21
526.12413500000002
  0
LINE
  8
_0-1_レイヤ___1
  6
CONTINUOUS
 62
    7
 10
1392.0788850000004
 20
526.12413500000002
 11
1392.9246550000003
 21
526.54788500000006
  0
LINE
  8
_0-1_レイヤ___1
  6
CONTINUOUS
 62
    7
 10
1392.9246550000003
 20
526.54788500000006
 11
1393.7721450000001
 21
526.97163499999999
  0
LINE
  8
_0-1_レイヤ___1
  6
CONTINUOUS
 62
    7
 10
1393.7721450000001
 20
526.97163499999999
 11
1394.8297950000003
 21
527.18522499999995
  0
LINE
  8
_0-1_レイヤ___1
  6
CONTINUOUS
 62
    7
 10
1394.8297950000003
 20
527.18522499999995
 11
1395.8891550000001
 21
527.39537499999994
  0
LINE
  8
_0-1_レイヤ___1
  6
CONTINUOUS
 62
    7
 10
1395.8891550000001
 20
527.39537499999994
 11
1399.063815
 21
528.03272500000003
  0
LINE
  8
_0-1_レイヤ___1
  6
CONTINUOUS
 62
    7
 10
1399.063815
 20
528.03272500000003
 11
1402.2384650000001
 21
528.66661499999998
  0
LINE
  8
_0-1_レイヤ___1
  6
CONTINUOUS
 62
    7
 10
1402.2384650000001
 20
528.66661499999998
 11
1403.0842450000002
 21
528.88021500000002
  0
LINE
  8
_0-1_レイヤ___1
  6
CONTINUOUS
 62
    7
 10
1403.0842450000002
 20
528.88021500000002
 11
1403.9317350000001
 21
529.09036500000002
  0
LINE
  8
_0-1_レイヤ___1
  6
CONTINUOUS
 62
    7
 10
1403.9317350000001
 20
529.09036500000002
 11
1404.9893750000001
 21
529.09036500000002
  0
LINE
  8
_0-1_レイヤ___1
  6
CONTINUOUS
 62
    7
 10
1404.9893750000001
 20
529.09036500000002
 11
1406.0487450000003
 21
529.09036500000002
  0
LINE
  8
_0-1_レイヤ___1
  6
CONTINUOUS
 62
    7
 10
1406.0487450000003
 20
529.09036500000002
 11
1407.108115
 21
529.30051500000002
  0
LINE
  8
_0-1_レイヤ___1
  6
CONTINUOUS
 62
    7
 10
1407.108115
 20
529.30051500000002
 11
1408.1657550000002
 21
529.51066500000002
  0
LINE
  8
_0-1_レイヤ___1
  6
CONTINUOUS
 62
    7
 10
1408.1657550000002
 20
529.51066500000002
 11
1408.3776250000003
 21
529.51066500000002
  0
LINE
  8
_0-1_レイヤ___1
  6
CONTINUOUS
 62
    7
 10
1408.3776250000003
 20
529.51066500000002
 11
1408.5895050000001
 21
529.51066500000002
  0
LINE
  8
_0-1_レイヤ___1
  6
CONTINUOUS
 62
    7
 10
1408.5895050000001
 20
529.51066500000002
 11
1408.7996550000003
 21
529.51066500000002
  0
LINE
  8
_0-1_レイヤ___1
  6
CONTINUOUS
 62
    7
 10
1408.7996550000003
 20
529.51066500000002
 11
1409.0115250000003
 21
529.51066500000002
  0
LINE
  8
_0-1_レイヤ___1
  6
CONTINUOUS
 62
    7
 10
1409.0115250000003
 20
529.51066500000002
 11
1409.0115250000003
 21
529.72081500000002
  0
LINE
  8
_0-1_レイヤ___1
  6
CONTINUOUS
 62
    7
 10
1409.0115250000003
 20
529.72081500000002
 11
1409.0115250000003
 21
529.93441500000006
  0
LINE
  8
_0-1_レイヤ___1
  6
CONTINUOUS
 62
    7
 10
1409.0115250000003
 20
529.93441500000006
 11
1409.2234050000002
 21
529.93441500000006
  0
LINE
  8
_0-1_レイヤ___1
  6
CONTINUOUS
 62
    7
 10
1409.2234050000002
 20
529.93441500000006
 11
1409.4352750000003
 21
529.93441500000006
  0
LINE
  8
_0-1_レイヤ___1
  6
CONTINUOUS
 62
    7
 10
1409.4352750000003
 20
529.93441500000006
 11
1409.6471450000001
 21
529.93441500000006
  0
LINE
  8
_0-1_レイヤ___1
  6
CONTINUOUS
 62
    7
 10
1409.6471450000001
 20
529.93441500000006
 11
1409.8590250000002
 21
529.93441500000006
  0
LINE
  8
_0-1_レイヤ___1
  6
CONTINUOUS
 62
    7
 10
1409.8590250000002
 20
529.93441500000006
 11
1410.0708950000001
 21
529.93441500000006
  0
LINE
  8
_0-1_レイヤ___1
  6
CONTINUOUS
 62
    7
 10
1410.0708950000001
 20
529.93441500000006
 11
1410.2827649999999
 21
529.93441500000006
  0
LINE
  8
_0-1_レイヤ___1
  6
CONTINUOUS
 62
    7
 10
1410.2827649999999
 20
529.93441500000006
 11
1410.4946450000002
 21
529.93441500000006
  0
LINE
  8
_0-1_レイヤ___1
  6
CONTINUOUS
 62
    7
 10
1410.4946450000002
 20
529.93441500000006
 11
1410.7047950000001
 21
529.93441500000006
  0
LINE
  8
_0-1_レイヤ___1
  6
CONTINUOUS
 62
    7
 10
1410.7047950000001
 20
529.93441500000006
 11
1410.916665
 21
529.93441500000006
  0
LINE
  8
_0-1_レイヤ___1
  6
CONTINUOUS
 62
    7
 10
1410.916665
 20
529.93441500000006
 11
1411.1285350000003
 21
529.93441500000006
  0
LINE
  8
_0-1_レイヤ___1
  6
CONTINUOUS
 62
    7
 10
1411.1285350000003
 20
529.93441500000006
 11
1411.1285350000003
 21
530.14801499999999
  0
LINE
  8
_0-1_レイヤ___1
  6
CONTINUOUS
 62
    7
 10
1411.1285350000003
 20
530.14801499999999
 11
1411.1285350000003
 21
530.35816499999999
  0
LINE
  8
_0-1_レイヤ___1
  6
CONTINUOUS
 62
    7
 10
1411.1285350000003
 20
530.35816499999999
 11
1411.3404150000001
 21
530.35816499999999
  0
LINE
  8
_0-1_レイヤ___1
  6
CONTINUOUS
 62
    7
 10
1411.3404150000001
 20
530.35816499999999
 11
1411.5522850000002
 21
530.35816499999999
  0
LINE
  8
_0-1_レイヤ___1
  6
CONTINUOUS
 62
    7
 10
1411.5522850000002
 20
530.35816499999999
 11
1411.7641550000003
 21
530.35816499999999
  0
LINE
  8
_0-1_レイヤ___1
  6
CONTINUOUS
 62
    7
 10
1411.7641550000003
 20
530.35816499999999
 11
1411.9760350000001
 21
530.35816499999999
  0
LINE
  8
_0-1_レイヤ___1
  6
CONTINUOUS
 62
    7
 10
1411.9760350000001
 20
530.35816499999999
 11
1412.1879050000002
 21
530.35816499999999
  0
LINE
  8
_0-1_レイヤ___1
  6
CONTINUOUS
 62
    7
 10
1412.1879050000002
 20
530.35816499999999
 11
1412.3997750000001
 21
530.35816499999999
  0
LINE
  8
_0-1_レイヤ___1
  6
CONTINUOUS
 62
    7
 10
1412.3997750000001
 20
530.35816499999999
 11
1412.6099250000002
 21
530.35816499999999
  0
LINE
  8
_0-1_レイヤ___1
  6
CONTINUOUS
 62
    7
 10
1412.6099250000002
 20
530.35816499999999
 11
1412.821805
 21
530.35816499999999
  0
LINE
  8
_0-1_レイヤ___1
  6
CONTINUOUS
 62
    7
 10
1412.821805
 20
530.35816499999999
 11
1413.0336750000001
 21
530.35816499999999
  0
LINE
  8
_0-1_レイヤ___1
  6
CONTINUOUS
 62
    7
 10
1413.0336750000001
 20
530.35816499999999
 11
1413.245545
 21
530.35816499999999
  0
LINE
  8
_0-1_レイヤ___1
  6
CONTINUOUS
 62
    7
 10
1413.245545
 20
530.35816499999999
 11
1413.245545
 21
530.56831499999998
  0
LINE
  8
_0-1_レイヤ___1
  6
CONTINUOUS
 62
    7
 10
1413.245545
 20
530.56831499999998
 11
1413.245545
 21
530.78190499999994
  0
LINE
  8
_0-1_レイヤ___1
  6
CONTINUOUS
 62
    7
 10
1413.245545
 20
530.78190499999994
 11
1413.4574250000003
 21
530.78190499999994
  0
LINE
  8
_0-1_レイヤ___1
  6
CONTINUOUS
 62
    7
 10
1413.4574250000003
 20
530.78190499999994
 11
1413.6692950000001
 21
530.78190499999994
  0
LINE
  8
_0-1_レイヤ___1
  6
CONTINUOUS
 62
    7
 10
1413.6692950000001
 20
530.78190499999994
 11
1413.8811650000002
 21
530.78190499999994
  0
LINE
  8
_0-1_レイヤ___1
  6
CONTINUOUS
 62
    7
 10
1413.8811650000002
 20
530.78190499999994
 11
1414.0930450000001
 21
530.78190499999994
  0
LINE
  8
_0-1_レイヤ___1
  6
CONTINUOUS
 62
    7
 10
1414.0930450000001
 20
530.78190499999994
 11
1414.3049150000002
 21
530.78190499999994
  0
LINE
  8
_0-1_レイヤ___1
  6
CONTINUOUS
 62
    7
 10
1414.3049150000002
 20
530.78190499999994
 11
1414.5150650000003
 21
530.78190499999994
  0
LINE
  8
_0-1_レイヤ___1
  6
CONTINUOUS
 62
    7
 10
1414.5150650000003
 20
530.78190499999994
 11
1414.7269450000001
 21
530.78190499999994
  0
LINE
  8
_0-1_レイヤ___1
  6
CONTINUOUS
 62
    7
 10
1414.7269450000001
 20
530.78190499999994
 11
1414.9388150000002
 21
530.78190499999994
  0
LINE
  8
_0-1_レイヤ___1
  6
CONTINUOUS
 62
    7
 10
1414.9388150000002
 20
530.78190499999994
 11
1414.9388150000002
 21
530.99550499999998
  0
LINE
  8
_0-1_レイヤ___1
  6
CONTINUOUS
 62
    7
 10
1414.9388150000002
 20
530.99550499999998
 11
1414.9388150000002
 21
531.20565499999998
  0
LINE
  8
_0-1_レイヤ___1
  6
CONTINUOUS
 62
    7
 10
1414.9388150000002
 20
531.20565499999998
 11
1415.1506850000001
 21
531.20565499999998
  0
LINE
  8
_0-1_レイヤ___1
  6
CONTINUOUS
 62
    7
 10
1415.1506850000001
 20
531.20565499999998
 11
1415.3625650000001
 21
531.20565499999998
  0
LINE
  8
_0-1_レイヤ___1
  6
CONTINUOUS
 62
    7
 10
1415.3625650000001
 20
531.20565499999998
 11
1415.574435
 21
531.20565499999998
  0
LINE
  8
_0-1_レイヤ___1
  6
CONTINUOUS
 62
    7
 10
1415.574435
 20
531.20565499999998
 11
1415.7863050000001
 21
531.20565499999998
  0
LINE
  8
_0-1_レイヤ___1
  6
CONTINUOUS
 62
    7
 10
1415.7863050000001
 20
531.20565499999998
 11
1415.996455
 21
531.20565499999998
  0
LINE
  8
_0-1_レイヤ___1
  6
CONTINUOUS
 62
    7
 10
1415.996455
 20
531.20565499999998
 11
1416.208335
 21
531.20565499999998
  0
LINE
  8
_0-1_レイヤ___1
  6
CONTINUOUS
 62
    7
 10
1416.208335
 20
531.20565499999998
 11
1416.4202050000004
 21
531.20565499999998
  0
LINE
  8
_0-1_レイヤ___1
  6
CONTINUOUS
 62
    7
 10
1416.4202050000004
 20
531.20565499999998
 11
1416.6320750000002
 21
531.20565499999998
  0
LINE
  8
_0-1_レイヤ___1
  6
CONTINUOUS
 62
    7
 10
1416.6320750000002
 20
531.20565499999998
 11
1418.5372150000001
 21
531.84299499999997
  0
LINE
  8
_0-1_レイヤ___1
  6
CONTINUOUS
 62
    7
 10
1418.5372150000001
 20
531.84299499999997
 11
1420.4423550000001
 21
532.47689500000001
  0
LINE
  8
_0-1_レイヤ___1
  6
CONTINUOUS
 62
    7
 10
1420.4423550000001
 20
532.47689500000001
 11
1421.288125
 21
532.89719500000001
  0
LINE
  8
_0-1_レイヤ___1
  6
CONTINUOUS
 62
    7
 10
1421.288125
 20
532.89719500000001
 11
1422.1356150000001
 21
533.32094499999994
  0
LINE
  8
_0-1_レイヤ___1
  6
CONTINUOUS
 62
    7
 10
1422.1356150000001
 20
533.32094499999994
 11
1422.1356150000001
 21
533.53109500000005
  0
LINE
  8
_0-1_レイヤ___1
  6
CONTINUOUS
 62
    7
 10
1422.1356150000001
 20
533.53109500000005
 11
1422.1356150000001
 21
533.744685
  0
LINE
  8
_0-1_レイヤ___1
  6
CONTINUOUS
 62
    7
 10
1422.1356150000001
 20
533.744685
 11
1422.3474950000002
 21
533.744685
  0
LINE
  8
_0-1_レイヤ___1
  6
CONTINUOUS
 62
    7
 10
1422.3474950000002
 20
533.744685
 11
1422.5593650000001
 21
533.744685
  0
LINE
  8
_0-1_レイヤ___1
  6
CONTINUOUS
 62
    7
 10
1422.5593650000001
 20
533.744685
 11
1422.7712350000002
 21
533.744685
  0
LINE
  8
_0-1_レイヤ___1
  6
CONTINUOUS
 62
    7
 10
1422.7712350000002
 20
533.744685
 11
1422.983115
 21
533.744685
  0
LINE
  8
_0-1_レイヤ___1
  6
CONTINUOUS
 62
    7
 10
1422.983115
 20
533.744685
 11
1422.983115
 21
533.95828500000005
  0
LINE
  8
_0-1_レイヤ___1
  6
CONTINUOUS
 62
    7
 10
1422.983115
 20
533.95828500000005
 11
1422.983115
 21
534.16843500000004
  0
LINE
  8
_0-1_レイヤ___1
  6
CONTINUOUS
 62
    7
 10
1422.983115
 20
534.16843500000004
 11
1423.1932650000001
 21
534.16843500000004
  0
LINE
  8
_0-1_レイヤ___1
  6
CONTINUOUS
 62
    7
 10
1423.1932650000001
 20
534.16843500000004
 11
1423.4051350000002
 21
534.16843500000004
  0
LINE
  8
_0-1_レイヤ___1
  6
CONTINUOUS
 62
    7
 10
1423.4051350000002
 20
534.16843500000004
 11
1423.6170050000001
 21
534.37858499999993
  0
LINE
  8
_0-1_レイヤ___1
  6
CONTINUOUS
 62
    7
 10
1423.6170050000001
 20
534.37858499999993
 11
1423.8288850000001
 21
534.59218499999997
  0
LINE
  8
_0-1_レイヤ___1
  6
CONTINUOUS
 62
    7
 10
1423.8288850000001
 20
534.59218499999997
 11
1424.040755
 21
534.59218499999997
  0
LINE
  8
_0-1_レイヤ___1
  6
CONTINUOUS
 62
    7
 10
1424.040755
 20
534.59218499999997
 11
1424.2526250000001
 21
534.59218499999997
  0
LINE
  8
_0-1_レイヤ___1
  6
CONTINUOUS
 62
    7
 10
1424.2526250000001
 20
534.59218499999997
 11
1424.2526250000001
 21
534.80577500000004
  0
LINE
  8
_0-1_レイヤ___1
  6
CONTINUOUS
 62
    7
 10
1424.2526250000001
 20
534.80577500000004
 11
1424.2526250000001
 21
535.01593500000001
  0
LINE
  8
_0-1_レイヤ___1
  6
CONTINUOUS
 62
    7
 10
1424.2526250000001
 20
535.01593500000001
 11
1424.4645050000004
 21
535.01593500000001
  0
LINE
  8
_0-1_レイヤ___1
  6
CONTINUOUS
 62
    7
 10
1424.4645050000004
 20
535.01593500000001
 11
1424.6763750000002
 21
535.01593500000001
  0
LINE
  8
_0-1_レイヤ___1
  6
CONTINUOUS
 62
    7
 10
1424.6763750000002
 20
535.01593500000001
 11
1424.8882450000001
 21
535.22608500000001
  0
LINE
  8
_0-1_レイヤ___1
  6
CONTINUOUS
 62
    7
 10
1424.8882450000001
 20
535.22608500000001
 11
1425.0984050000002
 21
535.43967499999997
  0
LINE
  8
_0-1_レイヤ___1
  6
CONTINUOUS
 62
    7
 10
1425.0984050000002
 20
535.43967499999997
 11
1425.3102750000003
 21
535.43967499999997
  0
LINE
  8
_0-1_レイヤ___1
  6
CONTINUOUS
 62
    7
 10
1425.3102750000003
 20
535.43967499999997
 11
1425.5221450000001
 21
535.43967499999997
  0
LINE
  8
_0-1_レイヤ___1
  6
CONTINUOUS
 62
    7
 10
1425.5221450000001
 20
535.43967499999997
 11
1428.2747750000001
 21
537.34481500000004
  0
LINE
  8
_0-1_レイヤ___1
  6
CONTINUOUS
 62
    7
 10
1428.2747750000001
 20
537.34481500000004
 11
1431.0256850000001
 21
539.249955
  0
LINE
  8
_0-1_レイヤ___1
  6
CONTINUOUS
 62
    7
 10
1431.0256850000001
 20
539.249955
 11
1431.8714550000002
 21
539.88385500000004
  0
LINE
  8
_0-1_レイヤ___1
  6
CONTINUOUS
 62
    7
 10
1431.8714550000002
 20
539.88385500000004
 11
1432.7189550000003
 21
540.51774499999999
  0
LINE
  8
_0-1_レイヤ___1
  6
CONTINUOUS
 62
    7
 10
1432.7189550000003
 20
540.51774499999999
 11
1433.1426950000002
 21
541.15164500000003
  0
LINE
  8
_0-1_レイヤ___1
  6
CONTINUOUS
 62
    7
 10
1433.1426950000002
 20
541.15164500000003
 11
1433.5664450000002
 21
541.78898500000003
  0
LINE
  8
_0-1_レイヤ___1
  6
CONTINUOUS
 62
    7
 10
1433.5664450000002
 20
541.78898500000003
 11
1435.6817350000003
 21
544.32802500000003
  0
LINE
  8
_0-1_レイヤ___1
  6
CONTINUOUS
 62
    7
 10
1435.6817350000003
 20
544.32802500000003
 11
1437.7987450000001
 21
546.87050499999998
  0
LINE
  8
_0-1_レイヤ___1
  6
CONTINUOUS
 62
    7
 10
1437.7987450000001
 20
546.87050499999998
 11
1438.2224950000002
 21
547.71799499999997
  0
LINE
  8
_0-1_レイヤ___1
  6
CONTINUOUS
 62
    7
 10
1438.2224950000002
 20
547.71799499999997
 11
1438.6462350000002
 21
548.56204500000001
  0
LINE
  8
_0-1_レイヤ___1
  6
CONTINUOUS
 62
    7
 10
1438.6462350000002
 20
548.56204500000001
 11
1439.2818550000002
 21
549.40953500000001
  0
LINE
  8
_0-1_レイヤ___1
  6
CONTINUOUS
 62
    7
 10
1439.2818550000002
 20
549.40953500000001
 11
1439.915755
 21
550.25703499999997
  0
LINE
  8
_0-1_レイヤ___1
  6
CONTINUOUS
 62
    7
 10
1439.915755
 20
550.25703499999997
 11
1439.915755
 21
550.46718499999997
  0
LINE
  8
_0-1_レイヤ___1
  6
CONTINUOUS
 62
    7
 10
1439.915755
 20
550.46718499999997
 11
1439.915755
 21
550.67733500000008
  0
LINE
  8
_0-1_レイヤ___1
  6
CONTINUOUS
 62
    7
 10
1439.915755
 20
550.67733500000008
 11
1440.549655
 21
551.52482499999996
  0
LINE
  8
_0-1_レイヤ___1
  6
CONTINUOUS
 62
    7
 10
1440.549655
 20
551.52482499999996
 11
1441.1852750000003
 21
552.37232499999993
  0
LINE
  8
_0-1_レイヤ___1
  6
CONTINUOUS
 62
    7
 10
1441.1852750000003
 20
552.37232499999993
 11
1441.3971450000004
 21
553.21981500000004
  0
LINE
  8
_0-1_レイヤ___1
  6
CONTINUOUS
 62
    7
 10
1441.3971450000004
 20
553.21981500000004
 11
1441.6090250000002
 21
554.06730500000003
  0
LINE
  8
_0-1_レイヤ___1
  6
CONTINUOUS
 62
    7
 10
1441.6090250000002
 20
554.06730500000003
 11
1442.2446450000002
 21
555.97244499999999
  0
LINE
  8
_0-1_レイヤ___1
  6
CONTINUOUS
 62
    7
 10
1442.2446450000002
 20
555.97244499999999
 11
1442.8785350000001
 21
557.87413500000002
  0
LINE
  8
_0-1_レイヤ___1
  6
CONTINUOUS
 62
    7
 10
1442.8785350000001
 20
557.87413500000002
 11
1443.0904150000001
 21
558.72163499999999
  0
LINE
  8
_0-1_レイヤ___1
  6
CONTINUOUS
 62
    7
 10
1443.0904150000001
 20
558.72163499999999
 11
1443.302285
 21
559.56912499999999
  0
LINE
  8
_0-1_レイヤ___1
  6
CONTINUOUS
 62
    7
 10
1443.302285
 20
559.56912499999999
 11
1443.7260350000001
 21
562.11160499999994
  0
LINE
  8
_0-1_レイヤ___1
  6
CONTINUOUS
 62
    7
 10
1443.7260350000001
 20
562.11160499999994
 11
1444.1497750000003
 21
564.65064499999994
  0
LINE
  8
_0-1_レイヤ___1
  6
CONTINUOUS
 62
    7
 10
1444.1497750000003
 20
564.65064499999994
 11
1444.3599250000002
 21
565.494685
  0
LINE
  8
_0-1_レイヤ___1
  6
CONTINUOUS
 62
    7
 10
1444.3599250000002
 20
565.494685
 11
1444.5718050000003
 21
566.34218499999997
  0
LINE
  8
_0-1_レイヤ___1
  6
CONTINUOUS
 62
    7
 10
1444.5718050000003
 20
566.34218499999997
 11
1444.7836750000001
 21
567.39982499999996
  0
LINE
  8
_0-1_レイヤ___1
  6
CONTINUOUS
 62
    7
 10
1444.7836750000001
 20
567.39982499999996
 11
1444.9955450000002
 21
568.45747500000004
  0
LINE
  8
_0-1_レイヤ___1
  6
CONTINUOUS
 62
    7
 10
1444.9955450000002
 20
568.45747500000004
 11
1445.8413250000001
 21
580.73579500000005
  0
LINE
  8
_0-1_レイヤ___1
  6
CONTINUOUS
 62
    7
 10
1445.8413250000001
 20
580.73579500000005
 11
1446.6888150000002
 21
593.01066500000002
  0
LINE
  8
_0-1_レイヤ___1
  6
CONTINUOUS
 62
    7
 10
1342.5487450000003
 20
521.046065
 11
1342.5487450000003
 21
520.83247499999993
  0
LINE
  8
_0-1_レイヤ___1
  6
CONTINUOUS
 62
    7
 10
1342.5487450000003
 20
520.83247499999993
 11
1342.5487450000003
 21
520.62232500000005
  0
LINE
  8
_0-1_レイヤ___1
  6
CONTINUOUS
 62
    7
 10
1342.5487450000003
 20
521.046065
 11
1341.7029750000002
 21
521.046065
  0
LINE
  8
_0-1_レイヤ___1
  6
CONTINUOUS
 62
    7
 10
1341.7029750000002
 20
521.046065
 11
1340.855485
 21
521.046065
  0
LINE
  8
_0-1_レイヤ___1
  6
CONTINUOUS
 62
    7
 10
1340.855485
 20
521.046065
 11
1299.7933850000002
 21
521.046065
  0
LINE
  8
_0-1_レイヤ___1
  6
CONTINUOUS
 62
    7
 10
1299.7933850000002
 20
521.046065
 11
1258.7295750000001
 21
521.046065
  0
LINE
  8
_0-1_レイヤ___1
  6
CONTINUOUS
 62
    7
 10
1258.7295750000001
 20
521.046065
 11
1257.8838050000002
 21
521.046065
  0
LINE
  8
_0-1_レイヤ___1
  6
CONTINUOUS
 62
    7
 10
1257.8838050000002
 20
521.046065
 11
1257.0363050000001
 21
521.046065
  0
LINE
  8
_0-1_レイヤ___1
  6
CONTINUOUS
 62
    7
 10
1257.0363050000001
 20
521.046065
 11
1256.8244350000002
 21
521.046065
  0
LINE
  8
_0-1_レイヤ___1
  6
CONTINUOUS
 62
    7
 10
1256.8244350000002
 20
521.046065
 11
1256.6125650000001
 21
521.046065
  0
LINE
  8
_0-1_レイヤ___1
  6
CONTINUOUS
 62
    7
 10
1256.6125650000001
 20
521.046065
 11
1256.6125650000001
 21
521.25966499999993
  0
LINE
  8
_0-1_レイヤ___1
  6
CONTINUOUS
 62
    7
 10
1256.6125650000001
 20
521.25966499999993
 11
1256.6125650000001
 21
521.46981500000004
  0
LINE
  8
_0-1_レイヤ___1
  6
CONTINUOUS
 62
    7
 10
1256.6125650000001
 20
521.46981500000004
 11
1256.4006850000001
 21
521.46981500000004
  0
LINE
  8
_0-1_レイヤ___1
  6
CONTINUOUS
 62
    7
 10
1256.4006850000001
 20
521.46981500000004
 11
1256.1888150000002
 21
521.46981500000004
  0
LINE
  8
_0-1_レイヤ___1
  6
CONTINUOUS
 62
    7
 10
1256.1888150000002
 20
521.46981500000004
 11
1255.9769450000001
 21
521.46981500000004
  0
LINE
  8
_0-1_レイヤ___1
  6
CONTINUOUS
 62
    7
 10
1255.9769450000001
 20
521.46981500000004
 11
1255.7650650000003
 21
521.46981500000004
  0
LINE
  8
_0-1_レイヤ___1
  6
CONTINUOUS
 62
    7
 10
1255.7650650000003
 20
521.46981500000004
 11
1255.7650650000003
 21
521.67996500000004
  0
LINE
  8
_0-1_レイヤ___1
  6
CONTINUOUS
 62
    7
 10
1255.7650650000003
 20
521.67996500000004
 11
1255.7650650000003
 21
521.89356500000008
  0
LINE
  8
_0-1_レイヤ___1
  6
CONTINUOUS
 62
    7
 10
1255.7650650000003
 20
521.89356500000008
 11
1255.5549150000002
 21
521.89356500000008
  0
LINE
  8
_0-1_レイヤ___1
  6
CONTINUOUS
 62
    7
 10
1255.5549150000002
 20
521.89356500000008
 11
1255.3430450000001
 21
521.89356500000008
  0
LINE
  8
_0-1_レイヤ___1
  6
CONTINUOUS
 62
    7
 10
1255.3430450000001
 20
521.89356500000008
 11
1255.131165
 21
521.89356500000008
  0
LINE
  8
_0-1_レイヤ___1
  6
CONTINUOUS
 62
    7
 10
1255.131165
 20
521.89356500000008
 11
1254.9192950000001
 21
521.89356500000008
  0
LINE
  8
_0-1_レイヤ___1
  6
CONTINUOUS
 62
    7
 10
1254.9192950000001
 20
521.89356500000008
 11
1254.9192950000001
 21
522.10715500000003
  0
LINE
  8
_0-1_レイヤ___1
  6
CONTINUOUS
 62
    7
 10
1254.9192950000001
 20
522.10715500000003
 11
1254.9192950000001
 21
522.31730500000003
  0
LINE
  8
_0-1_レイヤ___1
  6
CONTINUOUS
 62
    7
 10
1254.9192950000001
 20
522.31730500000003
 11
1254.7074250000001
 21
522.31730500000003
  0
LINE
  8
_0-1_レイヤ___1
  6
CONTINUOUS
 62
    7
 10
1254.7074250000001
 20
522.31730500000003
 11
1254.4955450000002
 21
522.31730500000003
  0
LINE
  8
_0-1_レイヤ___1
  6
CONTINUOUS
 62
    7
 10
1254.4955450000002
 20
522.31730500000003
 11
1254.2836750000001
 21
522.31730500000003
  0
LINE
  8
_0-1_レイヤ___1
  6
CONTINUOUS
 62
    7
 10
1254.2836750000001
 20
522.31730500000003
 11
1254.071805
 21
522.31730500000003
  0
LINE
  8
_0-1_レイヤ___1
  6
CONTINUOUS
 62
    7
 10
1254.071805
 20
522.31730500000003
 11
1254.071805
 21
522.52745499999992
  0
LINE
  8
_0-1_レイヤ___1
  6
CONTINUOUS
 62
    7
 10
1254.071805
 20
522.52745499999992
 11
1254.071805
 21
522.73760500000003
  0
LINE
  8
_0-1_レイヤ___1
  6
CONTINUOUS
 62
    7
 10
1254.071805
 20
522.73760500000003
 11
1251.3208950000003
 21
524.42915500000004
  0
LINE
  8
_0-1_レイヤ___1
  6
CONTINUOUS
 62
    7
 10
1251.3208950000003
 20
524.42915500000004
 11
1248.5682650000001
 21
526.12413500000002
  0
LINE
  8
_0-1_レイヤ___1
  6
CONTINUOUS
 62
    7
 10
1248.5682650000001
 20
526.12413500000002
 11
1247.720765
 21
526.54788500000006
  0
LINE
  8
_0-1_レイヤ___1
  6
CONTINUOUS
 62
    7
 10
1247.720765
 20
526.54788500000006
 11
1246.8749950000001
 21
526.97163499999999
  0
LINE
  8
_0-1_レイヤ___1
  6
CONTINUOUS
 62
    7
 10
1246.8749950000001
 20
526.97163499999999
 11
1245.8173550000001
 21
527.18522499999995
  0
LINE
  8
_0-1_レイヤ___1
  6
CONTINUOUS
 62
    7
 10
1245.8173550000001
 20
527.18522499999995
 11
1244.7597050000002
 21
527.39537499999994
  0
LINE
  8
_0-1_レイヤ___1
  6
CONTINUOUS
 62
    7
 10
1244.7597050000002
 20
527.39537499999994
 11
1241.5850550000002
 21
528.03272500000003
  0
LINE
  8
_0-1_レイヤ___1
  6
CONTINUOUS
 62
    7
 10
1241.5850550000002
 20
528.03272500000003
 11
1238.4086750000001
 21
528.66661499999998
  0
LINE
  8
_0-1_レイヤ___1
  6
CONTINUOUS
 62
    7
 10
1238.4086750000001
 20
528.66661499999998
 11
1237.561185
 21
528.88021500000002
  0
LINE
  8
_0-1_レイヤ___1
  6
CONTINUOUS
 62
    7
 10
1237.561185
 20
528.88021500000002
 11
1236.7154150000001
 21
529.09036500000002
  0
LINE
  8
_0-1_レイヤ___1
  6
CONTINUOUS
 62
    7
 10
1236.7154150000001
 20
529.09036500000002
 11
1235.6560450000002
 21
529.09036500000002
  0
LINE
  8
_0-1_レイヤ___1
  6
CONTINUOUS
 62
    7
 10
1235.6560450000002
 20
529.09036500000002
 11
1234.5984050000002
 21
529.09036500000002
  0
LINE
  8
_0-1_レイヤ___1
  6
CONTINUOUS
 62
    7
 10
1234.5984050000002
 20
529.09036500000002
 11
968.74554500000022
 21
535.43967499999997
  0
LINE
  8
_0-1_レイヤ___1
  6
CONTINUOUS
 62
    7
 10
968.74554500000022
 20
535.43967499999997
 11
702.89269500000023
 21
541.78898500000003
  0
LINE
  8
_0-1_レイヤ___1
  6
CONTINUOUS
 62
    7
 10
702.89269500000023
 20
541.78898500000003
 11
701.83505500000012
 21
541.78898500000003
  0
LINE
  8
_0-1_レイヤ___1
  6
CONTINUOUS
 62
    7
 10
701.83505500000012
 20
541.78898500000003
 11
700.77568500000007
 21
541.78898500000003
  0
LINE
  8
_0-1_レイヤ___1
  6
CONTINUOUS
 62
    7
 10
602.98492500000009
 20
677.67733499999986
 11
602.98492500000009
 21
710.27482500000008
  0
LINE
  8
_0-1_レイヤ___1
  6
CONTINUOUS
 62
    7
 10
602.98492500000009
 20
710.27482500000008
 11
602.98492500000009
 21
742.87232500000005
  0
LINE
  8
_0-1_レイヤ___1
  6
CONTINUOUS
 62
    7
 10
602.98492500000009
 20
742.87232500000005
 11
603.19680500000015
 21
744.77745499999992
  0
LINE
  8
_0-1_レイヤ___1
  6
CONTINUOUS
 62
    7
 10
603.19680500000015
 20
744.77745499999992
 11
603.40867500000013
 21
746.68259499999999
  0
LINE
  8
_0-1_レイヤ___1
  6
CONTINUOUS
 62
    7
 10
603.40867500000013
 20
746.68259499999999
 11
603.83242500000028
 21
748.58773499999995
  0
LINE
  8
_0-1_レイヤ___1
  6
CONTINUOUS
 62
    7
 10
603.83242500000028
 20
748.58773499999995
 11
604.25616500000024
 21
750.49287500000003
  0
LINE
  8
_0-1_レイヤ___1
  6
CONTINUOUS
 62
    7
 10
604.25616500000024
 20
750.49287500000003
 11
605.31381500000009
 21
752.18441499999994
  0
LINE
  8
_0-1_レイヤ___1
  6
CONTINUOUS
 62
    7
 10
605.31381500000009
 20
752.18441499999994
 11
606.3714550000002
 21
753.87940500000002
  0
LINE
  8
_0-1_レイヤ___1
  6
CONTINUOUS
 62
    7
 10
606.3714550000002
 20
753.87940500000002
 11
607.64269500000012
 21
755.36079500000005
  0
LINE
  8
_0-1_レイヤ___1
  6
CONTINUOUS
 62
    7
 10
607.64269500000012
 20
755.36079500000005
 11
608.91221500000017
 21
756.84218499999997
  0
LINE
  8
_0-1_レイヤ___1
  6
CONTINUOUS
 62
    7
 10
608.91221500000017
 20
756.84218499999997
 11
610.39360500000021
 21
758.10997499999996
  0
LINE
  8
_0-1_レイヤ___1
  6
CONTINUOUS
 62
    7
 10
610.39360500000021
 20
758.10997499999996
 11
611.87499500000013
 21
759.38121499999988
  0
LINE
  8
_0-1_レイヤ___1
  6
CONTINUOUS
 62
    7
 10
611.87499500000013
 20
759.38121499999988
 11
613.56826500000011
 21
760.43886499999996
  0
LINE
  8
_0-1_レイヤ___1
  6
CONTINUOUS
 62
    7
 10
613.56826500000011
 20
760.43886499999996
 11
615.26152500000023
 21
761.499955
  0
LINE
  8
_0-1_レイヤ___1
  6
CONTINUOUS
 62
    7
 10
615.26152500000023
 20
761.499955
 11
617.16666500000019
 21
761.920255
  0
LINE
  8
_0-1_レイヤ___1
  6
CONTINUOUS
 62
    7
 10
617.16666500000019
 20
761.920255
 11
619.07180500000004
 21
762.34400500000004
  0
LINE
  8
_0-1_レイヤ___1
  6
CONTINUOUS
 62
    7
 10
619.07180500000004
 20
762.34400500000004
 11
620.97694500000011
 21
762.55415500000004
  0
LINE
  8
_0-1_レイヤ___1
  6
CONTINUOUS
 62
    7
 10
620.97694500000011
 20
762.55415500000004
 11
622.8820750000001
 21
762.76774499999999
  0
LINE
  8
_0-1_レイヤ___1
  6
CONTINUOUS
 62
    7
 10
622.8820750000001
 20
762.76774499999999
 11
838.3590250000002
 21
762.76774499999999
  0
LINE
  8
_0-1_レイヤ___1
  6
CONTINUOUS
 62
    7
 10
838.3590250000002
 20
762.76774499999999
 11
1053.8359650000002
 21
762.76774499999999
  0
LINE
  8
_0-1_レイヤ___1
  6
CONTINUOUS
 62
    7
 10
1053.8359650000002
 20
762.76774499999999
 11
1269.311185
 21
762.76774499999999
  0
LINE
  8
_0-1_レイヤ___1
  6
CONTINUOUS
 62
    7
 10
1269.311185
 20
762.76774499999999
 11
1484.788125
 21
762.76774499999999
  0
LINE
  8
_0-1_レイヤ___1
  6
CONTINUOUS
 62
    7
 10
1484.788125
 20
762.76774499999999
 11
1486.6932650000001
 21
762.55415500000004
  0
LINE
  8
_0-1_レイヤ___1
  6
CONTINUOUS
 62
    7
 10
1486.6932650000001
 20
762.55415500000004
 11
1488.5984050000002
 21
762.34400500000004
  0
LINE
  8
_0-1_レイヤ___1
  6
CONTINUOUS
 62
    7
 10
1488.5984050000002
 20
762.34400500000004
 11
1490.5035350000003
 21
761.920255
  0
LINE
  8
_0-1_レイヤ___1
  6
CONTINUOUS
 62
    7
 10
1490.5035350000003
 20
761.920255
 11
1492.4086750000001
 21
761.499955
  0
LINE
  8
_0-1_レイヤ___1
  6
CONTINUOUS
 62
    7
 10
1492.4086750000001
 20
761.499955
 11
1494.1019450000001
 21
760.43886499999996
  0
LINE
  8
_0-1_レイヤ___1
  6
CONTINUOUS
 62
    7
 10
1494.1019450000001
 20
760.43886499999996
 11
1495.7952050000004
 21
759.38121499999988
  0
LINE
  8
_0-1_レイヤ___1
  6
CONTINUOUS
 62
    7
 10
1495.7952050000004
 20
759.38121499999988
 11
1497.4884650000001
 21
758.10997499999996
  0
LINE
  8
_0-1_レイヤ___1
  6
CONTINUOUS
 62
    7
 10
1497.4884650000001
 20
758.10997499999996
 11
1499.1817350000001
 21
756.84218499999997
  0
LINE
  8
_0-1_レイヤ___1
  6
CONTINUOUS
 62
    7
 10
1499.1817350000001
 20
756.84218499999997
 11
1500.4529750000002
 21
755.36079500000005
  0
LINE
  8
_0-1_レイヤ___1
  6
CONTINUOUS
 62
    7
 10
1500.4529750000002
 20
755.36079500000005
 11
1501.7224950000002
 21
753.87940500000002
  0
LINE
  8
_0-1_レイヤ___1
  6
CONTINUOUS
 62
    7
 10
1501.7224950000002
 20
753.87940500000002
 11
1502.5682650000001
 21
752.18441499999994
  0
LINE
  8
_0-1_レイヤ___1
  6
CONTINUOUS
 62
    7
 10
1502.5682650000001
 20
752.18441499999994
 11
1503.415755
 21
750.49287500000003
  0
LINE
  8
_0-1_レイヤ___1
  6
CONTINUOUS
 62
    7
 10
1503.415755
 20
750.49287500000003
 11
1504.049655
 21
748.58773499999995
  0
LINE
  8
_0-1_レイヤ___1
  6
CONTINUOUS
 62
    7
 10
1504.049655
 20
748.58773499999995
 11
1504.6852750000003
 21
746.68259499999999
  0
LINE
  8
_0-1_レイヤ___1
  6
CONTINUOUS
 62
    7
 10
1504.6852750000003
 20
746.68259499999999
 11
1504.6852750000003
 21
744.77745499999992
  0
LINE
  8
_0-1_レイヤ___1
  6
CONTINUOUS
 62
    7
 10
1504.6852750000003
 20
744.77745499999992
 11
1504.6852750000003
 21
742.87232500000005
  0
LINE
  8
_0-1_レイヤ___1
  6
CONTINUOUS
 62
    7
 10
1504.6852750000003
 20
742.87232500000005
 11
1504.6852750000003
 21
710.27482500000008
  0
LINE
  8
_0-1_レイヤ___1
  6
CONTINUOUS
 62
    7
 10
1504.6852750000003
 20
710.27482500000008
 11
1504.6852750000003
 21
677.67733499999986
  0
LINE
  8
_0-1_レイヤ___1
  6
CONTINUOUS
 62
    7
 10
1504.6852750000003
 20
677.67733499999986
 11
1504.6852750000003
 21
645.29343500000004
  0
LINE
  8
_0-1_レイヤ___1
  6
CONTINUOUS
 62
    7
 10
1504.6852750000003
 20
645.29343500000004
 11
1504.6852750000003
 21
612.90953500000001
  0
LINE
  8
_0-1_レイヤ___1
  6
CONTINUOUS
 62
    7
 10
1504.6852750000003
 20
612.90953500000001
 11
1504.6852750000003
 21
611.00440500000002
  0
LINE
  8
_0-1_レイヤ___1
  6
CONTINUOUS
 62
    7
 10
1504.6852750000003
 20
611.00440500000002
 11
1504.6852750000003
 21
609.09926499999995
  0
LINE
  8
_0-1_レイヤ___1
  6
CONTINUOUS
 62
    7
 10
1504.6852750000003
 20
609.09926499999995
 11
1504.049655
 21
607.19412499999999
  0
LINE
  8
_0-1_レイヤ___1
  6
CONTINUOUS
 62
    7
 10
1504.049655
 20
607.19412499999999
 11
1503.415755
 21
605.28898499999991
  0
LINE
  8
_0-1_レイヤ___1
  6
CONTINUOUS
 62
    7
 10
1503.415755
 20
605.28898499999991
 11
1502.5682650000001
 21
603.59744499999999
  0
LINE
  8
_0-1_レイヤ___1
  6
CONTINUOUS
 62
    7
 10
1502.5682650000001
 20
603.59744499999999
 11
1501.7224950000002
 21
601.90245499999992
  0
LINE
  8
_0-1_レイヤ___1
  6
CONTINUOUS
 62
    7
 10
1501.7224950000002
 20
601.90245499999992
 11
1500.4529750000002
 21
600.20747499999993
  0
LINE
  8
_0-1_レイヤ___1
  6
CONTINUOUS
 62
    7
 10
1500.4529750000002
 20
600.20747499999993
 11
1499.1817350000001
 21
598.51593500000001
  0
LINE
  8
_0-1_レイヤ___1
  6
CONTINUOUS
 62
    7
 10
1499.1817350000001
 20
598.51593500000001
 11
1497.4884650000001
 21
597.45828500000005
  0
LINE
  8
_0-1_レイヤ___1
  6
CONTINUOUS
 62
    7
 10
1497.4884650000001
 20
597.45828500000005
 11
1495.7952050000004
 21
596.40064500000005
  0
LINE
  8
_0-1_レイヤ___1
  6
CONTINUOUS
 62
    7
 10
1495.7952050000004
 20
596.40064500000005
 11
1494.1019450000001
 21
595.34299499999997
  0
LINE
  8
_0-1_レイヤ___1
  6
CONTINUOUS
 62
    7
 10
1494.1019450000001
 20
595.34299499999997
 11
1492.4086750000001
 21
594.28190500000005
  0
LINE
  8
_0-1_レイヤ___1
  6
CONTINUOUS
 62
    7
 10
1492.4086750000001
 20
594.28190500000005
 11
1490.5035350000003
 21
593.85816499999999
  0
LINE
  8
_0-1_レイヤ___1
  6
CONTINUOUS
 62
    7
 10
1490.5035350000003
 20
593.85816499999999
 11
1488.5984050000002
 21
593.43441499999994
  0
LINE
  8
_0-1_レイヤ___1
  6
CONTINUOUS
 62
    7
 10
1488.5984050000002
 20
593.43441499999994
 11
1486.6932650000001
 21
593.22081500000002
  0
LINE
  8
_0-1_レイヤ___1
  6
CONTINUOUS
 62
    7
 10
1486.6932650000001
 20
593.22081500000002
 11
1484.788125
 21
593.01066500000002
  0
LINE
  8
_0-1_レイヤ___1
  6
CONTINUOUS
 62
    7
 10
1484.788125
 20
593.01066500000002
 11
1269.311185
 21
593.01066500000002
  0
LINE
  8
_0-1_レイヤ___1
  6
CONTINUOUS
 62
    7
 10
1269.311185
 20
593.01066500000002
 11
1053.8359650000002
 21
593.01066500000002
  0
LINE
  8
_0-1_レイヤ___1
  6
CONTINUOUS
 62
    7
 10
1053.8359650000002
 20
593.01066500000002
 11
838.3590250000002
 21
593.01066500000002
  0
LINE
  8
_0-1_レイヤ___1
  6
CONTINUOUS
 62
    7
 10
838.3590250000002
 20
593.01066500000002
 11
622.8820750000001
 21
593.01066500000002
  0
LINE
  8
_0-1_レイヤ___1
  6
CONTINUOUS
 62
    7
 10
622.8820750000001
 20
593.01066500000002
 11
620.97694500000011
 21
593.22081500000002
  0
LINE
  8
_0-1_レイヤ___1
  6
CONTINUOUS
 62
    7
 10
620.97694500000011
 20
593.22081500000002
 11
619.07180500000004
 21
593.43441499999994
  0
LINE
  8
_0-1_レイヤ___1
  6
CONTINUOUS
 62
    7
 10
619.07180500000004
 20
593.43441499999994
 11
617.16666500000019
 21
593.85816499999999
  0
LINE
  8
_0-1_レイヤ___1
  6
CONTINUOUS
 62
    7
 10
617.16666500000019
 20
593.85816499999999
 11
615.26152500000023
 21
594.28190500000005
  0
LINE
  8
_0-1_レイヤ___1
  6
CONTINUOUS
 62
    7
 10
615.26152500000023
 20
594.28190500000005
 11
613.56826500000011
 21
595.34299499999997
  0
LINE
  8
_0-1_レイヤ___1
  6
CONTINUOUS
 62
    7
 10
613.56826500000011
 20
595.34299499999997
 11
611.87499500000013
 21
596.40064500000005
  0
LINE
  8
_0-1_レイヤ___1
  6
CONTINUOUS
 62
    7
 10
611.87499500000013
 20
596.40064500000005
 11
610.39360500000021
 21
597.45828500000005
  0
LINE
  8
_0-1_レイヤ___1
  6
CONTINUOUS
 62
    7
 10
610.39360500000021
 20
597.45828500000005
 11
608.91221500000017
 21
598.51593500000001
  0
LINE
  8
_0-1_レイヤ___1
  6
CONTINUOUS
 62
    7
 10
608.91221500000017
 20
598.51593500000001
 11
607.64269500000012
 21
600.20747499999993
  0
LINE
  8
_0-1_レイヤ___1
  6
CONTINUOUS
 62
    7
 10
607.64269500000012
 20
600.20747499999993
 11
606.3714550000002
 21
601.90245499999992
  0
LINE
  8
_0-1_レイヤ___1
  6
CONTINUOUS
 62
    7
 10
606.3714550000002
 20
601.90245499999992
 11
605.31381500000009
 21
603.59744499999999
  0
LINE
  8
_0-1_レイヤ___1
  6
CONTINUOUS
 62
    7
 10
605.31381500000009
 20
603.59744499999999
 11
604.25616500000024
 21
605.28898499999991
  0
LINE
  8
_0-1_レイヤ___1
  6
CONTINUOUS
 62
    7
 10
604.25616500000024
 20
605.28898499999991
 11
603.83242500000028
 21
607.19412499999999
  0
LINE
  8
_0-1_レイヤ___1
  6
CONTINUOUS
 62
    7
 10
603.83242500000028
 20
607.19412499999999
 11
603.40867500000013
 21
609.09926499999995
  0
LINE
  8
_0-1_レイヤ___1
  6
CONTINUOUS
 62
    7
 10
603.40867500000013
 20
609.09926499999995
 11
603.19680500000015
 21
611.00440500000002
  0
LINE
  8
_0-1_レイヤ___1
  6
CONTINUOUS
 62
    7
 10
603.19680500000015
 20
611.00440500000002
 11
602.98492500000009
 21
612.90953500000001
  0
LINE
  8
_0-1_レイヤ___1
  6
CONTINUOUS
 62
    7
 10
602.98492500000009
 20
612.90953500000001
 11
602.98492500000009
 21
645.29343500000004
  0
LINE
  8
_0-1_レイヤ___1
  6
CONTINUOUS
 62
    7
 10
602.98492500000009
 20
645.29343500000004
 11
602.98492500000009
 21
677.67733499999986
  0
LINE
  8
_0-1_レイヤ___1
  6
CONTINUOUS
 62
    7
 10
2367.8625649999999
 20
334.35634499999992
 11
2367.8625649999999
 21
350.23134499999998
  0
LINE
  8
_0-1_レイヤ___1
  6
CONTINUOUS
 62
    7
 10
2367.8625649999999
 20
350.23134499999998
 11
2367.8625649999999
 21
366.10634500000003
  0
LINE
  8
_0-1_レイヤ___1
  6
CONTINUOUS
 62
    7
 10
2367.8625649999999
 20
376.68967500000008
 11
2367.8625649999999
 21
378.3846650000001
  0
LINE
  8
_0-1_レイヤ___1
  6
CONTINUOUS
 62
    7
 10
2367.8625649999999
 20
378.3846650000001
 11
2367.8625649999999
 21
380.07620500000002
  0
LINE
  8
_0-1_レイヤ___1
  6
CONTINUOUS
 62
    7
 10
2367.8625649999999
 20
387.2730150000001
 11
2367.8625649999999
 21
403.14801499999999
  0
LINE
  8
_0-1_レイヤ___1
  6
CONTINUOUS
 62
    7
 10
2367.8625649999999
 20
403.14801499999999
 11
2367.8625649999999
 21
419.02301499999999
  0
LINE
  8
_0-1_レイヤ___1
  6
CONTINUOUS
 62
    7
 10
2367.8625649999999
 20
429.60634499999998
 11
2367.8625649999999
 21
431.30133499999999
  0
LINE
  8
_0-1_レイヤ___1
  6
CONTINUOUS
 62
    7
 10
2367.8625649999999
 20
431.30133499999999
 11
2367.8625649999999
 21
432.99287499999997
  0
LINE
  8
_0-1_レイヤ___1
  6
CONTINUOUS
 62
    7
 10
2367.8625649999999
 20
440.18967500000002
 11
2367.8625649999999
 21
456.06467500000002
  0
LINE
  8
_0-1_レイヤ___1
  6
CONTINUOUS
 62
    7
 10
2367.8625649999999
 20
456.06467500000002
 11
2367.8625649999999
 21
471.93967499999997
  0
LINE
  8
_0-1_レイヤ___1
  6
CONTINUOUS
 62
    7
 10
2367.8625649999999
 20
482.52301499999999
 11
2367.8625649999999
 21
484.21799499999997
  0
LINE
  8
_0-1_レイヤ___1
  6
CONTINUOUS
 62
    7
 10
2367.8625649999999
 20
484.21799499999997
 11
2367.8625649999999
 21
485.90953500000001
  0
LINE
  8
_0-1_レイヤ___1
  6
CONTINUOUS
 62
    7
 10
2367.8625649999999
 20
493.10634499999998
 11
2367.8625649999999
 21
508.98134499999998
  0
LINE
  8
_0-1_レイヤ___1
  6
CONTINUOUS
 62
    7
 10
2367.8625649999999
 20
508.98134499999998
 11
2367.8625649999999
 21
524.85634499999992
  0
LINE
  8
_0-1_レイヤ___1
  6
CONTINUOUS
 62
    7
 10
2367.8625649999999
 20
535.43967499999997
 11
2367.8625649999999
 21
537.13466500000004
  0
LINE
  8
_0-1_レイヤ___1
  6
CONTINUOUS
 62
    7
 10
2367.8625649999999
 20
537.13466500000004
 11
2367.8625649999999
 21
538.82620500000007
  0
LINE
  8
_0-1_レイヤ___1
  6
CONTINUOUS
 62
    7
 10
2367.8625649999999
 20
546.02301499999999
 11
2367.8625649999999
 21
561.89801499999999
  0
LINE
  8
_0-1_レイヤ___1
  6
CONTINUOUS
 62
    7
 10
2367.8625649999999
 20
561.89801499999999
 11
2367.8625649999999
 21
577.77301499999999
  0
LINE
  8
_0-1_レイヤ___1
  6
CONTINUOUS
 62
    7
 10
2367.8625649999999
 20
583.27482499999996
 11
2367.8625649999999
 21
583.69857500000001
  0
LINE
  8
_0-1_レイヤ___1
  6
CONTINUOUS
 62
    7
 10
2367.8625649999999
 20
583.69857500000001
 11
2367.8625649999999
 21
584.12232500000005
  0
LINE
  8
_0-1_レイヤ___1
  6
CONTINUOUS
 62
    7
 10
2006.7579850000002
 20
762.76774499999999
 11
2006.5478350000001
 21
762.76774499999999
  0
LINE
  8
_0-1_レイヤ___1
  6
CONTINUOUS
 62
    7
 10
2006.5478350000001
 20
762.76774499999999
 11
2006.3342450000002
 21
762.76774499999999
  0
LINE
  8
_0-1_レイヤ___1
  6
CONTINUOUS
 62
    7
 10
2006.3342450000002
 20
762.76774499999999
 11
2006.1240850000002
 21
762.76774499999999
  0
LINE
  8
_0-1_レイヤ___1
  6
CONTINUOUS
 62
    7
 10
2006.1240850000002
 20
762.76774499999999
 11
2005.913935
 21
762.76774499999999
  0
LINE
  8
_0-1_レイヤ___1
  6
CONTINUOUS
 62
    7
 10
2005.913935
 20
762.76774499999999
 11
2005.7003450000002
 21
762.76774499999999
  0
LINE
  8
_0-1_レイヤ___1
  6
CONTINUOUS
 62
    7
 10
2005.7003450000002
 20
762.76774499999999
 11
2005.4901950000001
 21
762.76774499999999
  0
LINE
  8
_0-1_レイヤ___1
  6
CONTINUOUS
 62
    7
 10
2005.4901950000001
 20
762.76774499999999
 11
2005.280045
 21
762.76774499999999
  0
LINE
  8
_0-1_レイヤ___1
  6
CONTINUOUS
 62
    7
 10
2005.280045
 20
762.76774499999999
 11
2005.0664450000002
 21
762.76774499999999
  0
LINE
  8
_0-1_レイヤ___1
  6
CONTINUOUS
 62
    7
 10
2005.0664450000002
 20
762.76774499999999
 11
2004.8528450000001
 21
762.76774499999999
  0
LINE
  8
_0-1_レイヤ___1
  6
CONTINUOUS
 62
    7
 10
2004.8528450000001
 20
762.76774499999999
 11
2004.6426950000002
 21
762.76774499999999
  0
LINE
  8
_0-1_レイヤ___1
  6
CONTINUOUS
 62
    7
 10
2004.6426950000002
 20
762.76774499999999
 11
2004.4325450000001
 21
762.76774499999999
  0
LINE
  8
_0-1_レイヤ___1
  6
CONTINUOUS
 62
    7
 10
2004.4325450000001
 20
762.76774499999999
 11
2004.2189550000001
 21
762.76774499999999
  0
LINE
  8
_0-1_レイヤ___1
  6
CONTINUOUS
 62
    7
 10
2004.2189550000001
 20
762.76774499999999
 11
2004.0053550000002
 21
762.76774499999999
  0
LINE
  8
_0-1_レイヤ___1
  6
CONTINUOUS
 62
    7
 10
2004.0053550000002
 20
762.76774499999999
 11
2003.7952050000001
 21
762.76774499999999
  0
LINE
  8
_0-1_レイヤ___1
  6
CONTINUOUS
 62
    7
 10
2003.7952050000001
 20
762.76774499999999
 11
2003.7952050000001
 21
762.55415500000004
  0
LINE
  8
_0-1_レイヤ___1
  6
CONTINUOUS
 62
    7
 10
2003.7952050000001
 20
762.55415500000004
 11
2003.7952050000001
 21
762.34400500000004
  0
LINE
  8
_0-1_レイヤ___1
  6
CONTINUOUS
 62
    7
 10
2003.7952050000001
 20
762.34400500000004
 11
2003.585055
 21
762.34400500000004
  0
LINE
  8
_0-1_レイヤ___1
  6
CONTINUOUS
 62
    7
 10
2003.585055
 20
762.34400500000004
 11
2003.3714550000002
 21
762.34400500000004
  0
LINE
  8
_0-1_レイヤ___1
  6
CONTINUOUS
 62
    7
 10
2003.3714550000002
 20
762.34400500000004
 11
2003.1578650000001
 21
762.34400500000004
  0
LINE
  8
_0-1_レイヤ___1
  6
CONTINUOUS
 62
    7
 10
2003.1578650000001
 20
762.34400500000004
 11
2002.9477150000002
 21
762.34400500000004
  0
LINE
  8
_0-1_レイヤ___1
  6
CONTINUOUS
 62
    7
 10
2002.9477150000002
 20
762.34400500000004
 11
2002.7375650000001
 21
762.34400500000004
  0
LINE
  8
_0-1_レイヤ___1
  6
CONTINUOUS
 62
    7
 10
2002.7375650000001
 20
762.34400500000004
 11
2002.5239650000001
 21
762.34400500000004
  0
LINE
  8
_0-1_レイヤ___1
  6
CONTINUOUS
 62
    7
 10
2002.5239650000001
 20
762.34400500000004
 11
2002.3138150000002
 21
762.34400500000004
  0
LINE
  8
_0-1_レイヤ___1
  6
CONTINUOUS
 62
    7
 10
2002.3138150000002
 20
762.34400500000004
 11
2002.1036650000001
 21
762.34400500000004
  0
LINE
  8
_0-1_レイヤ___1
  6
CONTINUOUS
 62
    7
 10
2002.1036650000001
 20
762.34400500000004
 11
2002.1036650000001
 21
762.13385500000004
  0
LINE
  8
_0-1_レイヤ___1
  6
CONTINUOUS
 62
    7
 10
2002.1036650000001
 20
762.13385500000004
 11
2002.1036650000001
 21
761.92369499999995
  0
LINE
  8
_0-1_レイヤ___1
  6
CONTINUOUS
 62
    7
 10
2002.1036650000001
 20
761.92369499999995
 11
2001.890065
 21
761.92369499999995
  0
LINE
  8
_0-1_レイヤ___1
  6
CONTINUOUS
 62
    7
 10
2001.890065
 20
761.92369499999995
 11
2001.6799150000002
 21
761.92369499999995
  0
LINE
  8
_0-1_レイヤ___1
  6
CONTINUOUS
 62
    7
 10
2001.6799150000002
 20
761.92369499999995
 11
2001.4697650000003
 21
761.92369499999995
  0
LINE
  8
_0-1_レイヤ___1
  6
CONTINUOUS
 62
    7
 10
2001.4697650000003
 20
761.92369499999995
 11
2001.256165
 21
761.92369499999995
  0
LINE
  8
_0-1_レイヤ___1
  6
CONTINUOUS
 62
    7
 10
2001.256165
 20
761.92369499999995
 11
2001.0425750000002
 21
761.92369499999995
  0
LINE
  8
_0-1_レイヤ___1
  6
CONTINUOUS
 62
    7
 10
2001.0425750000002
 20
761.92369499999995
 11
2000.8324250000001
 21
761.92369499999995
  0
LINE
  8
_0-1_レイヤ___1
  6
CONTINUOUS
 62
    7
 10
2000.8324250000001
 20
761.92369499999995
 11
2000.8324250000001
 21
761.71354499999995
  0
LINE
  8
_0-1_レイヤ___1
  6
CONTINUOUS
 62
    7
 10
2000.8324250000001
 20
761.71354499999995
 11
2000.8324250000001
 21
761.499955
  0
LINE
  8
_0-1_レイヤ___1
  6
CONTINUOUS
 62
    7
 10
2000.8324250000001
 20
761.499955
 11
2000.6222750000002
 21
761.499955
  0
LINE
  8
_0-1_レイヤ___1
  6
CONTINUOUS
 62
    7
 10
2000.6222750000002
 20
761.499955
 11
2000.4086750000001
 21
761.499955
  0
LINE
  8
_0-1_レイヤ___1
  6
CONTINUOUS
 62
    7
 10
2000.4086750000001
 20
761.499955
 11
2000.1950850000003
 21
761.499955
  0
LINE
  8
_0-1_レイヤ___1
  6
CONTINUOUS
 62
    7
 10
2000.1950850000003
 20
761.499955
 11
1999.9849250000002
 21
761.499955
  0
LINE
  8
_0-1_レイヤ___1
  6
CONTINUOUS
 62
    7
 10
1999.9849250000002
 20
761.499955
 11
1999.9849250000002
 21
761.28635499999996
  0
LINE
  8
_0-1_レイヤ___1
  6
CONTINUOUS
 62
    7
 10
1999.9849250000002
 20
761.28635499999996
 11
1999.9849250000002
 21
761.07620499999996
  0
LINE
  8
_0-1_レイヤ___1
  6
CONTINUOUS
 62
    7
 10
1999.9849250000002
 20
761.07620499999996
 11
1999.7747750000003
 21
761.07620499999996
  0
LINE
  8
_0-1_レイヤ___1
  6
CONTINUOUS
 62
    7
 10
1999.7747750000003
 20
761.07620499999996
 11
1999.561185
 21
761.07620499999996
  0
LINE
  8
_0-1_レイヤ___1
  6
CONTINUOUS
 62
    7
 10
1999.561185
 20
761.07620499999996
 11
1999.3475850000002
 21
761.07620499999996
  0
LINE
  8
_0-1_レイヤ___1
  6
CONTINUOUS
 62
    7
 10
1999.3475850000002
 20
761.07620499999996
 11
1999.1374350000001
 21
761.07620499999996
  0
LINE
  8
_0-1_レイヤ___1
  6
CONTINUOUS
 62
    7
 10
1999.1374350000001
 20
761.07620499999996
 11
1999.1374350000001
 21
760.86605500000007
  0
LINE
  8
_0-1_レイヤ___1
  6
CONTINUOUS
 62
    7
 10
1999.1374350000001
 20
760.86605500000007
 11
1999.1374350000001
 21
760.65245500000003
  0
LINE
  8
_0-1_レイヤ___1
  6
CONTINUOUS
 62
    7
 10
1999.1374350000001
 20
760.65245500000003
 11
1998.927285
 21
760.65245500000003
  0
LINE
  8
_0-1_レイヤ___1
  6
CONTINUOUS
 62
    7
 10
1998.927285
 20
760.65245500000003
 11
1998.7171350000003
 21
760.65245500000003
  0
LINE
  8
_0-1_レイヤ___1
  6
CONTINUOUS
 62
    7
 10
1998.7171350000003
 20
760.65245500000003
 11
1998.5069850000002
 21
760.65245500000003
  0
LINE
  8
_0-1_レイヤ___1
  6
CONTINUOUS
 62
    7
 10
1998.5069850000002
 20
760.65245500000003
 11
1998.2933849999999
 21
760.65245500000003
  0
LINE
  8
_0-1_レイヤ___1
  6
CONTINUOUS
 62
    7
 10
1998.2933849999999
 20
760.65245500000003
 11
1998.2933849999999
 21
760.43886499999996
  0
LINE
  8
_0-1_レイヤ___1
  6
CONTINUOUS
 62
    7
 10
1998.2933849999999
 20
760.43886499999996
 11
1998.2933849999999
 21
760.22871499999997
  0
LINE
  8
_0-1_レイヤ___1
  6
CONTINUOUS
 62
    7
 10
1998.2933849999999
 20
760.22871499999997
 11
1998.0797950000001
 21
760.22871499999997
  0
LINE
  8
_0-1_レイヤ___1
  6
CONTINUOUS
 62
    7
 10
1998.0797950000001
 20
760.22871499999997
 11
1997.8696450000002
 21
760.22871499999997
  0
LINE
  8
_0-1_レイヤ___1
  6
CONTINUOUS
 62
    7
 10
1997.8696450000002
 20
760.22871499999997
 11
1997.6594850000001
 21
760.01856500000008
  0
LINE
  8
_0-1_レイヤ___1
  6
CONTINUOUS
 62
    7
 10
1997.6594850000001
 20
760.01856500000008
 11
1997.4458950000003
 21
759.80496500000004
  0
LINE
  8
_0-1_レイヤ___1
  6
CONTINUOUS
 62
    7
 10
1997.4458950000003
 20
759.80496500000004
 11
1997.232295
 21
759.80496500000004
  0
LINE
  8
_0-1_レイヤ___1
  6
CONTINUOUS
 62
    7
 10
1997.232295
 20
759.80496500000004
 11
1997.0221450000004
 21
759.80496500000004
  0
LINE
  8
_0-1_レイヤ___1
  6
CONTINUOUS
 62
    7
 10
1997.0221450000004
 20
759.80496500000004
 11
1997.0221450000004
 21
759.591365
  0
LINE
  8
_0-1_レイヤ___1
  6
CONTINUOUS
 62
    7
 10
1997.0221450000004
 20
759.591365
 11
1997.0221450000004
 21
759.38121499999988
  0
LINE
  8
_0-1_レイヤ___1
  6
CONTINUOUS
 62
    7
 10
1997.0221450000004
 20
759.38121499999988
 11
1996.8119950000003
 21
759.38121499999988
  0
LINE
  8
_0-1_レイヤ___1
  6
CONTINUOUS
 62
    7
 10
1996.8119950000003
 20
759.38121499999988
 11
1996.598405
 21
759.38121499999988
  0
LINE
  8
_0-1_レイヤ___1
  6
CONTINUOUS
 62
    7
 10
1996.598405
 20
759.38121499999988
 11
1996.598405
 21
759.171065
  0
LINE
  8
_0-1_レイヤ___1
  6
CONTINUOUS
 62
    7
 10
1996.598405
 20
759.171065
 11
1996.598405
 21
758.95747499999993
  0
LINE
  8
_0-1_レイヤ___1
  6
CONTINUOUS
 62
    7
 10
1996.598405
 20
758.95747499999993
 11
1996.3848050000001
 21
758.95747499999993
  0
LINE
  8
_0-1_レイヤ___1
  6
CONTINUOUS
 62
    7
 10
1996.3848050000001
 20
758.95747499999993
 11
1996.174655
 21
758.95747499999993
  0
LINE
  8
_0-1_レイヤ___1
  6
CONTINUOUS
 62
    7
 10
1996.174655
 20
758.95747499999993
 11
1996.174655
 21
758.74732499999993
  0
LINE
  8
_0-1_レイヤ___1
  6
CONTINUOUS
 62
    7
 10
1996.174655
 20
758.74732499999993
 11
1996.174655
 21
758.53717500000005
  0
LINE
  8
_0-1_レイヤ___1
  6
CONTINUOUS
 62
    7
 10
1996.174655
 20
758.53717500000005
 11
1995.9645049999999
 21
758.53717500000005
  0
LINE
  8
_0-1_レイヤ___1
  6
CONTINUOUS
 62
    7
 10
1995.9645049999999
 20
758.53717500000005
 11
1995.7509050000001
 21
758.53717500000005
  0
LINE
  8
_0-1_レイヤ___1
  6
CONTINUOUS
 62
    7
 10
1995.7509050000001
 20
758.53717500000005
 11
1995.7509050000001
 21
758.32357500000001
  0
LINE
  8
_0-1_レイヤ___1
  6
CONTINUOUS
 62
    7
 10
1995.7509050000001
 20
758.32357500000001
 11
1995.7509050000001
 21
758.11342500000001
  0
LINE
  8
_0-1_レイヤ___1
  6
CONTINUOUS
 62
    7
 10
1995.7509050000001
 20
758.11342500000001
 11
1995.540755
 21
758.11342500000001
  0
LINE
  8
_0-1_レイヤ___1
  6
CONTINUOUS
 62
    7
 10
1995.540755
 20
758.11342500000001
 11
1995.3306050000001
 21
758.11342500000001
  0
LINE
  8
_0-1_レイヤ___1
  6
CONTINUOUS
 62
    7
 10
1995.3306050000001
 20
758.11342500000001
 11
1995.3306050000001
 21
757.90327500000001
  0
LINE
  8
_0-1_レイヤ___1
  6
CONTINUOUS
 62
    7
 10
1995.3306050000001
 20
757.90327500000001
 11
1995.3306050000001
 21
757.68967500000008
  0
LINE
  8
_0-1_レイヤ___1
  6
CONTINUOUS
 62
    7
 10
1995.3306050000001
 20
757.68967500000008
 11
1995.1170050000001
 21
757.68967500000008
  0
LINE
  8
_0-1_レイヤ___1
  6
CONTINUOUS
 62
    7
 10
1995.1170050000001
 20
757.68967500000008
 11
1994.9068550000002
 21
757.68967500000008
  0
LINE
  8
_0-1_レイヤ___1
  6
CONTINUOUS
 62
    7
 10
1994.9068550000002
 20
757.68967500000008
 11
1994.9068550000002
 21
757.47608500000001
  0
LINE
  8
_0-1_レイヤ___1
  6
CONTINUOUS
 62
    7
 10
1994.9068550000002
 20
757.47608500000001
 11
1994.9068550000002
 21
757.2659349999999
  0
LINE
  8
_0-1_レイヤ___1
  6
CONTINUOUS
 62
    7
 10
1994.9068550000002
 20
757.2659349999999
 11
1994.6967050000001
 21
757.2659349999999
  0
LINE
  8
_0-1_レイヤ___1
  6
CONTINUOUS
 62
    7
 10
1994.6967050000001
 20
757.2659349999999
 11
1994.4831150000002
 21
757.2659349999999
  0
LINE
  8
_0-1_レイヤ___1
  6
CONTINUOUS
 62
    7
 10
1994.4831150000002
 20
757.2659349999999
 11
1994.4831150000002
 21
757.05577500000004
  0
LINE
  8
_0-1_レイヤ___1
  6
CONTINUOUS
 62
    7
 10
1994.4831150000002
 20
757.05577500000004
 11
1994.4831150000002
 21
756.84218499999997
  0
LINE
  8
_0-1_レイヤ___1
  6
CONTINUOUS
 62
    7
 10
1994.4831150000002
 20
756.84218499999997
 11
1994.269515
 21
756.84218499999997
  0
LINE
  8
_0-1_レイヤ___1
  6
CONTINUOUS
 62
    7
 10
1994.269515
 20
756.84218499999997
 11
1994.0593650000003
 21
756.84218499999997
  0
LINE
  8
_0-1_レイヤ___1
  6
CONTINUOUS
 62
    7
 10
1994.0593650000003
 20
756.84218499999997
 11
1994.0593650000003
 21
756.62858499999993
  0
LINE
  8
_0-1_レイヤ___1
  6
CONTINUOUS
 62
    7
 10
1994.0593650000003
 20
756.62858499999993
 11
1994.0593650000003
 21
756.41843499999993
  0
LINE
  8
_0-1_レイヤ___1
  6
CONTINUOUS
 62
    7
 10
1994.0593650000003
 20
756.41843499999993
 11
1993.8492150000002
 21
756.20828500000005
  0
LINE
  8
_0-1_レイヤ___1
  6
CONTINUOUS
 62
    7
 10
1993.8492150000002
 20
756.20828500000005
 11
1993.6356150000001
 21
755.994685
  0
LINE
  8
_0-1_レイヤ___1
  6
CONTINUOUS
 62
    7
 10
1993.6356150000001
 20
755.994685
 11
1993.6356150000001
 21
755.78109499999994
  0
LINE
  8
_0-1_レイヤ___1
  6
CONTINUOUS
 62
    7
 10
1993.6356150000001
 20
755.78109499999994
 11
1993.6356150000001
 21
755.57094500000005
  0
LINE
  8
_0-1_レイヤ___1
  6
CONTINUOUS
 62
    7
 10
1993.6356150000001
 20
755.57094500000005
 11
1993.4220250000001
 21
755.57094500000005
  0
LINE
  8
_0-1_レイヤ___1
  6
CONTINUOUS
 62
    7
 10
1993.4220250000001
 20
755.57094500000005
 11
1993.211875
 21
755.57094500000005
  0
LINE
  8
_0-1_レイヤ___1
  6
CONTINUOUS
 62
    7
 10
1993.211875
 20
755.57094500000005
 11
1993.211875
 21
755.36079500000005
  0
LINE
  8
_0-1_レイヤ___1
  6
CONTINUOUS
 62
    7
 10
1993.211875
 20
755.36079500000005
 11
1993.211875
 21
755.15064499999994
  0
LINE
  8
_0-1_レイヤ___1
  6
CONTINUOUS
 62
    7
 10
1993.211875
 20
755.15064499999994
 11
1993.0017250000001
 21
754.94049500000006
  0
LINE
  8
_0-1_レイヤ___1
  6
CONTINUOUS
 62
    7
 10
1993.0017250000001
 20
754.94049500000006
 11
1992.788125
 21
754.72689500000001
  0
LINE
  8
_0-1_レイヤ___1
  6
CONTINUOUS
 62
    7
 10
1992.788125
 20
754.72689500000001
 11
1992.788125
 21
754.51329499999997
  0
LINE
  8
_0-1_レイヤ___1
  6
CONTINUOUS
 62
    7
 10
1992.788125
 20
754.51329499999997
 11
1992.788125
 21
754.30314499999997
  0
LINE
  8
_0-1_レイヤ___1
  6
CONTINUOUS
 62
    7
 10
1992.788125
 20
754.30314499999997
 11
1992.5745250000002
 21
754.09299499999997
  0
LINE
  8
_0-1_レイヤ___1
  6
CONTINUOUS
 62
    7
 10
1992.5745250000002
 20
754.09299499999997
 11
1992.3643750000001
 21
753.87940500000002
  0
LINE
  8
_0-1_レイヤ___1
  6
CONTINUOUS
 62
    7
 10
1992.3643750000001
 20
753.87940500000002
 11
1992.3643750000001
 21
753.66580499999998
  0
LINE
  8
_0-1_レイヤ___1
  6
CONTINUOUS
 62
    7
 10
1992.3643750000001
 20
753.66580499999998
 11
1992.3643750000001
 21
753.45565500000009
  0
LINE
  8
_0-1_レイヤ___1
  6
CONTINUOUS
 62
    7
 10
1992.3643750000001
 20
753.45565500000009
 11
1992.3643750000001
 21
753.24550499999998
  0
LINE
  8
_0-1_レイヤ___1
  6
CONTINUOUS
 62
    7
 10
1992.3643750000001
 20
753.24550499999998
 11
1992.3643750000001
 21
753.03190500000005
  0
LINE
  8
_0-1_レイヤ___1
  6
CONTINUOUS
 62
    7
 10
1992.3643750000001
 20
753.03190500000005
 11
1992.1542250000002
 21
753.03190500000005
  0
LINE
  8
_0-1_レイヤ___1
  6
CONTINUOUS
 62
    7
 10
1992.1542250000002
 20
753.03190500000005
 11
1991.9406350000004
 21
753.03190500000005
  0
LINE
  8
_0-1_レイヤ___1
  6
CONTINUOUS
 62
    7
 10
1991.9406350000004
 20
753.03190500000005
 11
1991.9406350000004
 21
752.81831499999998
  0
LINE
  8
_0-1_レイヤ___1
  6
CONTINUOUS
 62
    7
 10
1991.9406350000004
 20
752.81831499999998
 11
1991.9406350000004
 21
752.6081650000001
  0
LINE
  8
_0-1_レイヤ___1
  6
CONTINUOUS
 62
    7
 10
1991.9406350000004
 20
752.6081650000001
 11
1991.9406350000004
 21
752.39801499999999
  0
LINE
  8
_0-1_レイヤ___1
  6
CONTINUOUS
 62
    7
 10
1991.9406350000004
 20
752.39801499999999
 11
1991.9406350000004
 21
752.18441499999994
  0
LINE
  8
_0-1_レイヤ___1
  6
CONTINUOUS
 62
    7
 10
1991.9406350000004
 20
752.18441499999994
 11
1991.7304850000003
 21
752.18441499999994
  0
LINE
  8
_0-1_レイヤ___1
  6
CONTINUOUS
 62
    7
 10
1991.7304850000003
 20
752.18441499999994
 11
1991.5203250000002
 21
752.18441499999994
  0
LINE
  8
_0-1_レイヤ___1
  6
CONTINUOUS
 62
    7
 10
1991.5203250000002
 20
752.18441499999994
 11
1991.5203250000002
 21
751.9708149999999
  0
LINE
  8
_0-1_レイヤ___1
  6
CONTINUOUS
 62
    7
 10
1991.5203250000002
 20
751.9708149999999
 11
1991.5203250000002
 21
751.76066500000002
  0
LINE
  8
_0-1_レイヤ___1
  6
CONTINUOUS
 62
    7
 10
1991.5203250000002
 20
751.76066500000002
 11
1991.5203250000002
 21
751.55051500000002
  0
LINE
  8
_0-1_レイヤ___1
  6
CONTINUOUS
 62
    7
 10
1991.5203250000002
 20
751.55051500000002
 11
1991.5203250000002
 21
751.34036499999991
  0
LINE
  8
_0-1_レイヤ___1
  6
CONTINUOUS
 62
    7
 10
1991.5203250000002
 20
751.34036499999991
 11
1991.5203250000002
 21
751.13021500000002
  0
LINE
  8
_0-1_レイヤ___1
  6
CONTINUOUS
 62
    7
 10
1991.5203250000002
 20
751.13021500000002
 11
1991.5203250000002
 21
750.91661499999998
  0
LINE
  8
_0-1_レイヤ___1
  6
CONTINUOUS
 62
    7
 10
1991.5203250000002
 20
750.91661499999998
 11
1991.5203250000002
 21
750.70302500000003
  0
LINE
  8
_0-1_レイヤ___1
  6
CONTINUOUS
 62
    7
 10
1991.5203250000002
 20
750.70302500000003
 11
1991.5203250000002
 21
750.49287500000003
  0
LINE
  8
_0-1_レイヤ___1
  6
CONTINUOUS
 62
    7
 10
1991.5203250000002
 20
750.49287500000003
 11
1991.3067350000003
 21
750.49287500000003
  0
LINE
  8
_0-1_レイヤ___1
  6
CONTINUOUS
 62
    7
 10
1991.3067350000003
 20
750.49287500000003
 11
1991.0965850000002
 21
750.49287500000003
  0
LINE
  8
_0-1_レイヤ___1
  6
CONTINUOUS
 62
    7
 10
1991.0965850000002
 20
750.49287500000003
 11
1991.0965850000002
 21
750.28272500000003
  0
LINE
  8
_0-1_レイヤ___1
  6
CONTINUOUS
 62
    7
 10
1991.0965850000002
 20
750.28272500000003
 11
1991.0965850000002
 21
750.06912499999999
  0
LINE
  8
_0-1_レイヤ___1
  6
CONTINUOUS
 62
    7
 10
1991.0965850000002
 20
750.06912499999999
 11
1991.0965850000002
 21
749.85552499999994
  0
LINE
  8
_0-1_レイヤ___1
  6
CONTINUOUS
 62
    7
 10
1991.0965850000002
 20
749.85552499999994
 11
1991.0965850000002
 21
749.64537500000006
  0
LINE
  8
_0-1_レイヤ___1
  6
CONTINUOUS
 62
    7
 10
1991.0965850000002
 20
749.64537500000006
 11
1991.0965850000002
 21
749.43522499999995
  0
LINE
  8
_0-1_レイヤ___1
  6
CONTINUOUS
 62
    7
 10
1991.0965850000002
 20
749.43522499999995
 11
1991.0965850000002
 21
749.22163499999999
  0
LINE
  8
_0-1_レイヤ___1
  6
CONTINUOUS
 62
    7
 10
1991.0965850000002
 20
749.22163499999999
 11
1991.0965850000002
 21
749.00803499999995
  0
LINE
  8
_0-1_レイヤ___1
  6
CONTINUOUS
 62
    7
 10
1991.0965850000002
 20
749.00803499999995
 11
1991.0965850000002
 21
748.79788500000006
  0
LINE
  8
_0-1_レイヤ___1
  6
CONTINUOUS
 62
    7
 10
1991.0965850000002
 20
748.79788500000006
 11
1991.0965850000002
 21
748.58773499999995
  0
LINE
  8
_0-1_レイヤ___1
  6
CONTINUOUS
 62
    7
 10
1991.0965850000002
 20
748.58773499999995
 11
1991.0965850000002
 21
748.37413500000002
  0
LINE
  8
_0-1_レイヤ___1
  6
CONTINUOUS
 62
    7
 10
1991.0965850000002
 20
748.37413500000002
 11
1991.0965850000002
 21
748.16398500000003
  0
LINE
  8
_0-1_レイヤ___1
  6
CONTINUOUS
 62
    7
 10
1991.0965850000002
 20
748.16398500000003
 11
1991.0965850000002
 21
747.95383500000003
  0
LINE
  8
_0-1_レイヤ___1
  6
CONTINUOUS
 62
    7
 10
1991.0965850000002
 20
747.95383500000003
 11
1991.0965850000002
 21
747.74024499999996
  0
LINE
  8
_0-1_レイヤ___1
  6
CONTINUOUS
 62
    7
 10
1991.0965850000002
 20
747.74024499999996
 11
1991.0965850000002
 21
747.53009500000007
  0
LINE
  8
_0-1_レイヤ___1
  6
CONTINUOUS
 62
    7
 10
1991.0965850000002
 20
747.53009500000007
 11
1991.0965850000002
 21
747.31993499999999
  0
LINE
  8
_0-1_レイヤ___1
  6
CONTINUOUS
 62
    7
 10
1991.0965850000002
 20
747.31993499999999
 11
1991.0965850000002
 21
747.10634499999992
  0
LINE
  8
_0-1_レイヤ___1
  6
CONTINUOUS
 62
    7
 10
2107.936995
 20
550.67733500000008
 11
2108.1471449999999
 21
550.46718499999997
  0
LINE
  8
_0-1_レイヤ___1
  6
CONTINUOUS
 62
    7
 10
2108.1471449999999
 20
550.46718499999997
 11
2108.3572950000002
 21
550.25703499999997
  0
LINE
  8
_0-1_レイヤ___1
  6
CONTINUOUS
 62
    7
 10
2108.3572950000002
 20
550.25703499999997
 11
2108.3572950000002
 21
550.04688499999997
  0
LINE
  8
_0-1_レイヤ___1
  6
CONTINUOUS
 62
    7
 10
2108.3572950000002
 20
550.04688499999997
 11
2108.3572950000002
 21
549.83328499999993
  0
LINE
  8
_0-1_レイヤ___1
  6
CONTINUOUS
 62
    7
 10
2108.3572950000002
 20
549.83328499999993
 11
2108.5708950000003
 21
549.83328499999993
  0
LINE
  8
_0-1_レイヤ___1
  6
CONTINUOUS
 62
    7
 10
2108.5708950000003
 20
549.83328499999993
 11
2108.7810450000002
 21
549.83328499999993
  0
LINE
  8
_0-1_レイヤ___1
  6
CONTINUOUS
 62
    7
 10
2108.7810450000002
 20
549.83328499999993
 11
2108.7810450000002
 21
549.619685
  0
LINE
  8
_0-1_レイヤ___1
  6
CONTINUOUS
 62
    7
 10
2108.7810450000002
 20
549.619685
 11
2108.7810450000002
 21
549.40953500000001
  0
LINE
  8
_0-1_レイヤ___1
  6
CONTINUOUS
 62
    7
 10
2108.7810450000002
 20
549.40953500000001
 11
2108.9911950000001
 21
549.40953500000001
  0
LINE
  8
_0-1_レイヤ___1
  6
CONTINUOUS
 62
    7
 10
2108.9911950000001
 20
549.40953500000001
 11
2109.2047950000001
 21
549.40953500000001
  0
LINE
  8
_0-1_レイヤ___1
  6
CONTINUOUS
 62
    7
 10
2109.2047950000001
 20
549.40953500000001
 11
2109.2047950000001
 21
549.19938500000001
  0
LINE
  8
_0-1_レイヤ___1
  6
CONTINUOUS
 62
    7
 10
2109.2047950000001
 20
549.19938500000001
 11
2109.2047950000001
 21
548.98579499999994
  0
LINE
  8
_0-1_レイヤ___1
  6
CONTINUOUS
 62
    7
 10
2109.2047950000001
 20
548.98579499999994
 11
2109.4183849999999
 21
548.77219500000001
  0
LINE
  8
_0-1_レイヤ___1
  6
CONTINUOUS
 62
    7
 10
2109.4183849999999
 20
548.77219500000001
 11
2109.6285350000003
 21
548.56204500000001
  0
LINE
  8
_0-1_レイヤ___1
  6
CONTINUOUS
 62
    7
 10
2109.6285350000003
 20
548.56204500000001
 11
2109.6285350000003
 21
548.35189500000001
  0
LINE
  8
_0-1_レイヤ___1
  6
CONTINUOUS
 62
    7
 10
2109.6285350000003
 20
548.35189500000001
 11
2109.6285350000003
 21
548.13829499999997
  0
LINE
  8
_0-1_レイヤ___1
  6
CONTINUOUS
 62
    7
 10
2109.6285350000003
 20
548.13829499999997
 11
2109.8386850000002
 21
548.13829499999997
  0
LINE
  8
_0-1_レイヤ___1
  6
CONTINUOUS
 62
    7
 10
2109.8386850000002
 20
548.13829499999997
 11
2110.0522850000002
 21
548.13829499999997
  0
LINE
  8
_0-1_レイヤ___1
  6
CONTINUOUS
 62
    7
 10
2110.0522850000002
 20
548.13829499999997
 11
2110.0522850000002
 21
547.92470500000002
  0
LINE
  8
_0-1_レイヤ___1
  6
CONTINUOUS
 62
    7
 10
2110.0522850000002
 20
547.92470500000002
 11
2110.0522850000002
 21
547.71455500000002
  0
LINE
  8
_0-1_レイヤ___1
  6
CONTINUOUS
 62
    7
 10
2110.0522850000002
 20
547.71455500000002
 11
2110.2658849999998
 21
547.71455500000002
  0
LINE
  8
_0-1_レイヤ___1
  6
CONTINUOUS
 62
    7
 10
2110.2658849999998
 20
547.71455500000002
 11
2110.4760350000001
 21
547.71455500000002
  0
LINE
  8
_0-1_レイヤ___1
  6
CONTINUOUS
 62
    7
 10
2110.4760350000001
 20
547.71455500000002
 11
2110.4760350000001
 21
547.50440499999991
  0
LINE
  8
_0-1_レイヤ___1
  6
CONTINUOUS
 62
    7
 10
2110.4760350000001
 20
547.50440499999991
 11
2110.4760350000001
 21
547.29080499999998
  0
LINE
  8
_0-1_レイヤ___1
  6
CONTINUOUS
 62
    7
 10
2110.4760350000001
 20
547.29080499999998
 11
2110.686185
 21
547.29080499999998
  0
LINE
  8
_0-1_レイヤ___1
  6
CONTINUOUS
 62
    7
 10
2110.686185
 20
547.29080499999998
 11
2110.8997749999999
 21
547.29080499999998
  0
LINE
  8
_0-1_レイヤ___1
  6
CONTINUOUS
 62
    7
 10
2110.8997749999999
 20
547.29080499999998
 11
2110.8997749999999
 21
547.08065499999998
  0
LINE
  8
_0-1_レイヤ___1
  6
CONTINUOUS
 62
    7
 10
2110.8997749999999
 20
547.08065499999998
 11
2110.8997749999999
 21
546.87050499999998
  0
LINE
  8
_0-1_レイヤ___1
  6
CONTINUOUS
 62
    7
 10
2110.8997749999999
 20
546.87050499999998
 11
2111.1133750000004
 21
546.87050499999998
  0
LINE
  8
_0-1_レイヤ___1
  6
CONTINUOUS
 62
    7
 10
2111.1133750000004
 20
546.87050499999998
 11
2111.3235250000002
 21
546.87050499999998
  0
LINE
  8
_0-1_レイヤ___1
  6
CONTINUOUS
 62
    7
 10
2111.3235250000002
 20
546.87050499999998
 11
2111.3235250000002
 21
546.65690499999994
  0
LINE
  8
_0-1_レイヤ___1
  6
CONTINUOUS
 62
    7
 10
2111.3235250000002
 20
546.65690499999994
 11
2111.3235250000002
 21
546.44675499999994
  0
LINE
  8
_0-1_レイヤ___1
  6
CONTINUOUS
 62
    7
 10
2111.3235250000002
 20
546.44675499999994
 11
2111.5336750000001
 21
546.44675499999994
  0
LINE
  8
_0-1_レイヤ___1
  6
CONTINUOUS
 62
    7
 10
2111.5336750000001
 20
546.44675499999994
 11
2111.7472750000002
 21
546.44675499999994
  0
LINE
  8
_0-1_レイヤ___1
  6
CONTINUOUS
 62
    7
 10
2111.7472750000002
 20
546.44675499999994
 11
2111.7472750000002
 21
546.23660500000005
  0
LINE
  8
_0-1_レイヤ___1
  6
CONTINUOUS
 62
    7
 10
2111.7472750000002
 20
546.23660500000005
 11
2111.7472750000002
 21
546.02301499999999
  0
LINE
  8
_0-1_レイヤ___1
  6
CONTINUOUS
 62
    7
 10
2111.7472750000002
 20
546.02301499999999
 11
2111.9574250000001
 21
546.02301499999999
  0
LINE
  8
_0-1_レイヤ___1
  6
CONTINUOUS
 62
    7
 10
2111.9574250000001
 20
546.02301499999999
 11
2112.1675750000004
 21
546.02301499999999
  0
LINE
  8
_0-1_レイヤ___1
  6
CONTINUOUS
 62
    7
 10
2112.1675750000004
 20
546.02301499999999
 11
2112.1675750000004
 21
545.80941500000006
  0
LINE
  8
_0-1_レイヤ___1
  6
CONTINUOUS
 62
    7
 10
2112.1675750000004
 20
545.80941500000006
 11
2112.1675750000004
 21
545.59926500000006
  0
LINE
  8
_0-1_レイヤ___1
  6
CONTINUOUS
 62
    7
 10
2112.1675750000004
 20
545.59926500000006
 11
2112.3811650000002
 21
545.59926500000006
  0
LINE
  8
_0-1_レイヤ___1
  6
CONTINUOUS
 62
    7
 10
2112.3811650000002
 20
545.59926500000006
 11
2112.5913250000003
 21
545.59926500000006
  0
LINE
  8
_0-1_レイヤ___1
  6
CONTINUOUS
 62
    7
 10
2112.5913250000003
 20
545.59926500000006
 11
2112.5913250000003
 21
545.38911499999995
  0
LINE
  8
_0-1_レイヤ___1
  6
CONTINUOUS
 62
    7
 10
2112.5913250000003
 20
545.38911499999995
 11
2112.5913250000003
 21
545.1755149999999
  0
LINE
  8
_0-1_レイヤ___1
  6
CONTINUOUS
 62
    7
 10
2112.5913250000003
 20
545.1755149999999
 11
2112.8014750000002
 21
545.1755149999999
  0
LINE
  8
_0-1_レイヤ___1
  6
CONTINUOUS
 62
    7
 10
2112.8014750000002
 20
545.1755149999999
 11
2113.015065
 21
545.1755149999999
  0
LINE
  8
_0-1_レイヤ___1
  6
CONTINUOUS
 62
    7
 10
2113.015065
 20
545.1755149999999
 11
2113.015065
 21
544.96192499999995
  0
LINE
  8
_0-1_レイヤ___1
  6
CONTINUOUS
 62
    7
 10
2113.015065
 20
544.96192499999995
 11
2113.015065
 21
544.75177499999995
  0
LINE
  8
_0-1_レイヤ___1
  6
CONTINUOUS
 62
    7
 10
2113.015065
 20
544.75177499999995
 11
2113.2286650000001
 21
544.75177499999995
  0
LINE
  8
_0-1_レイヤ___1
  6
CONTINUOUS
 62
    7
 10
2113.2286650000001
 20
544.75177499999995
 11
2113.438815
 21
544.75177499999995
  0
LINE
  8
_0-1_レイヤ___1
  6
CONTINUOUS
 62
    7
 10
2113.438815
 20
544.75177499999995
 11
2113.438815
 21
544.54161499999998
  0
LINE
  8
_0-1_レイヤ___1
  6
CONTINUOUS
 62
    7
 10
2113.438815
 20
544.54161499999998
 11
2113.438815
 21
544.32802500000003
  0
LINE
  8
_0-1_レイヤ___1
  6
CONTINUOUS
 62
    7
 10
2113.438815
 20
544.32802500000003
 11
2113.6489650000003
 21
544.32802500000003
  0
LINE
  8
_0-1_レイヤ___1
  6
CONTINUOUS
 62
    7
 10
2113.6489650000003
 20
544.32802500000003
 11
2113.8625649999999
 21
544.32802500000003
  0
LINE
  8
_0-1_レイヤ___1
  6
CONTINUOUS
 62
    7
 10
2113.8625649999999
 20
544.32802500000003
 11
2113.8625649999999
 21
544.11442499999998
  0
LINE
  8
_0-1_レイヤ___1
  6
CONTINUOUS
 62
    7
 10
2113.8625649999999
 20
544.11442499999998
 11
2113.8625649999999
 21
543.90427499999998
  0
LINE
  8
_0-1_レイヤ___1
  6
CONTINUOUS
 62
    7
 10
2113.8625649999999
 20
543.90427499999998
 11
2114.0761550000002
 21
543.90427499999998
  0
LINE
  8
_0-1_レイヤ___1
  6
CONTINUOUS
 62
    7
 10
2114.0761550000002
 20
543.90427499999998
 11
2114.2863050000001
 21
543.90427499999998
  0
LINE
  8
_0-1_レイヤ___1
  6
CONTINUOUS
 62
    7
 10
2114.2863050000001
 20
543.90427499999998
 11
2114.496455
 21
543.69412499999999
  0
LINE
  8
_0-1_レイヤ___1
  6
CONTINUOUS
 62
    7
 10
2114.496455
 20
543.69412499999999
 11
2114.710055
 21
543.48397499999999
  0
LINE
  8
_0-1_レイヤ___1
  6
CONTINUOUS
 62
    7
 10
2114.710055
 20
543.48397499999999
 11
2114.9236550000001
 21
543.27382499999999
  0
LINE
  8
_0-1_レイヤ___1
  6
CONTINUOUS
 62
    7
 10
2114.9236550000001
 20
543.27382499999999
 11
2115.1338049999999
 21
543.06022499999995
  0
LINE
  8
_0-1_レイヤ___1
  6
CONTINUOUS
 62
    7
 10
2115.1338049999999
 20
543.06022499999995
 11
2115.3439550000003
 21
543.06022499999995
  0
LINE
  8
_0-1_レイヤ___1
  6
CONTINUOUS
 62
    7
 10
2115.3439550000003
 20
543.06022499999995
 11
2115.5541050000002
 21
543.06022499999995
  0
LINE
  8
_0-1_レイヤ___1
  6
CONTINUOUS
 62
    7
 10
2115.5541050000002
 20
543.06022499999995
 11
2115.5541050000002
 21
542.84663499999999
  0
LINE
  8
_0-1_レイヤ___1
  6
CONTINUOUS
 62
    7
 10
2115.5541050000002
 20
542.84663499999999
 11
2115.5541050000002
 21
542.63648499999999
  0
LINE
  8
_0-1_レイヤ___1
  6
CONTINUOUS
 62
    7
 10
2115.5541050000002
 20
542.63648499999999
 11
2115.764255
 21
542.63648499999999
  0
LINE
  8
_0-1_レイヤ___1
  6
CONTINUOUS
 62
    7
 10
2115.764255
 20
542.63648499999999
 11
2115.9778450000003
 21
542.63648499999999
  0
LINE
  8
_0-1_レイヤ___1
  6
CONTINUOUS
 62
    7
 10
2115.9778450000003
 20
542.63648499999999
 11
2115.9778450000003
 21
542.42633499999999
  0
LINE
  8
_0-1_レイヤ___1
  6
CONTINUOUS
 62
    7
 10
2115.9778450000003
 20
542.42633499999999
 11
2115.9778450000003
 21
542.21273500000007
  0
LINE
  8
_0-1_レイヤ___1
  6
CONTINUOUS
 62
    7
 10
2115.9778450000003
 20
542.21273500000007
 11
2116.1914449999999
 21
542.21273500000007
  0
LINE
  8
_0-1_レイヤ___1
  6
CONTINUOUS
 62
    7
 10
2116.1914449999999
 20
542.21273500000007
 11
2116.4015950000003
 21
542.21273500000007
  0
LINE
  8
_0-1_レイヤ___1
  6
CONTINUOUS
 62
    7
 10
2116.4015950000003
 20
542.21273500000007
 11
2116.6117450000002
 21
541.99913500000002
  0
LINE
  8
_0-1_レイヤ___1
  6
CONTINUOUS
 62
    7
 10
2116.6117450000002
 20
541.99913500000002
 11
2116.8253450000002
 21
541.78898500000003
  0
LINE
  8
_0-1_レイヤ___1
  6
CONTINUOUS
 62
    7
 10
2116.8253450000002
 20
541.78898500000003
 11
2117.038935
 21
541.78898500000003
  0
LINE
  8
_0-1_レイヤ___1
  6
CONTINUOUS
 62
    7
 10
2117.038935
 20
541.78898500000003
 11
2117.2490850000004
 21
541.78898500000003
  0
LINE
  8
_0-1_レイヤ___1
  6
CONTINUOUS
 62
    7
 10
2117.2490850000004
 20
541.78898500000003
 11
2117.2490850000004
 21
541.57883500000003
  0
LINE
  8
_0-1_レイヤ___1
  6
CONTINUOUS
 62
    7
 10
2117.2490850000004
 20
541.57883500000003
 11
2117.2490850000004
 21
541.36524499999996
  0
LINE
  8
_0-1_レイヤ___1
  6
CONTINUOUS
 62
    7
 10
2117.2490850000004
 20
541.36524499999996
 11
2117.4592450000005
 21
541.36524499999996
  0
LINE
  8
_0-1_レイヤ___1
  6
CONTINUOUS
 62
    7
 10
2117.4592450000005
 20
541.36524499999996
 11
2117.6728350000003
 21
541.36524499999996
  0
LINE
  8
_0-1_レイヤ___1
  6
CONTINUOUS
 62
    7
 10
2117.6728350000003
 20
541.36524499999996
 11
2117.6728350000003
 21
541.15164500000003
  0
LINE
  8
_0-1_レイヤ___1
  6
CONTINUOUS
 62
    7
 10
2117.6728350000003
 20
541.15164500000003
 11
2117.6728350000003
 21
540.94149500000003
  0
LINE
  8
_0-1_レイヤ___1
  6
CONTINUOUS
 62
    7
 10
2117.6728350000003
 20
540.94149500000003
 11
2117.8864349999999
 21
540.94149500000003
  0
LINE
  8
_0-1_レイヤ___1
  6
CONTINUOUS
 62
    7
 10
2117.8864349999999
 20
540.94149500000003
 11
2118.0965850000002
 21
540.94149500000003
  0
LINE
  8
_0-1_レイヤ___1
  6
CONTINUOUS
 62
    7
 10
2118.0965850000002
 20
540.94149500000003
 11
2118.3067350000001
 21
540.94149500000003
  0
LINE
  8
_0-1_レイヤ___1
  6
CONTINUOUS
 62
    7
 10
2118.3067350000001
 20
540.94149500000003
 11
2118.520325
 21
540.94149500000003
  0
LINE
  8
_0-1_レイヤ___1
  6
CONTINUOUS
 62
    7
 10
2118.520325
 20
540.94149500000003
 11
2118.520325
 21
540.73134500000003
  0
LINE
  8
_0-1_レイヤ___1
  6
CONTINUOUS
 62
    7
 10
2118.520325
 20
540.73134500000003
 11
2118.520325
 21
540.51774499999999
  0
LINE
  8
_0-1_レイヤ___1
  6
CONTINUOUS
 62
    7
 10
2118.520325
 20
540.51774499999999
 11
2118.730485
 21
540.51774499999999
  0
LINE
  8
_0-1_レイヤ___1
  6
CONTINUOUS
 62
    7
 10
2118.730485
 20
540.51774499999999
 11
2118.9406349999999
 21
540.51774499999999
  0
LINE
  8
_0-1_レイヤ___1
  6
CONTINUOUS
 62
    7
 10
2118.9406349999999
 20
540.51774499999999
 11
2118.9406349999999
 21
540.30415499999992
  0
LINE
  8
_0-1_レイヤ___1
  6
CONTINUOUS
 62
    7
 10
2118.9406349999999
 20
540.30415499999992
 11
2118.9406349999999
 21
540.09400499999992
  0
LINE
  8
_0-1_レイヤ___1
  6
CONTINUOUS
 62
    7
 10
2118.9406349999999
 20
540.09400499999992
 11
2119.1542250000002
 21
540.09400499999992
  0
LINE
  8
_0-1_レイヤ___1
  6
CONTINUOUS
 62
    7
 10
2119.1542250000002
 20
540.09400499999992
 11
2119.3643750000001
 21
540.09400499999992
  0
LINE
  8
_0-1_レイヤ___1
  6
CONTINUOUS
 62
    7
 10
2119.3643750000001
 20
540.09400499999992
 11
2119.574525
 21
540.09400499999992
  0
LINE
  8
_0-1_レイヤ___1
  6
CONTINUOUS
 62
    7
 10
2119.574525
 20
540.09400499999992
 11
2119.788125
 21
540.09400499999992
  0
LINE
  8
_0-1_レイヤ___1
  6
CONTINUOUS
 62
    7
 10
2119.788125
 20
540.09400499999992
 11
2119.788125
 21
539.88385500000004
  0
LINE
  8
_0-1_レイヤ___1
  6
CONTINUOUS
 62
    7
 10
2119.788125
 20
539.88385500000004
 11
2119.788125
 21
539.67369499999995
  0
LINE
  8
_0-1_レイヤ___1
  6
CONTINUOUS
 62
    7
 10
2119.788125
 20
539.67369499999995
 11
2120.0017250000001
 21
539.67369499999995
  0
LINE
  8
_0-1_レイヤ___1
  6
CONTINUOUS
 62
    7
 10
2120.0017250000001
 20
539.67369499999995
 11
2120.2118750000004
 21
539.67369499999995
  0
LINE
  8
_0-1_レイヤ___1
  6
CONTINUOUS
 62
    7
 10
2120.2118750000004
 20
539.67369499999995
 11
2120.4220249999998
 21
539.46354499999995
  0
LINE
  8
_0-1_レイヤ___1
  6
CONTINUOUS
 62
    7
 10
2120.4220249999998
 20
539.46354499999995
 11
2120.6356150000001
 21
539.249955
  0
LINE
  8
_0-1_レイヤ___1
  6
CONTINUOUS
 62
    7
 10
2120.6356150000001
 20
539.249955
 11
2120.8492150000002
 21
539.249955
  0
LINE
  8
_0-1_レイヤ___1
  6
CONTINUOUS
 62
    7
 10
2120.8492150000002
 20
539.249955
 11
2121.0593650000001
 21
539.249955
  0
LINE
  8
_0-1_レイヤ___1
  6
CONTINUOUS
 62
    7
 10
2121.0593650000001
 20
539.249955
 11
2121.269515
 21
539.03635499999996
  0
LINE
  8
_0-1_レイヤ___1
  6
CONTINUOUS
 62
    7
 10
2121.269515
 20
539.03635499999996
 11
2121.483115
 21
538.82620500000007
  0
LINE
  8
_0-1_レイヤ___1
  6
CONTINUOUS
 62
    7
 10
2121.483115
 20
538.82620500000007
 11
2121.6967050000003
 21
538.82620500000007
  0
LINE
  8
_0-1_レイヤ___1
  6
CONTINUOUS
 62
    7
 10
2121.6967050000003
 20
538.82620500000007
 11
2121.9068550000002
 21
538.82620500000007
  0
LINE
  8
_0-1_レイヤ___1
  6
CONTINUOUS
 62
    7
 10
2121.9068550000002
 20
538.82620500000007
 11
2121.9068550000002
 21
538.61605500000007
  0
LINE
  8
_0-1_レイヤ___1
  6
CONTINUOUS
 62
    7
 10
2121.9068550000002
 20
538.61605500000007
 11
2121.9068550000002
 21
538.40245500000003
  0
LINE
  8
_0-1_レイヤ___1
  6
CONTINUOUS
 62
    7
 10
2121.9068550000002
 20
538.40245500000003
 11
2122.1170050000001
 21
538.40245500000003
  0
LINE
  8
_0-1_レイヤ___1
  6
CONTINUOUS
 62
    7
 10
2122.1170050000001
 20
538.40245500000003
 11
2122.3306050000001
 21
538.40245500000003
  0
LINE
  8
_0-1_レイヤ___1
  6
CONTINUOUS
 62
    7
 10
2122.3306050000001
 20
538.40245500000003
 11
2122.5407550000004
 21
538.40245500000003
  0
LINE
  8
_0-1_レイヤ___1
  6
CONTINUOUS
 62
    7
 10
2122.5407550000004
 20
538.40245500000003
 11
2122.7509049999999
 21
538.40245500000003
  0
LINE
  8
_0-1_レイヤ___1
  6
CONTINUOUS
 62
    7
 10
2122.7509049999999
 20
538.40245500000003
 11
2122.9645050000004
 21
538.18886499999996
  0
LINE
  8
_0-1_レイヤ___1
  6
CONTINUOUS
 62
    7
 10
2122.9645050000004
 20
538.18886499999996
 11
2123.1746550000003
 21
537.97871499999997
  0
LINE
  8
_0-1_レイヤ___1
  6
CONTINUOUS
 62
    7
 10
2123.1746550000003
 20
537.97871499999997
 11
2123.3848050000001
 21
537.97871499999997
  0
LINE
  8
_0-1_レイヤ___1
  6
CONTINUOUS
 62
    7
 10
2123.3848050000001
 20
537.97871499999997
 11
2123.5984050000002
 21
537.97871499999997
  0
LINE
  8
_0-1_レイヤ___1
  6
CONTINUOUS
 62
    7
 10
2123.5984050000002
 20
537.97871499999997
 11
2123.811995
 21
537.76856499999997
  0
LINE
  8
_0-1_レイヤ___1
  6
CONTINUOUS
 62
    7
 10
2123.811995
 20
537.76856499999997
 11
2124.0221449999999
 21
537.55496500000004
  0
LINE
  8
_0-1_レイヤ___1
  6
CONTINUOUS
 62
    7
 10
2124.0221449999999
 20
537.55496500000004
 11
2124.2322950000002
 21
537.55496500000004
  0
LINE
  8
_0-1_レイヤ___1
  6
CONTINUOUS
 62
    7
 10
2124.2322950000002
 20
537.55496500000004
 11
2124.4458949999998
 21
537.55496500000004
  0
LINE
  8
_0-1_レイヤ___1
  6
CONTINUOUS
 62
    7
 10
2124.4458949999998
 20
537.55496500000004
 11
2124.6594850000001
 21
537.55496500000004
  0
LINE
  8
_0-1_レイヤ___1
  6
CONTINUOUS
 62
    7
 10
2124.6594850000001
 20
537.55496500000004
 11
2124.8696450000002
 21
537.55496500000004
  0
LINE
  8
_0-1_レイヤ___1
  6
CONTINUOUS
 62
    7
 10
2124.8696450000002
 20
537.55496500000004
 11
2124.8696450000002
 21
537.341365
  0
LINE
  8
_0-1_レイヤ___1
  6
CONTINUOUS
 62
    7
 10
2124.8696450000002
 20
537.341365
 11
2124.8696450000002
 21
537.131215
  0
LINE
  8
_0-1_レイヤ___1
  6
CONTINUOUS
 62
    7
 10
2124.8696450000002
 20
537.131215
 11
2125.0797950000001
 21
537.131215
  0
LINE
  8
_0-1_レイヤ___1
  6
CONTINUOUS
 62
    7
 10
2125.0797950000001
 20
537.131215
 11
2125.2933850000004
 21
537.131215
  0
LINE
  8
_0-1_レイヤ___1
  6
CONTINUOUS
 62
    7
 10
2125.2933850000004
 20
537.131215
 11
2125.506985
 21
537.131215
  0
LINE
  8
_0-1_レイヤ___1
  6
CONTINUOUS
 62
    7
 10
2125.506985
 20
537.131215
 11
2125.7171350000003
 21
537.131215
  0
LINE
  8
_0-1_レイヤ___1
  6
CONTINUOUS
 62
    7
 10
2125.7171350000003
 20
537.131215
 11
2125.9272850000002
 21
537.131215
  0
LINE
  8
_0-1_レイヤ___1
  6
CONTINUOUS
 62
    7
 10
2125.9272850000002
 20
537.131215
 11
2126.1374350000001
 21
537.131215
  0
LINE
  8
_0-1_レイヤ___1
  6
CONTINUOUS
 62
    7
 10
2126.1374350000001
 20
537.131215
 11
2126.1374350000001
 21
536.921065
  0
LINE
  8
_0-1_レイヤ___1
  6
CONTINUOUS
 62
    7
 10
2126.1374350000001
 20
536.921065
 11
2126.1374350000001
 21
536.70747499999993
  0
LINE
  8
_0-1_レイヤ___1
  6
CONTINUOUS
 62
    7
 10
2126.1374350000001
 20
536.70747499999993
 11
2126.347585
 21
536.70747499999993
  0
LINE
  8
_0-1_レイヤ___1
  6
CONTINUOUS
 62
    7
 10
2126.347585
 20
536.70747499999993
 11
2126.561185
 21
536.70747499999993
  0
LINE
  8
_0-1_レイヤ___1
  6
CONTINUOUS
 62
    7
 10
2126.561185
 20
536.70747499999993
 11
2126.7747749999999
 21
536.70747499999993
  0
LINE
  8
_0-1_レイヤ___1
  6
CONTINUOUS
 62
    7
 10
2126.7747749999999
 20
536.70747499999993
 11
2126.9849250000002
 21
536.70747499999993
  0
LINE
  8
_0-1_レイヤ___1
  6
CONTINUOUS
 62
    7
 10
2075.7632450000001
 20
626.03190499999994
 11
2077.6683849999999
 21
625.18441500000006
  0
LINE
  8
_0-1_レイヤ___1
  6
CONTINUOUS
 62
    7
 10
2077.6683849999999
 20
625.18441500000006
 11
2079.5735250000002
 21
624.34036500000002
  0
LINE
  8
_0-1_レイヤ___1
  6
CONTINUOUS
 62
    7
 10
2047.823525
 20
594.28190500000005
 11
2046.9760350000001
 21
593.64801499999999
  0
LINE
  8
_0-1_レイヤ___1
  6
CONTINUOUS
 62
    7
 10
2046.9760350000001
 20
593.64801499999999
 11
2046.1285350000003
 21
593.01066500000002
  0
LINE
  8
_0-1_レイヤ___1
  6
CONTINUOUS
 62
    7
 10
2532.961875
 20
750.06912499999999
 11
2534.8670050000001
 21
750.91661499999998
  0
LINE
  8
_0-1_レイヤ___1
  6
CONTINUOUS
 62
    7
 10
2534.8670050000001
 20
750.91661499999998
 11
2536.7721450000004
 21
751.76066500000002
  0
LINE
  8
_0-1_レイヤ___1
  6
CONTINUOUS
 62
    7
 10
2530.4228350000003
 20
745.835105
 11
2531.9042250000002
 21
748.58773499999995
  0
LINE
  8
_0-1_レイヤ___1
  6
CONTINUOUS
 62
    7
 10
2531.9042250000002
 20
748.58773499999995
 11
2533.3856150000001
 21
751.34036499999991
  0
LINE
  8
_0-1_レイヤ___1
  6
CONTINUOUS
 62
    7
 10
2509.2561650000002
 20
626.45565499999998
 11
2508.4086750000001
 21
626.03190499999994
  0
LINE
  8
_0-1_レイヤ___1
  6
CONTINUOUS
 62
    7
 10
2508.4086750000001
 20
626.03190499999994
 11
2507.561185
 21
625.60816499999999
  0
LINE
  8
_0-1_レイヤ___1
  6
CONTINUOUS
 62
    7
 10
2477.5061650000002
 20
535.01593500000001
 11
2481.530045
 21
535.01593500000001
  0
LINE
  8
_0-1_レイヤ___1
  6
CONTINUOUS
 62
    7
 10
2481.530045
 20
535.01593500000001
 11
2485.5504650000003
 21
535.01593500000001
  0
LINE
  8
_0-1_レイヤ___1
  6
CONTINUOUS
 62
    7
 10
2485.5504650000003
 20
535.01593500000001
 11
2487.2420050000001
 21
532.47689500000001
  0
LINE
  8
_0-1_レイヤ___1
  6
CONTINUOUS
 62
    7
 10
2487.2420050000001
 20
532.47689500000001
 11
2488.936995
 21
529.93441500000006
  0
LINE
  8
_0-1_レイヤ___1
  6
CONTINUOUS
 62
    7
 10
2488.936995
 20
530.35816499999999
 11
2489.3572950000002
 21
524.64274499999999
  0
LINE
  8
_0-1_レイヤ___1
  6
CONTINUOUS
 62
    7
 10
2489.3572950000002
 20
524.64274499999999
 11
2489.7810450000002
 21
518.92733499999997
  0
LINE
  8
_0-1_レイヤ___1
  6
CONTINUOUS
 62
    7
 10
2488.936995
 20
530.35816499999999
 11
2489.3572950000002
 21
524.64274499999999
  0
LINE
  8
_0-1_レイヤ___1
  6
CONTINUOUS
 62
    7
 10
2489.3572950000002
 20
524.64274499999999
 11
2489.7810450000002
 21
518.92733499999997
  0
LINE
  8
_0-1_レイヤ___1
  6
CONTINUOUS
 62
    7
 10
2489.7810450000002
 20
518.92733499999997
 11
2492.9574250000001
 21
518.92733499999997
  0
LINE
  8
_0-1_レイヤ___1
  6
CONTINUOUS
 62
    7
 10
2492.9574250000001
 20
518.92733499999997
 11
2496.1338049999999
 21
518.92733499999997
  0
LINE
  8
_0-1_レイヤ___1
  6
CONTINUOUS
 62
    7
 10
2181.1728350000003
 20
532.47689500000001
 11
2181.1728350000003
 21
532.69049500000006
  0
LINE
  8
_0-1_レイヤ___1
  6
CONTINUOUS
 62
    7
 10
2181.1728350000003
 20
532.69049500000006
 11
2181.1728350000003
 21
532.90064499999994
  0
LINE
  8
_0-1_レイヤ___1
  6
CONTINUOUS
 62
    7
 10
2174.8235250000002
 20
526.97163499999999
 11
2174.6133749999999
 21
522.947765
  0
LINE
  8
_0-1_レイヤ___1
  6
CONTINUOUS
 62
    7
 10
2174.6133749999999
 20
522.947765
 11
2174.3997750000003
 21
518.92733499999997
  0
LINE
  8
_0-1_レイヤ___1
  6
CONTINUOUS
 62
    7
 10
2174.3997750000003
 20
518.92733499999997
 11
2171.2234050000002
 21
518.92733499999997
  0
LINE
  8
_0-1_レイヤ___1
  6
CONTINUOUS
 62
    7
 10
2171.2234050000002
 20
518.92733499999997
 11
2168.0504650000003
 21
518.92733499999997
  0
LINE
  8
_0-1_レイヤ___1
  6
CONTINUOUS
 62
    7
 10
2167.2029750000002
 20
527.39537499999994
 11
2167.6267250000001
 21
523.16135499999996
  0
LINE
  8
_0-1_レイヤ___1
  6
CONTINUOUS
 62
    7
 10
2167.6267250000001
 20
523.16135499999996
 11
2168.0504650000003
 21
518.92733499999997
  0
LINE
  8
_0-1_レイヤ___1
  6
CONTINUOUS
 62
    7
 10
2047.823525
 20
624.76066500000002
 11
2048.6675749999999
 21
625.60816499999999
  0
LINE
  8
_0-1_レイヤ___1
  6
CONTINUOUS
 62
    7
 10
2048.6675749999999
 20
625.60816499999999
 11
2049.515065
 21
626.45565499999998
  0
LINE
  8
_0-1_レイヤ___1
  6
CONTINUOUS
 62
    7
 10
2049.515065
 20
626.45565499999998
 11
2050.3625649999999
 21
626.45565499999998
  0
LINE
  8
_0-1_レイヤ___1
  6
CONTINUOUS
 62
    7
 10
2050.3625649999999
 20
626.45565499999998
 11
2051.2100550000005
 21
626.45565499999998
  0
LINE
  8
_0-1_レイヤ___1
  6
CONTINUOUS
 62
    7
 10
2051.2100550000005
 20
626.45565499999998
 11
2052.6914449999999
 21
626.45565499999998
  0
LINE
  8
_0-1_レイヤ___1
  6
CONTINUOUS
 62
    7
 10
2052.6914449999999
 20
626.45565499999998
 11
2054.1728350000003
 21
626.45565499999998
  0
LINE
  8
_0-1_レイヤ___1
  6
CONTINUOUS
 62
    7
 10
2054.1728350000003
 20
626.45565499999998
 11
2055.230485
 21
626.45565499999998
  0
LINE
  8
_0-1_レイヤ___1
  6
CONTINUOUS
 62
    7
 10
2055.230485
 20
626.45565499999998
 11
2056.288125
 21
626.45565499999998
  0
LINE
  8
_0-1_レイヤ___1
  6
CONTINUOUS
 62
    7
 10
2079.5735250000002
 20
624.34036500000002
 11
2079.7836750000001
 21
624.34036500000002
  0
LINE
  8
_0-1_レイヤ___1
  6
CONTINUOUS
 62
    7
 10
2079.7836750000001
 20
624.34036500000002
 11
2079.9972750000002
 21
624.34036500000002
  0
LINE
  8
_0-1_レイヤ___1
  6
CONTINUOUS
 62
    7
 10
2079.9972750000002
 20
624.34036500000002
 11
2079.9972750000002
 21
624.13021500000002
  0
LINE
  8
_0-1_レイヤ___1
  6
CONTINUOUS
 62
    7
 10
2079.9972750000002
 20
624.13021500000002
 11
2079.9972750000002
 21
623.91661499999998
  0
LINE
  8
_0-1_レイヤ___1
  6
CONTINUOUS
 62
    7
 10
2079.9972750000002
 20
623.91661499999998
 11
2080.2074250000001
 21
623.70302500000003
  0
LINE
  8
_0-1_レイヤ___1
  6
CONTINUOUS
 62
    7
 10
2080.2074250000001
 20
623.70302500000003
 11
2080.4175750000004
 21
623.49287500000003
  0
LINE
  8
_0-1_レイヤ___1
  6
CONTINUOUS
 62
    7
 10
2080.4175750000004
 20
623.49287500000003
 11
2080.4175750000004
 21
623.28272500000003
  0
LINE
  8
_0-1_レイヤ___1
  6
CONTINUOUS
 62
    7
 10
2080.4175750000004
 20
623.28272500000003
 11
2080.4175750000004
 21
623.06912499999999
  0
LINE
  8
_0-1_レイヤ___1
  6
CONTINUOUS
 62
    7
 10
2080.4175750000004
 20
623.06912499999999
 11
2080.6311650000002
 21
623.06912499999999
  0
LINE
  8
_0-1_レイヤ___1
  6
CONTINUOUS
 62
    7
 10
2080.6311650000002
 20
623.06912499999999
 11
2080.8413250000003
 21
623.06912499999999
  0
LINE
  8
_0-1_レイヤ___1
  6
CONTINUOUS
 62
    7
 10
2080.8413250000003
 20
623.06912499999999
 11
2080.8413250000003
 21
622.85552500000006
  0
LINE
  8
_0-1_レイヤ___1
  6
CONTINUOUS
 62
    7
 10
2080.8413250000003
 20
622.85552500000006
 11
2080.8413250000003
 21
622.64537500000006
  0
LINE
  8
_0-1_レイヤ___1
  6
CONTINUOUS
 62
    7
 10
2080.8413250000003
 20
622.64537500000006
 11
2081.0514750000002
 21
622.64537500000006
  0
LINE
  8
_0-1_レイヤ___1
  6
CONTINUOUS
 62
    7
 10
2081.0514750000002
 20
622.64537500000006
 11
2081.265065
 21
622.64537500000006
  0
LINE
  8
_0-1_レイヤ___1
  6
CONTINUOUS
 62
    7
 10
2081.265065
 20
622.64537500000006
 11
2081.265065
 21
622.43522499999995
  0
LINE
  8
_0-1_レイヤ___1
  6
CONTINUOUS
 62
    7
 10
2081.265065
 20
622.43522499999995
 11
2081.265065
 21
622.22163499999999
  0
LINE
  8
_0-1_レイヤ___1
  6
CONTINUOUS
 62
    7
 10
2081.265065
 20
622.22163499999999
 11
2081.6888150000004
 21
621.16398500000003
  0
LINE
  8
_0-1_レイヤ___1
  6
CONTINUOUS
 62
    7
 10
2081.6888150000004
 20
621.16398500000003
 11
2082.1125650000004
 21
620.10634500000003
  0
LINE
  8
_0-1_レイヤ___1
  6
CONTINUOUS
 62
    7
 10
2082.1125650000004
 20
620.10634500000003
 11
2091.8484050000002
 21
591.74287500000003
  0
LINE
  8
_0-1_レイヤ___1
  6
CONTINUOUS
 62
    7
 10
2091.8484050000002
 20
591.74287500000003
 11
2101.584245
 21
563.37940500000002
  0
LINE
  8
_0-1_レイヤ___1
  6
CONTINUOUS
 62
    7
 10
2101.584245
 20
563.37940500000002
 11
2102.0079850000002
 21
562.53190500000005
  0
LINE
  8
_0-1_レイヤ___1
  6
CONTINUOUS
 62
    7
 10
2102.0079850000002
 20
562.53190500000005
 11
2102.4317350000001
 21
561.68441499999994
  0
LINE
  8
_0-1_レイヤ___1
  6
CONTINUOUS
 62
    7
 10
2102.4317350000001
 20
561.68441499999994
 11
2102.855485
 21
560.62677499999995
  0
LINE
  8
_0-1_レイヤ___1
  6
CONTINUOUS
 62
    7
 10
2102.855485
 20
560.62677499999995
 11
2103.2792250000002
 21
559.56912499999999
  0
LINE
  8
_0-1_レイヤ___1
  6
CONTINUOUS
 62
    7
 10
2103.2792250000002
 20
559.56912499999999
 11
2105.1843650000001
 21
555.97244499999999
  0
LINE
  8
_0-1_レイヤ___1
  6
CONTINUOUS
 62
    7
 10
2105.1843650000001
 20
555.97244499999999
 11
2107.0895049999999
 21
552.37232499999993
  0
LINE
  8
_0-1_レイヤ___1
  6
CONTINUOUS
 62
    7
 10
2107.0895049999999
 20
552.37232499999993
 11
2107.5132450000001
 21
551.52482499999996
  0
LINE
  8
_0-1_レイヤ___1
  6
CONTINUOUS
 62
    7
 10
2107.5132450000001
 20
551.52482499999996
 11
2107.936995
 21
550.67733500000008
  0
LINE
  8
_0-1_レイヤ___1
  6
CONTINUOUS
 62
    7
 10
2075.7632450000001
 20
626.45565499999998
 11
2075.5530950000002
 21
626.45565499999998
  0
LINE
  8
_0-1_レイヤ___1
  6
CONTINUOUS
 62
    7
 10
2075.5530950000002
 20
626.45565499999998
 11
2075.3395049999999
 21
626.45565499999998
  0
LINE
  8
_0-1_レイヤ___1
  6
CONTINUOUS
 62
    7
 10
2075.3395049999999
 20
626.45565499999998
 11
2075.1259050000003
 21
626.45565499999998
  0
LINE
  8
_0-1_レイヤ___1
  6
CONTINUOUS
 62
    7
 10
2075.1259050000003
 20
626.45565499999998
 11
2074.915755
 21
626.45565499999998
  0
LINE
  8
_0-1_レイヤ___1
  6
CONTINUOUS
 62
    7
 10
2074.915755
 20
626.45565499999998
 11
2074.7056050000001
 21
626.45565499999998
  0
LINE
  8
_0-1_レイヤ___1
  6
CONTINUOUS
 62
    7
 10
2074.7056050000001
 20
626.45565499999998
 11
2074.4920050000001
 21
626.45565499999998
  0
LINE
  8
_0-1_レイヤ___1
  6
CONTINUOUS
 62
    7
 10
2074.4920050000001
 20
626.45565499999998
 11
2074.2784150000002
 21
626.45565499999998
  0
LINE
  8
_0-1_レイヤ___1
  6
CONTINUOUS
 62
    7
 10
2074.2784150000002
 20
626.45565499999998
 11
2074.0682650000003
 21
626.45565499999998
  0
LINE
  8
_0-1_レイヤ___1
  6
CONTINUOUS
 62
    7
 10
2074.0682650000003
 20
626.45565499999998
 11
2073.858115
 21
626.45565499999998
  0
LINE
  8
_0-1_レイヤ___1
  6
CONTINUOUS
 62
    7
 10
2073.858115
 20
626.45565499999998
 11
2073.644515
 21
626.45565499999998
  0
LINE
  8
_0-1_レイヤ___1
  6
CONTINUOUS
 62
    7
 10
2073.644515
 20
626.45565499999998
 11
2066.0239650000003
 21
626.45565499999998
  0
LINE
  8
_0-1_レイヤ___1
  6
CONTINUOUS
 62
    7
 10
2066.0239650000003
 20
626.45565499999998
 11
2058.4068550000002
 21
626.45565499999998
  0
LINE
  8
_0-1_レイヤ___1
  6
CONTINUOUS
 62
    7
 10
2058.4068550000002
 20
626.45565499999998
 11
2057.3492150000002
 21
626.45565499999998
  0
LINE
  8
_0-1_レイヤ___1
  6
CONTINUOUS
 62
    7
 10
2057.3492150000002
 20
626.45565499999998
 11
2056.288125
 21
626.45565499999998
  0
LINE
  8
_0-1_レイヤ___1
  6
CONTINUOUS
 62
    7
 10
2047.823525
 20
762.34400500000004
 11
2047.823525
 21
761.920255
  0
LINE
  8
_0-1_レイヤ___1
  6
CONTINUOUS
 62
    7
 10
2047.823525
 20
761.920255
 11
2047.823525
 21
761.499955
  0
LINE
  8
_0-1_レイヤ___1
  6
CONTINUOUS
 62
    7
 10
2047.823525
 20
761.499955
 11
2047.823525
 21
760.43886499999996
  0
LINE
  8
_0-1_レイヤ___1
  6
CONTINUOUS
 62
    7
 10
2047.823525
 20
760.43886499999996
 11
2047.823525
 21
759.38121499999988
  0
LINE
  8
_0-1_レイヤ___1
  6
CONTINUOUS
 62
    7
 10
2047.823525
 20
759.38121499999988
 11
2047.823525
 21
677.89093500000013
  0
LINE
  8
_0-1_レイヤ___1
  6
CONTINUOUS
 62
    7
 10
2047.823525
 20
677.89093500000013
 11
2047.823525
 21
596.40064500000005
  0
LINE
  8
_0-1_レイヤ___1
  6
CONTINUOUS
 62
    7
 10
2047.823525
 20
596.40064500000005
 11
2047.823525
 21
595.34299499999997
  0
LINE
  8
_0-1_レイヤ___1
  6
CONTINUOUS
 62
    7
 10
2047.823525
 20
595.34299499999997
 11
2047.823525
 21
594.28190500000005
  0
LINE
  8
_0-1_レイヤ___1
  6
CONTINUOUS
 62
    7
 10
2046.1285350000003
 20
593.01066500000002
 11
2045.2844850000001
 21
593.01066500000002
  0
LINE
  8
_0-1_レイヤ___1
  6
CONTINUOUS
 62
    7
 10
2045.2844850000001
 20
593.01066500000002
 11
2044.436995
 21
593.01066500000002
  0
LINE
  8
_0-1_レイヤ___1
  6
CONTINUOUS
 62
    7
 10
2044.436995
 20
593.01066500000002
 11
2036.392695
 21
593.43441499999994
  0
LINE
  8
_0-1_レイヤ___1
  6
CONTINUOUS
 62
    7
 10
2036.392695
 20
593.43441499999994
 11
2028.3484050000002
 21
593.85816499999999
  0
LINE
  8
_0-1_レイヤ___1
  6
CONTINUOUS
 62
    7
 10
2028.3484050000002
 20
593.85816499999999
 11
2027.5009050000003
 21
593.85816499999999
  0
LINE
  8
_0-1_レイヤ___1
  6
CONTINUOUS
 62
    7
 10
2027.5009050000003
 20
593.85816499999999
 11
2026.6568550000002
 21
593.85816499999999
  0
LINE
  8
_0-1_レイヤ___1
  6
CONTINUOUS
 62
    7
 10
2026.6568550000002
 20
593.85816499999999
 11
2025.599215
 21
594.06831499999998
  0
LINE
  8
_0-1_レイヤ___1
  6
CONTINUOUS
 62
    7
 10
2025.599215
 20
594.06831499999998
 11
2024.5381250000003
 21
594.28190500000005
  0
LINE
  8
_0-1_レイヤ___1
  6
CONTINUOUS
 62
    7
 10
2024.5381250000003
 20
594.28190500000005
 11
2019.460055
 21
595.54970500000002
  0
LINE
  8
_0-1_レイヤ___1
  6
CONTINUOUS
 62
    7
 10
2019.460055
 20
595.54970500000002
 11
2014.3785350000003
 21
596.82094499999994
  0
LINE
  8
_0-1_レイヤ___1
  6
CONTINUOUS
 62
    7
 10
2014.3785350000003
 20
596.82094499999994
 11
2013.5344850000001
 21
597.03109499999994
  0
LINE
  8
_0-1_レイヤ___1
  6
CONTINUOUS
 62
    7
 10
2013.5344850000001
 20
597.03109499999994
 11
2012.6869950000003
 21
597.244685
  0
LINE
  8
_0-1_レイヤ___1
  6
CONTINUOUS
 62
    7
 10
2012.6869950000003
 20
597.244685
 11
2011.8395050000001
 21
597.87858499999993
  0
LINE
  8
_0-1_レイヤ___1
  6
CONTINUOUS
 62
    7
 10
2011.8395050000001
 20
597.87858499999993
 11
2010.9920050000003
 21
598.51593500000001
  0
LINE
  8
_0-1_レイヤ___1
  6
CONTINUOUS
 62
    7
 10
2010.9920050000003
 20
598.51593500000001
 11
2010.778415
 21
598.51593500000001
  0
LINE
  8
_0-1_レイヤ___1
  6
CONTINUOUS
 62
    7
 10
2010.778415
 20
598.51593500000001
 11
2010.5682650000003
 21
598.51593500000001
  0
LINE
  8
_0-1_レイヤ___1
  6
CONTINUOUS
 62
    7
 10
2010.5682650000003
 20
598.51593500000001
 11
2010.5682650000003
 21
598.72608500000001
  0
LINE
  8
_0-1_レイヤ___1
  6
CONTINUOUS
 62
    7
 10
2010.5682650000003
 20
598.72608500000001
 11
2010.5682650000003
 21
598.93967500000008
  0
LINE
  8
_0-1_レイヤ___1
  6
CONTINUOUS
 62
    7
 10
2010.5682650000003
 20
598.93967500000008
 11
2010.3581150000002
 21
598.93967500000008
  0
LINE
  8
_0-1_レイヤ___1
  6
CONTINUOUS
 62
    7
 10
2010.3581150000002
 20
598.93967500000008
 11
2010.144515
 21
598.93967500000008
  0
LINE
  8
_0-1_レイヤ___1
  6
CONTINUOUS
 62
    7
 10
2010.144515
 20
598.93967500000008
 11
2010.144515
 21
599.15327500000001
  0
LINE
  8
_0-1_レイヤ___1
  6
CONTINUOUS
 62
    7
 10
2010.144515
 20
599.15327500000001
 11
2010.144515
 21
599.36342500000001
  0
LINE
  8
_0-1_レイヤ___1
  6
CONTINUOUS
 62
    7
 10
2010.144515
 20
599.36342500000001
 11
2009.9309150000001
 21
599.36342500000001
  0
LINE
  8
_0-1_レイヤ___1
  6
CONTINUOUS
 62
    7
 10
2009.9309150000001
 20
599.36342500000001
 11
2009.720765
 21
599.36342500000001
  0
LINE
  8
_0-1_レイヤ___1
  6
CONTINUOUS
 62
    7
 10
2009.720765
 20
599.36342500000001
 11
2009.5106150000001
 21
599.36342500000001
  0
LINE
  8
_0-1_レイヤ___1
  6
CONTINUOUS
 62
    7
 10
2009.5106150000001
 20
599.36342500000001
 11
2009.300465
 21
599.36342500000001
  0
LINE
  8
_0-1_レイヤ___1
  6
CONTINUOUS
 62
    7
 10
2009.300465
 20
599.36342500000001
 11
2009.300465
 21
599.57357500000001
  0
LINE
  8
_0-1_レイヤ___1
  6
CONTINUOUS
 62
    7
 10
2009.300465
 20
599.57357500000001
 11
2009.300465
 21
599.78717500000005
  0
LINE
  8
_0-1_レイヤ___1
  6
CONTINUOUS
 62
    7
 10
2009.300465
 20
599.78717500000005
 11
2009.0903150000004
 21
599.78717500000005
  0
LINE
  8
_0-1_レイヤ___1
  6
CONTINUOUS
 62
    7
 10
2009.0903150000004
 20
599.78717500000005
 11
2008.8767250000001
 21
599.78717500000005
  0
LINE
  8
_0-1_レイヤ___1
  6
CONTINUOUS
 62
    7
 10
2008.8767250000001
 20
599.78717500000005
 11
2008.8767250000001
 21
599.99732500000005
  0
LINE
  8
_0-1_レイヤ___1
  6
CONTINUOUS
 62
    7
 10
2008.8767250000001
 20
599.99732500000005
 11
2008.8767250000001
 21
600.20747499999993
  0
LINE
  8
_0-1_レイヤ___1
  6
CONTINUOUS
 62
    7
 10
2008.8767250000001
 20
600.20747499999993
 11
2008.6631250000003
 21
600.20747499999993
  0
LINE
  8
_0-1_レイヤ___1
  6
CONTINUOUS
 62
    7
 10
2008.6631250000003
 20
600.20747499999993
 11
2008.4529750000002
 21
600.20747499999993
  0
LINE
  8
_0-1_レイヤ___1
  6
CONTINUOUS
 62
    7
 10
2008.4529750000002
 20
600.20747499999993
 11
2008.242825
 21
600.20747499999993
  0
LINE
  8
_0-1_レイヤ___1
  6
CONTINUOUS
 62
    7
 10
2008.242825
 20
600.20747499999993
 11
2008.0292250000002
 21
600.20747499999993
  0
LINE
  8
_0-1_レイヤ___1
  6
CONTINUOUS
 62
    7
 10
2008.0292250000002
 20
600.20747499999993
 11
2008.0292250000002
 21
600.421065
  0
LINE
  8
_0-1_レイヤ___1
  6
CONTINUOUS
 62
    7
 10
2008.0292250000002
 20
600.421065
 11
2008.0292250000002
 21
600.631215
  0
LINE
  8
_0-1_レイヤ___1
  6
CONTINUOUS
 62
    7
 10
2008.0292250000002
 20
600.631215
 11
2007.8156349999999
 21
600.631215
  0
LINE
  8
_0-1_レイヤ___1
  6
CONTINUOUS
 62
    7
 10
2007.8156349999999
 20
600.631215
 11
2007.6054850000003
 21
600.631215
  0
LINE
  8
_0-1_レイヤ___1
  6
CONTINUOUS
 62
    7
 10
2007.6054850000003
 20
600.631215
 11
2007.6054850000003
 21
600.841365
  0
LINE
  8
_0-1_レイヤ___1
  6
CONTINUOUS
 62
    7
 10
2007.6054850000003
 20
600.841365
 11
2007.6054850000003
 21
601.05496500000004
  0
LINE
  8
_0-1_レイヤ___1
  6
CONTINUOUS
 62
    7
 10
2007.6054850000003
 20
601.05496500000004
 11
2007.3953250000002
 21
601.05496500000004
  0
LINE
  8
_0-1_レイヤ___1
  6
CONTINUOUS
 62
    7
 10
2007.3953250000002
 20
601.05496500000004
 11
2007.1817350000001
 21
601.05496500000004
  0
LINE
  8
_0-1_レイヤ___1
  6
CONTINUOUS
 62
    7
 10
2007.1817350000001
 20
601.05496500000004
 11
2006.9681350000001
 21
601.26856500000008
  0
LINE
  8
_0-1_レイヤ___1
  6
CONTINUOUS
 62
    7
 10
2006.9681350000001
 20
601.26856500000008
 11
2006.7579850000002
 21
601.47871499999997
  0
LINE
  8
_0-1_レイヤ___1
  6
CONTINUOUS
 62
    7
 10
2006.7579850000002
 20
601.47871499999997
 11
2006.5478350000001
 21
601.47871499999997
  0
LINE
  8
_0-1_レイヤ___1
  6
CONTINUOUS
 62
    7
 10
2006.5478350000001
 20
601.47871499999997
 11
2006.3342450000002
 21
601.47871499999997
  0
LINE
  8
_0-1_レイヤ___1
  6
CONTINUOUS
 62
    7
 10
2006.3342450000002
 20
601.47871499999997
 11
2006.3342450000002
 21
601.68886499999996
  0
LINE
  8
_0-1_レイヤ___1
  6
CONTINUOUS
 62
    7
 10
2006.3342450000002
 20
601.68886499999996
 11
2006.3342450000002
 21
601.90245499999992
  0
LINE
  8
_0-1_レイヤ___1
  6
CONTINUOUS
 62
    7
 10
2006.3342450000002
 20
601.90245499999992
 11
2004.4291050000002
 21
603.170255
  0
LINE
  8
_0-1_レイヤ___1
  6
CONTINUOUS
 62
    7
 10
2004.4291050000002
 20
603.170255
 11
2002.5239650000001
 21
604.44149500000003
  0
LINE
  8
_0-1_レイヤ___1
  6
CONTINUOUS
 62
    7
 10
2002.5239650000001
 20
604.44149500000003
 11
2001.890065
 21
605.07883500000003
  0
LINE
  8
_0-1_レイヤ___1
  6
CONTINUOUS
 62
    7
 10
2001.890065
 20
605.07883500000003
 11
2001.256165
 21
605.71273499999995
  0
LINE
  8
_0-1_レイヤ___1
  6
CONTINUOUS
 62
    7
 10
2001.256165
 20
605.71273499999995
 11
2000.6222750000002
 21
606.56022499999995
  0
LINE
  8
_0-1_レイヤ___1
  6
CONTINUOUS
 62
    7
 10
2000.6222750000002
 20
606.56022499999995
 11
1999.9849250000002
 21
607.40427499999998
  0
LINE
  8
_0-1_レイヤ___1
  6
CONTINUOUS
 62
    7
 10
1999.9849250000002
 20
607.40427499999998
 11
1998.7136850000002
 21
609.09581500000002
  0
LINE
  8
_0-1_レイヤ___1
  6
CONTINUOUS
 62
    7
 10
1998.7136850000002
 20
609.09581500000002
 11
1997.4458950000003
 21
610.79080499999998
  0
LINE
  8
_0-1_レイヤ___1
  6
CONTINUOUS
 62
    7
 10
1997.4458950000003
 20
610.79080499999998
 11
1997.0221450000004
 21
611.42470500000002
  0
LINE
  8
_0-1_レイヤ___1
  6
CONTINUOUS
 62
    7
 10
1997.0221450000004
 20
611.42470500000002
 11
1996.598405
 21
612.06204500000001
  0
LINE
  8
_0-1_レイヤ___1
  6
CONTINUOUS
 62
    7
 10
1996.598405
 20
612.06204500000001
 11
1995.540755
 21
613.96718499999997
  0
LINE
  8
_0-1_レイヤ___1
  6
CONTINUOUS
 62
    7
 10
1995.540755
 20
613.96718499999997
 11
1994.4831150000002
 21
615.87232500000005
  0
LINE
  8
_0-1_レイヤ___1
  6
CONTINUOUS
 62
    7
 10
1994.4831150000002
 20
615.87232500000005
 11
1994.0593650000003
 21
616.71981500000004
  0
LINE
  8
_0-1_レイヤ___1
  6
CONTINUOUS
 62
    7
 10
1994.0593650000003
 20
616.71981500000004
 11
1993.6356150000001
 21
617.56730499999992
  0
LINE
  8
_0-1_レイヤ___1
  6
CONTINUOUS
 62
    7
 10
1993.6356150000001
 20
617.56730499999992
 11
1993.4220250000001
 21
618.624955
  0
LINE
  8
_0-1_レイヤ___1
  6
CONTINUOUS
 62
    7
 10
1993.4220250000001
 20
618.624955
 11
1993.211875
 21
619.68259499999999
  0
LINE
  8
_0-1_レイヤ___1
  6
CONTINUOUS
 62
    7
 10
1993.211875
 20
619.68259499999999
 11
1992.1542250000002
 21
624.5505149999999
  0
LINE
  8
_0-1_レイヤ___1
  6
CONTINUOUS
 62
    7
 10
1992.1542250000002
 20
624.5505149999999
 11
1991.0965850000002
 21
629.41843499999993
  0
LINE
  8
_0-1_レイヤ___1
  6
CONTINUOUS
 62
    7
 10
1991.0965850000002
 20
629.41843499999993
 11
1991.0965850000002
 21
630.47608500000001
  0
LINE
  8
_0-1_レイヤ___1
  6
CONTINUOUS
 62
    7
 10
1991.0965850000002
 20
630.47608500000001
 11
1991.0965850000002
 21
631.53717499999993
  0
LINE
  8
_0-1_レイヤ___1
  6
CONTINUOUS
 62
    7
 10
1991.0965850000002
 20
631.53717499999993
 11
1991.0965850000002
 21
632.38466500000004
  0
LINE
  8
_0-1_レイヤ___1
  6
CONTINUOUS
 62
    7
 10
1991.0965850000002
 20
632.38466500000004
 11
1991.0965850000002
 21
633.22871499999997
  0
LINE
  8
_0-1_レイヤ___1
  6
CONTINUOUS
 62
    7
 10
1991.0965850000002
 20
633.22871499999997
 11
1991.0965850000002
 21
689.1081650000001
  0
LINE
  8
_0-1_レイヤ___1
  6
CONTINUOUS
 62
    7
 10
1991.0965850000002
 20
689.1081650000001
 11
1991.0965850000002
 21
744.98760500000003
  0
LINE
  8
_0-1_レイヤ___1
  6
CONTINUOUS
 62
    7
 10
1991.0965850000002
 20
744.98760500000003
 11
1991.0965850000002
 21
746.045255
  0
LINE
  8
_0-1_レイヤ___1
  6
CONTINUOUS
 62
    7
 10
1991.0965850000002
 20
746.045255
 11
1991.0965850000002
 21
747.10634499999992
  0
LINE
  8
_0-1_レイヤ___1
  6
CONTINUOUS
 62
    7
 10
2532.1143750000001
 20
748.79788500000006
 11
2531.480485
 21
747.31649500000003
  0
LINE
  8
_0-1_レイヤ___1
  6
CONTINUOUS
 62
    7
 10
2531.480485
 20
747.31649500000003
 11
2530.8465850000002
 21
745.835105
  0
LINE
  8
_0-1_レイヤ___1
  6
CONTINUOUS
 62
    7
 10
2530.8465850000002
 20
745.835105
 11
2530.6364350000003
 21
744.77745499999992
  0
LINE
  8
_0-1_レイヤ___1
  6
CONTINUOUS
 62
    7
 10
2530.6364350000003
 20
744.77745499999992
 11
2530.4228350000003
 21
743.71981500000004
  0
LINE
  8
_0-1_レイヤ___1
  6
CONTINUOUS
 62
    7
 10
2530.4228350000003
 20
743.71981500000004
 11
2529.5753450000002
 21
686.78272499999991
  0
LINE
  8
_0-1_レイヤ___1
  6
CONTINUOUS
 62
    7
 10
2529.5753450000002
 20
686.78272499999991
 11
2528.7278450000003
 21
629.84218499999997
  0
LINE
  8
_0-1_レイヤ___1
  6
CONTINUOUS
 62
    7
 10
2528.7278450000003
 20
629.84218499999997
 11
2528.7278450000003
 21
628.994685
  0
LINE
  8
_0-1_レイヤ___1
  6
CONTINUOUS
 62
    7
 10
2528.7278450000003
 20
628.994685
 11
2528.7278450000003
 21
628.15064499999994
  0
LINE
  8
_0-1_レイヤ___1
  6
CONTINUOUS
 62
    7
 10
2528.7278450000003
 20
628.15064499999994
 11
2527.8803550000002
 21
627.30314499999997
  0
LINE
  8
_0-1_レイヤ___1
  6
CONTINUOUS
 62
    7
 10
2527.8803550000002
 20
627.30314499999997
 11
2527.0363050000001
 21
626.45565499999998
  0
LINE
  8
_0-1_レイヤ___1
  6
CONTINUOUS
 62
    7
 10
2527.0363050000001
 20
626.45565499999998
 11
2518.144515
 21
626.45565499999998
  0
LINE
  8
_0-1_レイヤ___1
  6
CONTINUOUS
 62
    7
 10
2518.144515
 20
626.45565499999998
 11
2509.2561650000002
 21
626.45565499999998
  0
LINE
  8
_0-1_レイヤ___1
  6
CONTINUOUS
 62
    7
 10
2509.2561650000002
 20
626.45565499999998
 11
2508.4086750000001
 21
626.03190499999994
  0
LINE
  8
_0-1_レイヤ___1
  6
CONTINUOUS
 62
    7
 10
2508.4086750000001
 20
626.03190499999994
 11
2507.561185
 21
625.60816499999999
  0
LINE
  8
_0-1_レイヤ___1
  6
CONTINUOUS
 62
    7
 10
2507.561185
 20
625.60816499999999
 11
2506.0797950000001
 21
624.97426500000006
  0
LINE
  8
_0-1_レイヤ___1
  6
CONTINUOUS
 62
    7
 10
2506.0797950000001
 20
624.97426500000006
 11
2504.5984050000002
 21
624.34036500000002
  0
LINE
  8
_0-1_レイヤ___1
  6
CONTINUOUS
 62
    7
 10
2504.5984050000002
 20
624.34036500000002
 11
2504.5984050000002
 21
624.13021500000002
  0
LINE
  8
_0-1_レイヤ___1
  6
CONTINUOUS
 62
    7
 10
2504.5984050000002
 20
624.13021500000002
 11
2504.5984050000002
 21
623.91661499999998
  0
LINE
  8
_0-1_レイヤ___1
  6
CONTINUOUS
 62
    7
 10
2504.5984050000002
 20
623.91661499999998
 11
2504.5984050000002
 21
623.70302500000003
  0
LINE
  8
_0-1_レイヤ___1
  6
CONTINUOUS
 62
    7
 10
2504.5984050000002
 20
623.70302500000003
 11
2504.5984050000002
 21
623.49287500000003
  0
LINE
  8
_0-1_レイヤ___1
  6
CONTINUOUS
 62
    7
 10
2504.5984050000002
 20
623.49287500000003
 11
2504.3848050000001
 21
623.49287500000003
  0
LINE
  8
_0-1_レイヤ___1
  6
CONTINUOUS
 62
    7
 10
2504.3848050000001
 20
623.49287500000003
 11
2504.1746550000003
 21
623.49287500000003
  0
LINE
  8
_0-1_レイヤ___1
  6
CONTINUOUS
 62
    7
 10
2504.1746550000003
 20
623.49287500000003
 11
2504.1746550000003
 21
623.28272500000003
  0
LINE
  8
_0-1_レイヤ___1
  6
CONTINUOUS
 62
    7
 10
2504.1746550000003
 20
623.28272500000003
 11
2504.1746550000003
 21
623.06912499999999
  0
LINE
  8
_0-1_レイヤ___1
  6
CONTINUOUS
 62
    7
 10
2504.1746550000003
 20
623.06912499999999
 11
2504.1746550000003
 21
622.85552500000006
  0
LINE
  8
_0-1_レイヤ___1
  6
CONTINUOUS
 62
    7
 10
2504.1746550000003
 20
622.85552500000006
 11
2504.1746550000003
 21
622.64537500000006
  0
LINE
  8
_0-1_レイヤ___1
  6
CONTINUOUS
 62
    7
 10
2504.1746550000003
 20
622.64537500000006
 11
2503.9645049999999
 21
622.43522499999995
  0
LINE
  8
_0-1_レイヤ___1
  6
CONTINUOUS
 62
    7
 10
2503.9645049999999
 20
622.43522499999995
 11
2503.7509050000003
 21
622.22163499999999
  0
LINE
  8
_0-1_レイヤ___1
  6
CONTINUOUS
 62
    7
 10
2503.7509050000003
 20
622.22163499999999
 11
2503.3306050000001
 21
621.37413500000002
  0
LINE
  8
_0-1_レイヤ___1
  6
CONTINUOUS
 62
    7
 10
2503.3306050000001
 20
621.37413500000002
 11
2502.9068550000002
 21
620.53009500000007
  0
LINE
  8
_0-1_レイヤ___1
  6
CONTINUOUS
 62
    7
 10
2502.9068550000002
 20
620.53009500000007
 11
2502.9068550000002
 21
619.68259499999999
  0
LINE
  8
_0-1_レイヤ___1
  6
CONTINUOUS
 62
    7
 10
2502.9068550000002
 20
619.68259499999999
 11
2502.9068550000002
 21
618.835105
  0
LINE
  8
_0-1_レイヤ___1
  6
CONTINUOUS
 62
    7
 10
2502.9068550000002
 20
618.835105
 11
2499.520325
 21
569.72871499999997
  0
LINE
  8
_0-1_レイヤ___1
  6
CONTINUOUS
 62
    7
 10
2499.520325
 20
569.72871499999997
 11
2496.1338049999999
 21
520.62232500000005
  0
LINE
  8
_0-1_レイヤ___1
  6
CONTINUOUS
 62
    7
 10
2496.1338049999999
 20
520.62232500000005
 11
2496.1338049999999
 21
519.77482499999996
  0
LINE
  8
_0-1_レイヤ___1
  6
CONTINUOUS
 62
    7
 10
2496.1338049999999
 20
519.77482499999996
 11
2496.1338049999999
 21
518.92733499999997
  0
LINE
  8
_0-1_レイヤ___1
  6
CONTINUOUS
 62
    7
 10
2174.8235250000002
 20
526.54788500000006
 11
2175.2472750000002
 21
527.60552500000006
  0
LINE
  8
_0-1_レイヤ___1
  6
CONTINUOUS
 62
    7
 10
2175.2472750000002
 20
527.60552500000006
 11
2175.6675750000004
 21
528.66661499999998
  0
LINE
  8
_0-1_レイヤ___1
  6
CONTINUOUS
 62
    7
 10
2175.6675750000004
 20
528.66661499999998
 11
2175.8811650000002
 21
528.88021500000002
  0
LINE
  8
_0-1_レイヤ___1
  6
CONTINUOUS
 62
    7
 10
2175.8811650000002
 20
528.88021500000002
 11
2176.0913250000003
 21
529.09036500000002
  0
LINE
  8
_0-1_レイヤ___1
  6
CONTINUOUS
 62
    7
 10
2176.0913250000003
 20
529.09036500000002
 11
2176.515065
 21
529.93441500000006
  0
LINE
  8
_0-1_レイヤ___1
  6
CONTINUOUS
 62
    7
 10
2176.515065
 20
529.93441500000006
 11
2176.938815
 21
530.78190499999994
  0
LINE
  8
_0-1_レイヤ___1
  6
CONTINUOUS
 62
    7
 10
2176.938815
 20
530.78190499999994
 11
2177.7863050000001
 21
531.20565499999998
  0
LINE
  8
_0-1_レイヤ___1
  6
CONTINUOUS
 62
    7
 10
2177.7863050000001
 20
531.20565499999998
 11
2178.6338049999999
 21
531.62940500000002
  0
LINE
  8
_0-1_レイヤ___1
  6
CONTINUOUS
 62
    7
 10
2178.6338049999999
 20
531.62940500000002
 11
2179.0575450000001
 21
531.84299499999997
  0
LINE
  8
_0-1_レイヤ___1
  6
CONTINUOUS
 62
    7
 10
2179.0575450000001
 20
531.84299499999997
 11
2179.4778450000003
 21
532.05314499999997
  0
LINE
  8
_0-1_レイヤ___1
  6
CONTINUOUS
 62
    7
 10
2179.4778450000003
 20
532.05314499999997
 11
2180.3253450000002
 21
532.26329499999997
  0
LINE
  8
_0-1_レイヤ___1
  6
CONTINUOUS
 62
    7
 10
2180.3253450000002
 20
532.26329499999997
 11
2181.1728350000003
 21
532.47689500000001
  0
LINE
  8
_0-1_レイヤ___1
  6
CONTINUOUS
 62
    7
 10
2167.2029750000002
 20
527.39537499999994
 11
2166.9928250000003
 21
528.24287499999991
  0
LINE
  8
_0-1_レイヤ___1
  6
CONTINUOUS
 62
    7
 10
2166.9928250000003
 20
528.24287499999991
 11
2166.7792250000002
 21
529.09036500000002
  0
LINE
  8
_0-1_レイヤ___1
  6
CONTINUOUS
 62
    7
 10
2166.7792250000002
 20
529.09036500000002
 11
2166.5656349999999
 21
529.30051500000002
  0
LINE
  8
_0-1_レイヤ___1
  6
CONTINUOUS
 62
    7
 10
2166.5656349999999
 20
529.30051500000002
 11
2166.355485
 21
529.51066500000002
  0
LINE
  8
_0-1_レイヤ___1
  6
CONTINUOUS
 62
    7
 10
2166.355485
 20
529.51066500000002
 11
2165.9317350000001
 21
530.56831499999998
  0
LINE
  8
_0-1_レイヤ___1
  6
CONTINUOUS
 62
    7
 10
2165.9317350000001
 20
530.56831499999998
 11
2165.5079850000002
 21
531.62940500000002
  0
LINE
  8
_0-1_レイヤ___1
  6
CONTINUOUS
 62
    7
 10
2165.5079850000002
 20
531.62940500000002
 11
2164.663935
 21
531.84299499999997
  0
LINE
  8
_0-1_レイヤ___1
  6
CONTINUOUS
 62
    7
 10
2164.663935
 20
531.84299499999997
 11
2163.8164450000004
 21
532.05314499999997
  0
LINE
  8
_0-1_レイヤ___1
  6
CONTINUOUS
 62
    7
 10
2163.8164450000004
 20
532.05314499999997
 11
2163.6028449999999
 21
532.26329499999997
  0
LINE
  8
_0-1_レイヤ___1
  6
CONTINUOUS
 62
    7
 10
2163.6028449999999
 20
532.26329499999997
 11
2163.3926950000005
 21
532.47689500000001
  0
LINE
  8
_0-1_レイヤ___1
  6
CONTINUOUS
 62
    7
 10
2163.3926950000005
 20
532.47689500000001
 11
2162.335055
 21
532.89719500000001
  0
LINE
  8
_0-1_レイヤ___1
  6
CONTINUOUS
 62
    7
 10
2162.335055
 20
532.89719500000001
 11
2161.2739649999999
 21
533.32094499999994
  0
LINE
  8
_0-1_レイヤ___1
  6
CONTINUOUS
 62
    7
 10
2161.2739649999999
 20
533.32094499999994
 11
2160.4264750000002
 21
533.32094499999994
  0
LINE
  8
_0-1_レイヤ___1
  6
CONTINUOUS
 62
    7
 10
2160.4264750000002
 20
533.32094499999994
 11
2159.5824250000001
 21
533.32094499999994
  0
LINE
  8
_0-1_レイヤ___1
  6
CONTINUOUS
 62
    7
 10
2159.5824250000001
 20
533.32094499999994
 11
2150.2703250000004
 21
533.744685
  0
LINE
  8
_0-1_レイヤ___1
  6
CONTINUOUS
 62
    7
 10
2150.2703250000004
 20
533.744685
 11
2140.9547950000001
 21
534.16843500000004
  0
LINE
  8
_0-1_レイヤ___1
  6
CONTINUOUS
 62
    7
 10
2140.9547950000001
 20
534.16843500000004
 11
2140.7411950000001
 21
534.16843500000004
  0
LINE
  8
_0-1_レイヤ___1
  6
CONTINUOUS
 62
    7
 10
2140.7411950000001
 20
534.16843500000004
 11
2140.5310450000002
 21
534.16843500000004
  0
LINE
  8
_0-1_レイヤ___1
  6
CONTINUOUS
 62
    7
 10
2140.5310450000002
 20
534.16843500000004
 11
2140.3208950000003
 21
534.16843500000004
  0
LINE
  8
_0-1_レイヤ___1
  6
CONTINUOUS
 62
    7
 10
2140.3208950000003
 20
534.16843500000004
 11
2140.1072950000002
 21
534.16843500000004
  0
LINE
  8
_0-1_レイヤ___1
  6
CONTINUOUS
 62
    7
 10
2140.1072950000002
 20
534.16843500000004
 11
2139.8971450000004
 21
534.16843500000004
  0
LINE
  8
_0-1_レイヤ___1
  6
CONTINUOUS
 62
    7
 10
2139.8971450000004
 20
534.16843500000004
 11
2139.686995
 21
534.16843500000004
  0
LINE
  8
_0-1_レイヤ___1
  6
CONTINUOUS
 62
    7
 10
2139.686995
 20
534.16843500000004
 11
2139.4734050000002
 21
534.16843500000004
  0
LINE
  8
_0-1_レイヤ___1
  6
CONTINUOUS
 62
    7
 10
2139.4734050000002
 20
534.16843500000004
 11
2139.2632450000001
 21
534.16843500000004
  0
LINE
  8
_0-1_レイヤ___1
  6
CONTINUOUS
 62
    7
 10
2139.2632450000001
 20
534.16843500000004
 11
2139.0530950000002
 21
534.16843500000004
  0
LINE
  8
_0-1_レイヤ___1
  6
CONTINUOUS
 62
    7
 10
2139.0530950000002
 20
534.16843500000004
 11
2138.8395050000004
 21
534.16843500000004
  0
LINE
  8
_0-1_レイヤ___1
  6
CONTINUOUS
 62
    7
 10
2138.8395050000004
 20
534.16843500000004
 11
2138.6259049999999
 21
534.16843500000004
  0
LINE
  8
_0-1_レイヤ___1
  6
CONTINUOUS
 62
    7
 10
2138.6259049999999
 20
534.16843500000004
 11
2138.415755
 21
534.16843500000004
  0
LINE
  8
_0-1_レイヤ___1
  6
CONTINUOUS
 62
    7
 10
2138.415755
 20
534.16843500000004
 11
2138.415755
 21
534.37858499999993
  0
LINE
  8
_0-1_レイヤ___1
  6
CONTINUOUS
 62
    7
 10
2138.415755
 20
534.37858499999993
 11
2138.415755
 21
534.59218499999997
  0
LINE
  8
_0-1_レイヤ___1
  6
CONTINUOUS
 62
    7
 10
2138.415755
 20
534.59218499999997
 11
2138.2056050000001
 21
534.59218499999997
  0
LINE
  8
_0-1_レイヤ___1
  6
CONTINUOUS
 62
    7
 10
2138.2056050000001
 20
534.59218499999997
 11
2137.9920050000001
 21
534.59218499999997
  0
LINE
  8
_0-1_レイヤ___1
  6
CONTINUOUS
 62
    7
 10
2137.9920050000001
 20
534.59218499999997
 11
2137.7784150000002
 21
534.59218499999997
  0
LINE
  8
_0-1_レイヤ___1
  6
CONTINUOUS
 62
    7
 10
2137.7784150000002
 20
534.59218499999997
 11
2137.5682650000003
 21
534.59218499999997
  0
LINE
  8
_0-1_レイヤ___1
  6
CONTINUOUS
 62
    7
 10
2137.5682650000003
 20
534.59218499999997
 11
2137.358115
 21
534.59218499999997
  0
LINE
  8
_0-1_レイヤ___1
  6
CONTINUOUS
 62
    7
 10
2137.358115
 20
534.59218499999997
 11
2137.1445150000004
 21
534.59218499999997
  0
LINE
  8
_0-1_レイヤ___1
  6
CONTINUOUS
 62
    7
 10
2137.1445150000004
 20
534.59218499999997
 11
2136.9309149999999
 21
534.59218499999997
  0
LINE
  8
_0-1_レイヤ___1
  6
CONTINUOUS
 62
    7
 10
2136.9309149999999
 20
534.59218499999997
 11
2136.720765
 21
534.59218499999997
  0
LINE
  8
_0-1_レイヤ___1
  6
CONTINUOUS
 62
    7
 10
2136.720765
 20
534.59218499999997
 11
2136.5106150000001
 21
534.59218499999997
  0
LINE
  8
_0-1_レイヤ___1
  6
CONTINUOUS
 62
    7
 10
2136.5106150000001
 20
534.59218499999997
 11
2136.3004650000003
 21
534.59218499999997
  0
LINE
  8
_0-1_レイヤ___1
  6
CONTINUOUS
 62
    7
 10
2136.3004650000003
 20
534.59218499999997
 11
2136.0903150000004
 21
534.59218499999997
  0
LINE
  8
_0-1_レイヤ___1
  6
CONTINUOUS
 62
    7
 10
2136.0903150000004
 20
534.59218499999997
 11
2135.8767250000001
 21
534.59218499999997
  0
LINE
  8
_0-1_レイヤ___1
  6
CONTINUOUS
 62
    7
 10
2135.8767250000001
 20
534.59218499999997
 11
2135.663125
 21
534.59218499999997
  0
LINE
  8
_0-1_レイヤ___1
  6
CONTINUOUS
 62
    7
 10
2135.663125
 20
534.59218499999997
 11
2135.4529750000002
 21
534.59218499999997
  0
LINE
  8
_0-1_レイヤ___1
  6
CONTINUOUS
 62
    7
 10
2135.4529750000002
 20
534.59218499999997
 11
2135.2428250000003
 21
534.59218499999997
  0
LINE
  8
_0-1_レイヤ___1
  6
CONTINUOUS
 62
    7
 10
2135.2428250000003
 20
534.59218499999997
 11
2135.0292250000002
 21
534.59218499999997
  0
LINE
  8
_0-1_レイヤ___1
  6
CONTINUOUS
 62
    7
 10
2135.0292250000002
 20
534.59218499999997
 11
2134.8156350000004
 21
534.59218499999997
  0
LINE
  8
_0-1_レイヤ___1
  6
CONTINUOUS
 62
    7
 10
2134.8156350000004
 20
534.59218499999997
 11
2134.605485
 21
534.59218499999997
  0
LINE
  8
_0-1_レイヤ___1
  6
CONTINUOUS
 62
    7
 10
2134.605485
 20
534.59218499999997
 11
2134.605485
 21
534.80577500000004
  0
LINE
  8
_0-1_レイヤ___1
  6
CONTINUOUS
 62
    7
 10
2134.605485
 20
534.80577500000004
 11
2134.605485
 21
535.01593500000001
  0
LINE
  8
_0-1_レイヤ___1
  6
CONTINUOUS
 62
    7
 10
2134.605485
 20
535.01593500000001
 11
2134.395325
 21
535.01593500000001
  0
LINE
  8
_0-1_レイヤ___1
  6
CONTINUOUS
 62
    7
 10
2134.395325
 20
535.01593500000001
 11
2134.1817350000001
 21
535.01593500000001
  0
LINE
  8
_0-1_レイヤ___1
  6
CONTINUOUS
 62
    7
 10
2134.1817350000001
 20
535.01593500000001
 11
2133.9681350000001
 21
535.01593500000001
  0
LINE
  8
_0-1_レイヤ___1
  6
CONTINUOUS
 62
    7
 10
2133.9681350000001
 20
535.01593500000001
 11
2133.7579850000002
 21
535.01593500000001
  0
LINE
  8
_0-1_レイヤ___1
  6
CONTINUOUS
 62
    7
 10
2133.7579850000002
 20
535.01593500000001
 11
2132.7003450000002
 21
535.01593500000001
  0
LINE
  8
_0-1_レイヤ___1
  6
CONTINUOUS
 62
    7
 10
2132.7003450000002
 20
535.01593500000001
 11
2131.642695
 21
535.01593500000001
  0
LINE
  8
_0-1_レイヤ___1
  6
CONTINUOUS
 62
    7
 10
2131.642695
 20
535.01593500000001
 11
2130.7952050000004
 21
535.43967499999997
  0
LINE
  8
_0-1_レイヤ___1
  6
CONTINUOUS
 62
    7
 10
2130.7952050000004
 20
535.43967499999997
 11
2129.9477150000002
 21
535.86342500000001
  0
LINE
  8
_0-1_レイヤ___1
  6
CONTINUOUS
 62
    7
 10
2129.9477150000002
 20
535.86342500000001
 11
2129.5239650000003
 21
535.86342500000001
  0
LINE
  8
_0-1_レイヤ___1
  6
CONTINUOUS
 62
    7
 10
2129.5239650000003
 20
535.86342500000001
 11
2129.1036650000001
 21
535.86342500000001
  0
LINE
  8
_0-1_レイヤ___1
  6
CONTINUOUS
 62
    7
 10
2129.1036650000001
 20
535.86342500000001
 11
2128.0425749999999
 21
536.28717500000005
  0
LINE
  8
_0-1_レイヤ___1
  6
CONTINUOUS
 62
    7
 10
2128.0425749999999
 20
536.28717500000005
 11
2126.9849250000002
 21
536.70747499999993
  0
LINE
  8
_0-1_レイヤ___1
  6
CONTINUOUS
 62
    7
 10
2477.5061650000002
 20
535.01593500000001
 11
2477.2925750000004
 21
534.80577500000004
  0
LINE
  8
_0-1_レイヤ___1
  6
CONTINUOUS
 62
    7
 10
2477.2925750000004
 20
534.80577500000004
 11
2477.0824250000001
 21
534.59218499999997
  0
LINE
  8
_0-1_レイヤ___1
  6
CONTINUOUS
 62
    7
 10
2477.0824250000001
 20
534.59218499999997
 11
2476.8722750000002
 21
534.59218499999997
  0
LINE
  8
_0-1_レイヤ___1
  6
CONTINUOUS
 62
    7
 10
2476.8722750000002
 20
534.59218499999997
 11
2476.6586750000001
 21
534.59218499999997
  0
LINE
  8
_0-1_レイヤ___1
  6
CONTINUOUS
 62
    7
 10
2476.6586750000001
 20
534.59218499999997
 11
2476.6586750000001
 21
534.37858499999993
  0
LINE
  8
_0-1_レイヤ___1
  6
CONTINUOUS
 62
    7
 10
2476.6586750000001
 20
534.37858499999993
 11
2476.6586750000001
 21
534.16843500000004
  0
LINE
  8
_0-1_レイヤ___1
  6
CONTINUOUS
 62
    7
 10
2476.6586750000001
 20
534.16843500000004
 11
2475.811185
 21
533.744685
  0
LINE
  8
_0-1_レイヤ___1
  6
CONTINUOUS
 62
    7
 10
2475.811185
 20
533.744685
 11
2474.9671350000003
 21
533.32094499999994
  0
LINE
  8
_0-1_レイヤ___1
  6
CONTINUOUS
 62
    7
 10
2474.9671350000003
 20
533.32094499999994
 11
2473.9094850000001
 21
533.11079499999994
  0
LINE
  8
_0-1_レイヤ___1
  6
CONTINUOUS
 62
    7
 10
2473.9094850000001
 20
533.11079499999994
 11
2472.8484050000002
 21
532.90064499999994
  0
LINE
  8
_0-1_レイヤ___1
  6
CONTINUOUS
 62
    7
 10
2472.8484050000002
 20
532.90064499999994
 11
2470.733115
 21
532.26329499999997
  0
LINE
  8
_0-1_レイヤ___1
  6
CONTINUOUS
 62
    7
 10
2470.733115
 20
532.26329499999997
 11
2468.6143750000001
 21
531.62940500000002
  0
LINE
  8
_0-1_レイヤ___1
  6
CONTINUOUS
 62
    7
 10
2468.6143750000001
 20
531.62940500000002
 11
2467.5567350000001
 21
531.41580499999998
  0
LINE
  8
_0-1_レイヤ___1
  6
CONTINUOUS
 62
    7
 10
2467.5567350000001
 20
531.41580499999998
 11
2466.4990849999999
 21
531.20565499999998
  0
LINE
  8
_0-1_レイヤ___1
  6
CONTINUOUS
 62
    7
 10
2466.4990849999999
 20
531.20565499999998
 11
2465.6515950000003
 21
530.99550499999998
  0
LINE
  8
_0-1_レイヤ___1
  6
CONTINUOUS
 62
    7
 10
2465.6515950000003
 20
530.99550499999998
 11
2464.8041050000002
 21
530.78190499999994
  0
LINE
  8
_0-1_レイヤ___1
  6
CONTINUOUS
 62
    7
 10
2464.8041050000002
 20
530.78190499999994
 11
2463.5328650000001
 21
530.56831499999998
  0
LINE
  8
_0-1_レイヤ___1
  6
CONTINUOUS
 62
    7
 10
2463.5328650000001
 20
530.56831499999998
 11
2462.2650650000005
 21
530.35816499999999
  0
LINE
  8
_0-1_レイヤ___1
  6
CONTINUOUS
 62
    7
 10
2462.2650650000005
 20
530.35816499999999
 11
2462.0514750000002
 21
530.35816499999999
  0
LINE
  8
_0-1_レイヤ___1
  6
CONTINUOUS
 62
    7
 10
2462.0514750000002
 20
530.35816499999999
 11
2461.8413249999999
 21
530.35816499999999
  0
LINE
  8
_0-1_レイヤ___1
  6
CONTINUOUS
 62
    7
 10
2461.8413249999999
 20
530.35816499999999
 11
2461.6311650000002
 21
530.35816499999999
  0
LINE
  8
_0-1_レイヤ___1
  6
CONTINUOUS
 62
    7
 10
2461.6311650000002
 20
530.35816499999999
 11
2461.4175749999999
 21
530.35816499999999
  0
LINE
  8
_0-1_レイヤ___1
  6
CONTINUOUS
 62
    7
 10
2461.4175749999999
 20
530.35816499999999
 11
2461.2074250000001
 21
530.35816499999999
  0
LINE
  8
_0-1_レイヤ___1
  6
CONTINUOUS
 62
    7
 10
2461.2074250000001
 20
530.35816499999999
 11
2460.9972750000002
 21
530.35816499999999
  0
LINE
  8
_0-1_レイヤ___1
  6
CONTINUOUS
 62
    7
 10
2460.9972750000002
 20
530.35816499999999
 11
2460.9972750000002
 21
530.14801499999999
  0
LINE
  8
_0-1_レイヤ___1
  6
CONTINUOUS
 62
    7
 10
2460.9972750000002
 20
530.14801499999999
 11
2460.9972750000002
 21
529.93441500000006
  0
LINE
  8
_0-1_レイヤ___1
  6
CONTINUOUS
 62
    7
 10
2460.9972750000002
 20
529.93441500000006
 11
2460.7836750000001
 21
529.93441500000006
  0
LINE
  8
_0-1_レイヤ___1
  6
CONTINUOUS
 62
    7
 10
2460.7836750000001
 20
529.93441500000006
 11
2460.5735250000002
 21
529.93441500000006
  0
LINE
  8
_0-1_レイヤ___1
  6
CONTINUOUS
 62
    7
 10
2460.5735250000002
 20
529.93441500000006
 11
2460.3633749999999
 21
529.93441500000006
  0
LINE
  8
_0-1_レイヤ___1
  6
CONTINUOUS
 62
    7
 10
2460.3633749999999
 20
529.93441500000006
 11
2460.1497750000003
 21
529.93441500000006
  0
LINE
  8
_0-1_レイヤ___1
  6
CONTINUOUS
 62
    7
 10
2460.1497750000003
 20
529.93441500000006
 11
2459.9361850000005
 21
529.93441500000006
  0
LINE
  8
_0-1_レイヤ___1
  6
CONTINUOUS
 62
    7
 10
2459.9361850000005
 20
529.93441500000006
 11
2459.7260350000001
 21
529.93441500000006
  0
LINE
  8
_0-1_レイヤ___1
  6
CONTINUOUS
 62
    7
 10
2459.7260350000001
 20
529.93441500000006
 11
2459.5158850000003
 21
529.93441500000006
  0
LINE
  8
_0-1_レイヤ___1
  6
CONTINUOUS
 62
    7
 10
2459.5158850000003
 20
529.93441500000006
 11
2459.3022850000002
 21
529.93441500000006
  0
LINE
  8
_0-1_レイヤ___1
  6
CONTINUOUS
 62
    7
 10
2459.3022850000002
 20
529.93441500000006
 11
2459.0886850000002
 21
529.93441500000006
  0
LINE
  8
_0-1_レイヤ___1
  6
CONTINUOUS
 62
    7
 10
2459.0886850000002
 20
529.93441500000006
 11
2458.8785349999998
 21
529.93441500000006
  0
LINE
  8
_0-1_レイヤ___1
  6
CONTINUOUS
 62
    7
 10
2458.8785349999998
 20
529.93441500000006
 11
2458.6683850000004
 21
529.93441500000006
  0
LINE
  8
_0-1_レイヤ___1
  6
CONTINUOUS
 62
    7
 10
2458.6683850000004
 20
529.93441500000006
 11
2458.4547950000001
 21
529.93441500000006
  0
LINE
  8
_0-1_レイヤ___1
  6
CONTINUOUS
 62
    7
 10
2458.4547950000001
 20
529.93441500000006
 11
2458.2411950000001
 21
529.93441500000006
  0
LINE
  8
_0-1_レイヤ___1
  6
CONTINUOUS
 62
    7
 10
2458.2411950000001
 20
529.93441500000006
 11
2458.0310450000002
 21
529.93441500000006
  0
LINE
  8
_0-1_レイヤ___1
  6
CONTINUOUS
 62
    7
 10
2458.0310450000002
 20
529.93441500000006
 11
2457.8208950000003
 21
529.93441500000006
  0
LINE
  8
_0-1_レイヤ___1
  6
CONTINUOUS
 62
    7
 10
2457.8208950000003
 20
529.93441500000006
 11
2457.6072950000002
 21
529.93441500000006
  0
LINE
  8
_0-1_レイヤ___1
  6
CONTINUOUS
 62
    7
 10
2457.6072950000002
 20
529.93441500000006
 11
2457.6072950000002
 21
529.72081500000002
  0
LINE
  8
_0-1_レイヤ___1
  6
CONTINUOUS
 62
    7
 10
2457.6072950000002
 20
529.72081500000002
 11
2457.6072950000002
 21
529.51066500000002
  0
LINE
  8
_0-1_レイヤ___1
  6
CONTINUOUS
 62
    7
 10
2457.6072950000002
 20
529.51066500000002
 11
2457.3971450000004
 21
529.51066500000002
  0
LINE
  8
_0-1_レイヤ___1
  6
CONTINUOUS
 62
    7
 10
2457.3971450000004
 20
529.51066500000002
 11
2457.186995
 21
529.51066500000002
  0
LINE
  8
_0-1_レイヤ___1
  6
CONTINUOUS
 62
    7
 10
2457.186995
 20
529.51066500000002
 11
2456.9734050000002
 21
529.51066500000002
  0
LINE
  8
_0-1_レイヤ___1
  6
CONTINUOUS
 62
    7
 10
2456.9734050000002
 20
529.51066500000002
 11
2456.7632450000001
 21
529.51066500000002
  0
LINE
  8
_0-1_レイヤ___1
  6
CONTINUOUS
 62
    7
 10
2456.7632450000001
 20
529.51066500000002
 11
2456.5530950000002
 21
529.51066500000002
  0
LINE
  8
_0-1_レイヤ___1
  6
CONTINUOUS
 62
    7
 10
2456.5530950000002
 20
529.51066500000002
 11
2456.3395050000004
 21
529.51066500000002
  0
LINE
  8
_0-1_レイヤ___1
  6
CONTINUOUS
 62
    7
 10
2456.3395050000004
 20
529.51066500000002
 11
2456.1259049999999
 21
529.51066500000002
  0
LINE
  8
_0-1_レイヤ___1
  6
CONTINUOUS
 62
    7
 10
2456.1259049999999
 20
529.51066500000002
 11
2455.915755
 21
529.51066500000002
  0
LINE
  8
_0-1_レイヤ___1
  6
CONTINUOUS
 62
    7
 10
2455.915755
 20
529.51066500000002
 11
2455.7056050000001
 21
529.51066500000002
  0
LINE
  8
_0-1_レイヤ___1
  6
CONTINUOUS
 62
    7
 10
2455.7056050000001
 20
529.51066500000002
 11
2455.4920050000001
 21
529.51066500000002
  0
LINE
  8
_0-1_レイヤ___1
  6
CONTINUOUS
 62
    7
 10
2455.4920050000001
 20
529.51066500000002
 11
2455.2784150000002
 21
529.51066500000002
  0
LINE
  8
_0-1_レイヤ___1
  6
CONTINUOUS
 62
    7
 10
2455.2784150000002
 20
529.51066500000002
 11
2455.0682650000003
 21
529.51066500000002
  0
LINE
  8
_0-1_レイヤ___1
  6
CONTINUOUS
 62
    7
 10
2455.0682650000003
 20
529.51066500000002
 11
2454.858115
 21
529.51066500000002
  0
LINE
  8
_0-1_レイヤ___1
  6
CONTINUOUS
 62
    7
 10
2454.858115
 20
529.51066500000002
 11
2454.6445150000004
 21
529.51066500000002
  0
LINE
  8
_0-1_レイヤ___1
  6
CONTINUOUS
 62
    7
 10
2454.6445150000004
 20
529.51066500000002
 11
2454.6445150000004
 21
529.30051500000002
  0
LINE
  8
_0-1_レイヤ___1
  6
CONTINUOUS
 62
    7
 10
2454.6445150000004
 20
529.30051500000002
 11
2454.6445150000004
 21
529.09036500000002
  0
LINE
  8
_0-1_レイヤ___1
  6
CONTINUOUS
 62
    7
 10
2454.6445150000004
 20
529.09036500000002
 11
2454.4309149999999
 21
529.09036500000002
  0
LINE
  8
_0-1_レイヤ___1
  6
CONTINUOUS
 62
    7
 10
2454.4309149999999
 20
529.09036500000002
 11
2454.220765
 21
529.09036500000002
  0
LINE
  8
_0-1_レイヤ___1
  6
CONTINUOUS
 62
    7
 10
2454.220765
 20
529.09036500000002
 11
2454.0106150000001
 21
529.09036500000002
  0
LINE
  8
_0-1_レイヤ___1
  6
CONTINUOUS
 62
    7
 10
2454.0106150000001
 20
529.09036500000002
 11
2453.8004650000003
 21
529.09036500000002
  0
LINE
  8
_0-1_レイヤ___1
  6
CONTINUOUS
 62
    7
 10
2453.8004650000003
 20
529.09036500000002
 11
2453.5903150000004
 21
529.09036500000002
  0
LINE
  8
_0-1_レイヤ___1
  6
CONTINUOUS
 62
    7
 10
2453.5903150000004
 20
529.09036500000002
 11
2453.3767250000001
 21
529.09036500000002
  0
LINE
  8
_0-1_レイヤ___1
  6
CONTINUOUS
 62
    7
 10
2453.3767250000001
 20
529.09036500000002
 11
2453.163125
 21
529.09036500000002
  0
LINE
  8
_0-1_レイヤ___1
  6
CONTINUOUS
 62
    7
 10
2453.163125
 20
529.09036500000002
 11
2452.9529750000002
 21
529.09036500000002
  0
LINE
  8
_0-1_レイヤ___1
  6
CONTINUOUS
 62
    7
 10
2452.9529750000002
 20
529.09036500000002
 11
2452.7428250000003
 21
529.09036500000002
  0
LINE
  8
_0-1_レイヤ___1
  6
CONTINUOUS
 62
    7
 10
2452.7428250000003
 20
529.09036500000002
 11
2452.5292250000002
 21
529.09036500000002
  0
LINE
  8
_0-1_レイヤ___1
  6
CONTINUOUS
 62
    7
 10
2452.5292250000002
 20
529.09036500000002
 11
2452.3156350000004
 21
529.09036500000002
  0
LINE
  8
_0-1_レイヤ___1
  6
CONTINUOUS
 62
    7
 10
2452.3156350000004
 20
529.09036500000002
 11
2452.105485
 21
529.09036500000002
  0
LINE
  8
_0-1_レイヤ___1
  6
CONTINUOUS
 62
    7
 10
2452.105485
 20
529.09036500000002
 11
2452.105485
 21
528.88021500000002
  0
LINE
  8
_0-1_レイヤ___1
  6
CONTINUOUS
 62
    7
 10
2452.105485
 20
528.88021500000002
 11
2452.105485
 21
528.66661499999998
  0
LINE
  8
_0-1_レイヤ___1
  6
CONTINUOUS
 62
    7
 10
2452.105485
 20
528.66661499999998
 11
2451.895325
 21
528.66661499999998
  0
LINE
  8
_0-1_レイヤ___1
  6
CONTINUOUS
 62
    7
 10
2451.895325
 20
528.66661499999998
 11
2451.6817350000001
 21
528.66661499999998
  0
LINE
  8
_0-1_レイヤ___1
  6
CONTINUOUS
 62
    7
 10
2451.6817350000001
 20
528.66661499999998
 11
2451.4681350000001
 21
528.66661499999998
  0
LINE
  8
_0-1_レイヤ___1
  6
CONTINUOUS
 62
    7
 10
2451.4681350000001
 20
528.66661499999998
 11
2451.2579850000002
 21
528.66661499999998
  0
LINE
  8
_0-1_レイヤ___1
  6
CONTINUOUS
 62
    7
 10
2451.2579850000002
 20
528.66661499999998
 11
2451.0478350000003
 21
528.66661499999998
  0
LINE
  8
_0-1_レイヤ___1
  6
CONTINUOUS
 62
    7
 10
2451.0478350000003
 20
528.66661499999998
 11
2450.834245
 21
528.66661499999998
  0
LINE
  8
_0-1_レイヤ___1
  6
CONTINUOUS
 62
    7
 10
2450.834245
 20
528.66661499999998
 11
2447.6578650000001
 21
528.03272500000003
  0
LINE
  8
_0-1_レイヤ___1
  6
CONTINUOUS
 62
    7
 10
2447.6578650000001
 20
528.03272500000003
 11
2444.4849250000002
 21
527.39537499999994
  0
LINE
  8
_0-1_レイヤ___1
  6
CONTINUOUS
 62
    7
 10
2444.4849250000002
 20
527.39537499999994
 11
2443.4272850000002
 21
527.18522499999995
  0
LINE
  8
_0-1_レイヤ___1
  6
CONTINUOUS
 62
    7
 10
2443.4272850000002
 20
527.18522499999995
 11
2442.3696450000002
 21
526.97163499999999
  0
LINE
  8
_0-1_レイヤ___1
  6
CONTINUOUS
 62
    7
 10
2442.3696450000002
 20
526.97163499999999
 11
2441.5221449999999
 21
526.54788500000006
  0
LINE
  8
_0-1_レイヤ___1
  6
CONTINUOUS
 62
    7
 10
2441.5221449999999
 20
526.54788500000006
 11
2440.6746550000003
 21
526.12413500000002
  0
LINE
  8
_0-1_レイヤ___1
  6
CONTINUOUS
 62
    7
 10
2440.6746550000003
 20
526.12413500000002
 11
2437.9220249999998
 21
524.42915500000004
  0
LINE
  8
_0-1_レイヤ___1
  6
CONTINUOUS
 62
    7
 10
2437.9220249999998
 20
524.42915500000004
 11
2435.1728350000003
 21
522.73760500000003
  0
LINE
  8
_0-1_レイヤ___1
  6
CONTINUOUS
 62
    7
 10
2435.1728350000003
 20
522.73760500000003
 11
2435.1728350000003
 21
522.52745499999992
  0
LINE
  8
_0-1_レイヤ___1
  6
CONTINUOUS
 62
    7
 10
2435.1728350000003
 20
522.52745499999992
 11
2435.1728350000003
 21
522.31730500000003
  0
LINE
  8
_0-1_レイヤ___1
  6
CONTINUOUS
 62
    7
 10
2435.1728350000003
 20
522.31730500000003
 11
2434.9592450000005
 21
522.31730500000003
  0
LINE
  8
_0-1_レイヤ___1
  6
CONTINUOUS
 62
    7
 10
2434.9592450000005
 20
522.31730500000003
 11
2434.7490850000004
 21
522.31730500000003
  0
LINE
  8
_0-1_レイヤ___1
  6
CONTINUOUS
 62
    7
 10
2434.7490850000004
 20
522.31730500000003
 11
2434.538935
 21
522.31730500000003
  0
LINE
  8
_0-1_レイヤ___1
  6
CONTINUOUS
 62
    7
 10
2434.538935
 20
522.31730500000003
 11
2434.3253450000002
 21
522.31730500000003
  0
LINE
  8
_0-1_レイヤ___1
  6
CONTINUOUS
 62
    7
 10
2434.3253450000002
 20
522.31730500000003
 11
2434.3253450000002
 21
522.10715500000003
  0
LINE
  8
_0-1_レイヤ___1
  6
CONTINUOUS
 62
    7
 10
2434.3253450000002
 20
522.10715500000003
 11
2434.3253450000002
 21
521.89356500000008
  0
LINE
  8
_0-1_レイヤ___1
  6
CONTINUOUS
 62
    7
 10
2434.3253450000002
 20
521.89356500000008
 11
2434.1117450000002
 21
521.89356500000008
  0
LINE
  8
_0-1_レイヤ___1
  6
CONTINUOUS
 62
    7
 10
2434.1117450000002
 20
521.89356500000008
 11
2433.9015950000003
 21
521.89356500000008
  0
LINE
  8
_0-1_レイヤ___1
  6
CONTINUOUS
 62
    7
 10
2433.9015950000003
 20
521.89356500000008
 11
2433.9015950000003
 21
521.67996500000004
  0
LINE
  8
_0-1_レイヤ___1
  6
CONTINUOUS
 62
    7
 10
2433.9015950000003
 20
521.67996500000004
 11
2433.9015950000003
 21
521.46981500000004
  0
LINE
  8
_0-1_レイヤ___1
  6
CONTINUOUS
 62
    7
 10
2433.9015950000003
 20
521.46981500000004
 11
2433.6914449999999
 21
521.46981500000004
  0
LINE
  8
_0-1_レイヤ___1
  6
CONTINUOUS
 62
    7
 10
2433.6914449999999
 20
521.46981500000004
 11
2433.4778450000003
 21
521.46981500000004
  0
LINE
  8
_0-1_レイヤ___1
  6
CONTINUOUS
 62
    7
 10
2433.4778450000003
 20
521.46981500000004
 11
2433.264255
 21
521.46981500000004
  0
LINE
  8
_0-1_レイヤ___1
  6
CONTINUOUS
 62
    7
 10
2433.264255
 20
521.46981500000004
 11
2433.0541050000002
 21
521.46981500000004
  0
LINE
  8
_0-1_レイヤ___1
  6
CONTINUOUS
 62
    7
 10
2433.0541050000002
 20
521.46981500000004
 11
2432.8439550000003
 21
521.46981500000004
  0
LINE
  8
_0-1_レイヤ___1
  6
CONTINUOUS
 62
    7
 10
2432.8439550000003
 20
521.46981500000004
 11
2432.6338049999999
 21
521.46981500000004
  0
LINE
  8
_0-1_レイヤ___1
  6
CONTINUOUS
 62
    7
 10
2432.6338049999999
 20
521.46981500000004
 11
2432.6338049999999
 21
521.25966499999993
  0
LINE
  8
_0-1_レイヤ___1
  6
CONTINUOUS
 62
    7
 10
2432.6338049999999
 20
521.25966499999993
 11
2432.6338049999999
 21
521.046065
  0
LINE
  8
_0-1_レイヤ___1
  6
CONTINUOUS
 62
    7
 10
2432.6338049999999
 20
521.046065
 11
2431.5761550000002
 21
521.046065
  0
LINE
  8
_0-1_レイヤ___1
  6
CONTINUOUS
 62
    7
 10
2431.5761550000002
 20
521.046065
 11
2430.515065
 21
521.046065
  0
LINE
  8
_0-1_レイヤ___1
  6
CONTINUOUS
 62
    7
 10
2430.515065
 20
521.046065
 11
2369.1303550000002
 21
521.046065
  0
LINE
  8
_0-1_レイヤ___1
  6
CONTINUOUS
 62
    7
 10
2369.1303550000002
 20
521.046065
 11
2307.7490849999999
 21
521.046065
  0
LINE
  8
_0-1_レイヤ___1
  6
CONTINUOUS
 62
    7
 10
2307.7490849999999
 20
521.046065
 11
2306.6914450000004
 21
521.046065
  0
LINE
  8
_0-1_レイヤ___1
  6
CONTINUOUS
 62
    7
 10
2306.6914450000004
 20
521.046065
 11
2305.6338050000004
 21
521.046065
  0
LINE
  8
_0-1_レイヤ___1
  6
CONTINUOUS
 62
    7
 10
2305.6338050000004
 20
521.046065
 11
2305.4236550000001
 21
521.046065
  0
LINE
  8
_0-1_レイヤ___1
  6
CONTINUOUS
 62
    7
 10
2305.4236550000001
 20
521.046065
 11
2305.2100550000005
 21
521.046065
  0
LINE
  8
_0-1_レイヤ___1
  6
CONTINUOUS
 62
    7
 10
2305.2100550000005
 20
521.046065
 11
2305.2100550000005
 21
521.25966499999993
  0
LINE
  8
_0-1_レイヤ___1
  6
CONTINUOUS
 62
    7
 10
2305.2100550000005
 20
521.25966499999993
 11
2305.2100550000005
 21
521.46981500000004
  0
LINE
  8
_0-1_レイヤ___1
  6
CONTINUOUS
 62
    7
 10
2305.2100550000005
 20
521.46981500000004
 11
2304.996455
 21
521.46981500000004
  0
LINE
  8
_0-1_レイヤ___1
  6
CONTINUOUS
 62
    7
 10
2304.996455
 20
521.46981500000004
 11
2304.7863050000001
 21
521.46981500000004
  0
LINE
  8
_0-1_レイヤ___1
  6
CONTINUOUS
 62
    7
 10
2304.7863050000001
 20
521.46981500000004
 11
2304.5761550000002
 21
521.46981500000004
  0
LINE
  8
_0-1_レイヤ___1
  6
CONTINUOUS
 62
    7
 10
2304.5761550000002
 20
521.46981500000004
 11
2304.3625650000004
 21
521.46981500000004
  0
LINE
  8
_0-1_レイヤ___1
  6
CONTINUOUS
 62
    7
 10
2304.3625650000004
 20
521.46981500000004
 11
2304.3625650000004
 21
521.67996500000004
  0
LINE
  8
_0-1_レイヤ___1
  6
CONTINUOUS
 62
    7
 10
2304.3625650000004
 20
521.67996500000004
 11
2304.3625650000004
 21
521.89356500000008
  0
LINE
  8
_0-1_レイヤ___1
  6
CONTINUOUS
 62
    7
 10
2304.3625650000004
 20
521.89356500000008
 11
2304.1489650000003
 21
521.89356500000008
  0
LINE
  8
_0-1_レイヤ___1
  6
CONTINUOUS
 62
    7
 10
2304.1489650000003
 20
521.89356500000008
 11
2303.9388150000004
 21
521.89356500000008
  0
LINE
  8
_0-1_レイヤ___1
  6
CONTINUOUS
 62
    7
 10
2303.9388150000004
 20
521.89356500000008
 11
2303.7286650000001
 21
522.10715500000003
  0
LINE
  8
_0-1_レイヤ___1
  6
CONTINUOUS
 62
    7
 10
2303.7286650000001
 20
522.10715500000003
 11
2303.5150650000005
 21
522.31730500000003
  0
LINE
  8
_0-1_レイヤ___1
  6
CONTINUOUS
 62
    7
 10
2303.5150650000005
 20
522.31730500000003
 11
2303.3014750000002
 21
522.31730500000003
  0
LINE
  8
_0-1_レイヤ___1
  6
CONTINUOUS
 62
    7
 10
2303.3014750000002
 20
522.31730500000003
 11
2303.0913249999999
 21
522.31730500000003
  0
LINE
  8
_0-1_レイヤ___1
  6
CONTINUOUS
 62
    7
 10
2303.0913249999999
 20
522.31730500000003
 11
2303.0913249999999
 21
522.52745499999992
  0
LINE
  8
_0-1_レイヤ___1
  6
CONTINUOUS
 62
    7
 10
2303.0913249999999
 20
522.52745499999992
 11
2303.0913249999999
 21
522.73760500000003
  0
LINE
  8
_0-1_レイヤ___1
  6
CONTINUOUS
 62
    7
 10
2303.0913249999999
 20
522.73760500000003
 11
2302.8811650000002
 21
522.73760500000003
  0
LINE
  8
_0-1_レイヤ___1
  6
CONTINUOUS
 62
    7
 10
2302.8811650000002
 20
522.73760500000003
 11
2302.6675749999999
 21
522.73760500000003
  0
LINE
  8
_0-1_レイヤ___1
  6
CONTINUOUS
 62
    7
 10
2302.6675749999999
 20
522.73760500000003
 11
2299.9183850000004
 21
524.42915500000004
  0
LINE
  8
_0-1_レイヤ___1
  6
CONTINUOUS
 62
    7
 10
2299.9183850000004
 20
524.42915500000004
 11
2297.165755
 21
526.12413500000002
  0
LINE
  8
_0-1_レイヤ___1
  6
CONTINUOUS
 62
    7
 10
2297.165755
 20
526.12413500000002
 11
2296.3182650000003
 21
526.54788500000006
  0
LINE
  8
_0-1_レイヤ___1
  6
CONTINUOUS
 62
    7
 10
2296.3182650000003
 20
526.54788500000006
 11
2295.470765
 21
526.97163499999999
  0
LINE
  8
_0-1_レイヤ___1
  6
CONTINUOUS
 62
    7
 10
2295.470765
 20
526.97163499999999
 11
2294.6267250000001
 21
527.18522499999995
  0
LINE
  8
_0-1_レイヤ___1
  6
CONTINUOUS
 62
    7
 10
2294.6267250000001
 20
527.18522499999995
 11
2293.7792250000002
 21
527.39537499999994
  0
LINE
  8
_0-1_レイヤ___1
  6
CONTINUOUS
 62
    7
 10
2293.7792250000002
 20
527.39537499999994
 11
2290.6028450000003
 21
528.03272500000003
  0
LINE
  8
_0-1_レイヤ___1
  6
CONTINUOUS
 62
    7
 10
2290.6028450000003
 20
528.03272500000003
 11
2287.4299150000002
 21
528.66661499999998
  0
LINE
  8
_0-1_レイヤ___1
  6
CONTINUOUS
 62
    7
 10
2287.4299150000002
 20
528.66661499999998
 11
2286.3722750000002
 21
528.88021500000002
  0
LINE
  8
_0-1_レイヤ___1
  6
CONTINUOUS
 62
    7
 10
2286.3722750000002
 20
528.88021500000002
 11
2285.311185
 21
529.09036500000002
  0
LINE
  8
_0-1_レイヤ___1
  6
CONTINUOUS
 62
    7
 10
2285.311185
 20
529.09036500000002
 11
2284.2535350000003
 21
529.09036500000002
  0
LINE
  8
_0-1_レイヤ___1
  6
CONTINUOUS
 62
    7
 10
2284.2535350000003
 20
529.09036500000002
 11
2283.1958949999998
 21
529.09036500000002
  0
LINE
  8
_0-1_レイヤ___1
  6
CONTINUOUS
 62
    7
 10
2283.1958949999998
 20
529.09036500000002
 11
2282.9822950000002
 21
529.09036500000002
  0
LINE
  8
_0-1_レイヤ___1
  6
CONTINUOUS
 62
    7
 10
2282.9822950000002
 20
529.09036500000002
 11
2282.7721449999999
 21
529.09036500000002
  0
LINE
  8
_0-1_レイヤ___1
  6
CONTINUOUS
 62
    7
 10
2282.7721449999999
 20
529.09036500000002
 11
2282.561995
 21
529.09036500000002
  0
LINE
  8
_0-1_レイヤ___1
  6
CONTINUOUS
 62
    7
 10
2282.561995
 20
529.09036500000002
 11
2282.3484050000002
 21
529.09036500000002
  0
LINE
  8
_0-1_レイヤ___1
  6
CONTINUOUS
 62
    7
 10
2282.3484050000002
 20
529.09036500000002
 11
2282.1348050000001
 21
529.09036500000002
  0
LINE
  8
_0-1_レイヤ___1
  6
CONTINUOUS
 62
    7
 10
2282.1348050000001
 20
529.09036500000002
 11
2281.9246550000003
 21
529.09036500000002
  0
LINE
  8
_0-1_レイヤ___1
  6
CONTINUOUS
 62
    7
 10
2281.9246550000003
 20
529.09036500000002
 11
2281.7145050000004
 21
529.09036500000002
  0
LINE
  8
_0-1_レイヤ___1
  6
CONTINUOUS
 62
    7
 10
2281.7145050000004
 20
529.09036500000002
 11
2281.5009049999999
 21
529.09036500000002
  0
LINE
  8
_0-1_レイヤ___1
  6
CONTINUOUS
 62
    7
 10
2281.5009049999999
 20
529.09036500000002
 11
2281.2907550000004
 21
529.09036500000002
  0
LINE
  8
_0-1_レイヤ___1
  6
CONTINUOUS
 62
    7
 10
2281.2907550000004
 20
529.09036500000002
 11
2281.0806050000001
 21
529.09036500000002
  0
LINE
  8
_0-1_レイヤ___1
  6
CONTINUOUS
 62
    7
 10
2281.0806050000001
 20
529.09036500000002
 11
2280.8670050000001
 21
529.09036500000002
  0
LINE
  8
_0-1_レイヤ___1
  6
CONTINUOUS
 62
    7
 10
2280.8670050000001
 20
529.09036500000002
 11
2280.6568550000002
 21
529.09036500000002
  0
LINE
  8
_0-1_レイヤ___1
  6
CONTINUOUS
 62
    7
 10
2280.6568550000002
 20
529.09036500000002
 11
2280.4467050000003
 21
529.09036500000002
  0
LINE
  8
_0-1_レイヤ___1
  6
CONTINUOUS
 62
    7
 10
2280.4467050000003
 20
529.09036500000002
 11
2280.233115
 21
529.09036500000002
  0
LINE
  8
_0-1_レイヤ___1
  6
CONTINUOUS
 62
    7
 10
2280.233115
 20
529.09036500000002
 11
2280.019515
 21
529.09036500000002
  0
LINE
  8
_0-1_レイヤ___1
  6
CONTINUOUS
 62
    7
 10
2280.019515
 20
529.09036500000002
 11
2279.8093650000001
 21
529.09036500000002
  0
LINE
  8
_0-1_レイヤ___1
  6
CONTINUOUS
 62
    7
 10
2279.8093650000001
 20
529.09036500000002
 11
2279.5992150000002
 21
529.09036500000002
  0
LINE
  8
_0-1_レイヤ___1
  6
CONTINUOUS
 62
    7
 10
2279.5992150000002
 20
529.09036500000002
 11
2279.3856150000001
 21
529.09036500000002
  0
LINE
  8
_0-1_レイヤ___1
  6
CONTINUOUS
 62
    7
 10
2279.3856150000001
 20
529.09036500000002
 11
2279.1720249999998
 21
529.09036500000002
  0
LINE
  8
_0-1_レイヤ___1
  6
CONTINUOUS
 62
    7
 10
2279.1720249999998
 20
529.09036500000002
 11
2278.9618750000004
 21
529.09036500000002
  0
LINE
  8
_0-1_レイヤ___1
  6
CONTINUOUS
 62
    7
 10
2278.9618750000004
 20
529.09036500000002
 11
2278.7517250000001
 21
529.09036500000002
  0
LINE
  8
_0-1_レイヤ___1
  6
CONTINUOUS
 62
    7
 10
2278.7517250000001
 20
529.09036500000002
 11
2278.538125
 21
529.09036500000002
  0
LINE
  8
_0-1_レイヤ___1
  6
CONTINUOUS
 62
    7
 10
2278.538125
 20
529.09036500000002
 11
2278.324525
 21
529.09036500000002
  0
LINE
  8
_0-1_レイヤ___1
  6
CONTINUOUS
 62
    7
 10
2278.324525
 20
529.09036500000002
 11
2278.1143750000001
 21
529.09036500000002
  0
LINE
  8
_0-1_レイヤ___1
  6
CONTINUOUS
 62
    7
 10
2278.1143750000001
 20
529.09036500000002
 11
2277.9042250000002
 21
529.30051500000002
  0
LINE
  8
_0-1_レイヤ___1
  6
CONTINUOUS
 62
    7
 10
2277.9042250000002
 20
529.30051500000002
 11
2277.6906349999999
 21
529.51066500000002
  0
LINE
  8
_0-1_レイヤ___1
  6
CONTINUOUS
 62
    7
 10
2277.6906349999999
 20
529.51066500000002
 11
2277.480485
 21
529.51066500000002
  0
LINE
  8
_0-1_レイヤ___1
  6
CONTINUOUS
 62
    7
 10
2277.480485
 20
529.51066500000002
 11
2277.270325
 21
529.51066500000002
  0
LINE
  8
_0-1_レイヤ___1
  6
CONTINUOUS
 62
    7
 10
2277.270325
 20
529.51066500000002
 11
2277.0567350000001
 21
529.51066500000002
  0
LINE
  8
_0-1_レイヤ___1
  6
CONTINUOUS
 62
    7
 10
2277.0567350000001
 20
529.51066500000002
 11
2276.8465850000002
 21
529.51066500000002
  0
LINE
  8
_0-1_レイヤ___1
  6
CONTINUOUS
 62
    7
 10
2276.8465850000002
 20
529.51066500000002
 11
2276.6364349999999
 21
529.51066500000002
  0
LINE
  8
_0-1_レイヤ___1
  6
CONTINUOUS
 62
    7
 10
2276.6364349999999
 20
529.51066500000002
 11
2276.4228350000003
 21
529.51066500000002
  0
LINE
  8
_0-1_レイヤ___1
  6
CONTINUOUS
 62
    7
 10
2276.4228350000003
 20
529.51066500000002
 11
2276.2092450000005
 21
529.51066500000002
  0
LINE
  8
_0-1_レイヤ___1
  6
CONTINUOUS
 62
    7
 10
2276.2092450000005
 20
529.51066500000002
 11
2275.9990850000004
 21
529.51066500000002
  0
LINE
  8
_0-1_レイヤ___1
  6
CONTINUOUS
 62
    7
 10
2275.9990850000004
 20
529.51066500000002
 11
2275.788935
 21
529.51066500000002
  0
LINE
  8
_0-1_レイヤ___1
  6
CONTINUOUS
 62
    7
 10
2275.788935
 20
529.51066500000002
 11
2275.5753450000002
 21
529.51066500000002
  0
LINE
  8
_0-1_レイヤ___1
  6
CONTINUOUS
 62
    7
 10
2275.5753450000002
 20
529.51066500000002
 11
2275.3617450000002
 21
529.51066500000002
  0
LINE
  8
_0-1_レイヤ___1
  6
CONTINUOUS
 62
    7
 10
2275.3617450000002
 20
529.51066500000002
 11
2275.1515950000003
 21
529.51066500000002
  0
LINE
  8
_0-1_レイヤ___1
  6
CONTINUOUS
 62
    7
 10
2275.1515950000003
 20
529.51066500000002
 11
2274.9414449999999
 21
529.51066500000002
  0
LINE
  8
_0-1_レイヤ___1
  6
CONTINUOUS
 62
    7
 10
2274.9414449999999
 20
529.51066500000002
 11
2274.7278450000003
 21
529.51066500000002
  0
LINE
  8
_0-1_レイヤ___1
  6
CONTINUOUS
 62
    7
 10
2274.7278450000003
 20
529.51066500000002
 11
2274.514255
 21
529.51066500000002
  0
LINE
  8
_0-1_レイヤ___1
  6
CONTINUOUS
 62
    7
 10
2274.514255
 20
529.51066500000002
 11
2274.3041050000002
 21
529.51066500000002
  0
LINE
  8
_0-1_レイヤ___1
  6
CONTINUOUS
 62
    7
 10
2274.3041050000002
 20
529.51066500000002
 11
2274.0939550000003
 21
529.51066500000002
  0
LINE
  8
_0-1_レイヤ___1
  6
CONTINUOUS
 62
    7
 10
2274.0939550000003
 20
529.51066500000002
 11
2273.8838049999999
 21
529.51066500000002
  0
LINE
  8
_0-1_レイヤ___1
  6
CONTINUOUS
 62
    7
 10
2273.8838049999999
 20
529.51066500000002
 11
2273.6736550000001
 21
529.51066500000002
  0
LINE
  8
_0-1_レイヤ___1
  6
CONTINUOUS
 62
    7
 10
2273.6736550000001
 20
529.51066500000002
 11
2273.460055
 21
529.51066500000002
  0
LINE
  8
_0-1_レイヤ___1
  6
CONTINUOUS
 62
    7
 10
2273.460055
 20
529.51066500000002
 11
2273.246455
 21
529.51066500000002
  0
LINE
  8
_0-1_レイヤ___1
  6
CONTINUOUS
 62
    7
 10
2273.246455
 20
529.51066500000002
 11
2273.0363050000001
 21
529.51066500000002
  0
LINE
  8
_0-1_レイヤ___1
  6
CONTINUOUS
 62
    7
 10
2273.0363050000001
 20
529.51066500000002
 11
2272.8261550000002
 21
529.51066500000002
  0
LINE
  8
_0-1_レイヤ___1
  6
CONTINUOUS
 62
    7
 10
2272.8261550000002
 20
529.51066500000002
 11
2272.6125649999999
 21
529.51066500000002
  0
LINE
  8
_0-1_レイヤ___1
  6
CONTINUOUS
 62
    7
 10
2272.6125649999999
 20
529.51066500000002
 11
2272.3989650000003
 21
529.51066500000002
  0
LINE
  8
_0-1_レイヤ___1
  6
CONTINUOUS
 62
    7
 10
2272.3989650000003
 20
529.51066500000002
 11
2272.188815
 21
529.51066500000002
  0
LINE
  8
_0-1_レイヤ___1
  6
CONTINUOUS
 62
    7
 10
2272.188815
 20
529.51066500000002
 11
2271.9786650000001
 21
529.51066500000002
  0
LINE
  8
_0-1_レイヤ___1
  6
CONTINUOUS
 62
    7
 10
2271.9786650000001
 20
529.51066500000002
 11
2271.765065
 21
529.51066500000002
  0
LINE
  8
_0-1_レイヤ___1
  6
CONTINUOUS
 62
    7
 10
2271.765065
 20
529.51066500000002
 11
2271.5514750000002
 21
529.51066500000002
  0
LINE
  8
_0-1_レイヤ___1
  6
CONTINUOUS
 62
    7
 10
2271.5514750000002
 20
529.51066500000002
 11
2271.3413250000003
 21
529.51066500000002
  0
LINE
  8
_0-1_レイヤ___1
  6
CONTINUOUS
 62
    7
 10
2271.3413250000003
 20
529.51066500000002
 11
2271.1311650000002
 21
529.51066500000002
  0
LINE
  8
_0-1_レイヤ___1
  6
CONTINUOUS
 62
    7
 10
2271.1311650000002
 20
529.51066500000002
 11
2270.9175750000004
 21
529.51066500000002
  0
LINE
  8
_0-1_レイヤ___1
  6
CONTINUOUS
 62
    7
 10
2270.9175750000004
 20
529.51066500000002
 11
2270.7074250000001
 21
529.51066500000002
  0
LINE
  8
_0-1_レイヤ___1
  6
CONTINUOUS
 62
    7
 10
2270.7074250000001
 20
529.51066500000002
 11
2270.4972750000002
 21
529.51066500000002
  0
LINE
  8
_0-1_レイヤ___1
  6
CONTINUOUS
 62
    7
 10
2270.4972750000002
 20
529.51066500000002
 11
2270.2836750000001
 21
529.51066500000002
  0
LINE
  8
_0-1_レイヤ___1
  6
CONTINUOUS
 62
    7
 10
2270.2836750000001
 20
529.51066500000002
 11
2270.0735250000002
 21
529.51066500000002
  0
LINE
  8
_0-1_レイヤ___1
  6
CONTINUOUS
 62
    7
 10
2270.0735250000002
 20
529.51066500000002
 11
2269.8633750000004
 21
529.51066500000002
  0
LINE
  8
_0-1_レイヤ___1
  6
CONTINUOUS
 62
    7
 10
2269.8633750000004
 20
529.51066500000002
 11
2269.6497749999999
 21
529.51066500000002
  0
LINE
  8
_0-1_レイヤ___1
  6
CONTINUOUS
 62
    7
 10
2269.6497749999999
 20
529.51066500000002
 11
2269.436185
 21
529.51066500000002
  0
LINE
  8
_0-1_レイヤ___1
  6
CONTINUOUS
 62
    7
 10
2269.436185
 20
529.51066500000002
 11
2269.2260350000001
 21
529.51066500000002
  0
LINE
  8
_0-1_レイヤ___1
  6
CONTINUOUS
 62
    7
 10
2269.2260350000001
 20
529.51066500000002
 11
2269.0158849999998
 21
529.51066500000002
  0
LINE
  8
_0-1_レイヤ___1
  6
CONTINUOUS
 62
    7
 10
2269.0158849999998
 20
529.51066500000002
 11
2268.8022850000002
 21
529.51066500000002
  0
LINE
  8
_0-1_レイヤ___1
  6
CONTINUOUS
 62
    7
 10
2268.8022850000002
 20
529.51066500000002
 11
2268.5886850000002
 21
529.51066500000002
  0
LINE
  8
_0-1_レイヤ___1
  6
CONTINUOUS
 62
    7
 10
2268.5886850000002
 20
529.51066500000002
 11
2268.3785350000003
 21
529.51066500000002
  0
LINE
  8
_0-1_レイヤ___1
  6
CONTINUOUS
 62
    7
 10
2268.3785350000003
 20
529.51066500000002
 11
2268.1683849999999
 21
529.51066500000002
  0
LINE
  8
_0-1_レイヤ___1
  6
CONTINUOUS
 62
    7
 10
2268.1683849999999
 20
529.51066500000002
 11
2267.9547950000001
 21
529.51066500000002
  0
LINE
  8
_0-1_レイヤ___1
  6
CONTINUOUS
 62
    7
 10
2267.9547950000001
 20
529.51066500000002
 11
2267.7411950000001
 21
529.51066500000002
  0
LINE
  8
_0-1_レイヤ___1
  6
CONTINUOUS
 62
    7
 10
2267.7411950000001
 20
529.51066500000002
 11
2267.5310450000002
 21
529.51066500000002
  0
LINE
  8
_0-1_レイヤ___1
  6
CONTINUOUS
 62
    7
 10
2267.5310450000002
 20
529.51066500000002
 11
2267.3208950000003
 21
529.51066500000002
  0
LINE
  8
_0-1_レイヤ___1
  6
CONTINUOUS
 62
    7
 10
2267.3208950000003
 20
529.51066500000002
 11
2267.1072950000002
 21
529.51066500000002
  0
LINE
  8
_0-1_レイヤ___1
  6
CONTINUOUS
 62
    7
 10
2267.1072950000002
 20
529.51066500000002
 11
2266.8971449999999
 21
529.51066500000002
  0
LINE
  8
_0-1_レイヤ___1
  6
CONTINUOUS
 62
    7
 10
2266.8971449999999
 20
529.51066500000002
 11
2266.686995
 21
529.51066500000002
  0
LINE
  8
_0-1_レイヤ___1
  6
CONTINUOUS
 62
    7
 10
2266.686995
 20
529.51066500000002
 11
2266.4734050000002
 21
529.51066500000002
  0
LINE
  8
_0-1_レイヤ___1
  6
CONTINUOUS
 62
    7
 10
2266.4734050000002
 20
529.51066500000002
 11
2266.2632450000001
 21
529.51066500000002
  0
LINE
  8
_0-1_レイヤ___1
  6
CONTINUOUS
 62
    7
 10
2266.2632450000001
 20
529.51066500000002
 11
2266.0530950000002
 21
529.51066500000002
  0
LINE
  8
_0-1_レイヤ___1
  6
CONTINUOUS
 62
    7
 10
2266.0530950000002
 20
529.51066500000002
 11
2265.8395049999999
 21
529.51066500000002
  0
LINE
  8
_0-1_レイヤ___1
  6
CONTINUOUS
 62
    7
 10
2265.8395049999999
 20
529.51066500000002
 11
2265.8395049999999
 21
529.72081500000002
  0
LINE
  8
_0-1_レイヤ___1
  6
CONTINUOUS
 62
    7
 10
2265.8395049999999
 20
529.72081500000002
 11
2265.8395049999999
 21
529.93441500000006
  0
LINE
  8
_0-1_レイヤ___1
  6
CONTINUOUS
 62
    7
 10
2265.8395049999999
 20
529.93441500000006
 11
2265.6259050000003
 21
529.93441500000006
  0
LINE
  8
_0-1_レイヤ___1
  6
CONTINUOUS
 62
    7
 10
2265.6259050000003
 20
529.93441500000006
 11
2265.415755
 21
529.93441500000006
  0
LINE
  8
_0-1_レイヤ___1
  6
CONTINUOUS
 62
    7
 10
2265.415755
 20
529.93441500000006
 11
2265.2056050000001
 21
529.93441500000006
  0
LINE
  8
_0-1_レイヤ___1
  6
CONTINUOUS
 62
    7
 10
2265.2056050000001
 20
529.93441500000006
 11
2264.9920050000001
 21
529.93441500000006
  0
LINE
  8
_0-1_レイヤ___1
  6
CONTINUOUS
 62
    7
 10
2264.9920050000001
 20
529.93441500000006
 11
2264.7784150000002
 21
529.93441500000006
  0
LINE
  8
_0-1_レイヤ___1
  6
CONTINUOUS
 62
    7
 10
2264.7784150000002
 20
529.93441500000006
 11
2264.5682649999999
 21
529.93441500000006
  0
LINE
  8
_0-1_レイヤ___1
  6
CONTINUOUS
 62
    7
 10
2264.5682649999999
 20
529.93441500000006
 11
2264.3581150000005
 21
529.93441500000006
  0
LINE
  8
_0-1_レイヤ___1
  6
CONTINUOUS
 62
    7
 10
2264.3581150000005
 20
529.93441500000006
 11
2264.144515
 21
529.93441500000006
  0
LINE
  8
_0-1_レイヤ___1
  6
CONTINUOUS
 62
    7
 10
2264.144515
 20
529.93441500000006
 11
2263.9309150000004
 21
529.93441500000006
  0
LINE
  8
_0-1_レイヤ___1
  6
CONTINUOUS
 62
    7
 10
2263.9309150000004
 20
529.93441500000006
 11
2263.720765
 21
529.93441500000006
  0
LINE
  8
_0-1_レイヤ___1
  6
CONTINUOUS
 62
    7
 10
2263.720765
 20
529.93441500000006
 11
2263.5106150000001
 21
529.93441500000006
  0
LINE
  8
_0-1_レイヤ___1
  6
CONTINUOUS
 62
    7
 10
2263.5106150000001
 20
529.93441500000006
 11
2263.3004650000003
 21
529.93441500000006
  0
LINE
  8
_0-1_レイヤ___1
  6
CONTINUOUS
 62
    7
 10
2263.3004650000003
 20
529.93441500000006
 11
2263.0903149999999
 21
529.93441500000006
  0
LINE
  8
_0-1_レイヤ___1
  6
CONTINUOUS
 62
    7
 10
2263.0903149999999
 20
529.93441500000006
 11
2262.8767250000001
 21
529.93441500000006
  0
LINE
  8
_0-1_レイヤ___1
  6
CONTINUOUS
 62
    7
 10
2262.8767250000001
 20
529.93441500000006
 11
2262.663125
 21
529.93441500000006
  0
LINE
  8
_0-1_レイヤ___1
  6
CONTINUOUS
 62
    7
 10
2262.663125
 20
529.93441500000006
 11
2262.4529750000002
 21
529.93441500000006
  0
LINE
  8
_0-1_レイヤ___1
  6
CONTINUOUS
 62
    7
 10
2262.4529750000002
 20
529.93441500000006
 11
2262.2428250000003
 21
529.93441500000006
  0
LINE
  8
_0-1_レイヤ___1
  6
CONTINUOUS
 62
    7
 10
2262.2428250000003
 20
529.93441500000006
 11
2262.0292250000002
 21
529.93441500000006
  0
LINE
  8
_0-1_レイヤ___1
  6
CONTINUOUS
 62
    7
 10
2262.0292250000002
 20
529.93441500000006
 11
2261.8156349999999
 21
529.93441500000006
  0
LINE
  8
_0-1_レイヤ___1
  6
CONTINUOUS
 62
    7
 10
2261.8156349999999
 20
529.93441500000006
 11
2261.605485
 21
529.93441500000006
  0
LINE
  8
_0-1_レイヤ___1
  6
CONTINUOUS
 62
    7
 10
2261.605485
 20
529.93441500000006
 11
2261.395325
 21
529.93441500000006
  0
LINE
  8
_0-1_レイヤ___1
  6
CONTINUOUS
 62
    7
 10
2261.395325
 20
529.93441500000006
 11
2261.1817350000001
 21
529.93441500000006
  0
LINE
  8
_0-1_レイヤ___1
  6
CONTINUOUS
 62
    7
 10
2261.1817350000001
 20
529.93441500000006
 11
2260.9681350000001
 21
529.93441500000006
  0
LINE
  8
_0-1_レイヤ___1
  6
CONTINUOUS
 62
    7
 10
2260.9681350000001
 20
529.93441500000006
 11
2260.7579850000002
 21
529.93441500000006
  0
LINE
  8
_0-1_レイヤ___1
  6
CONTINUOUS
 62
    7
 10
2260.7579850000002
 20
529.93441500000006
 11
2260.5478350000003
 21
529.93441500000006
  0
LINE
  8
_0-1_レイヤ___1
  6
CONTINUOUS
 62
    7
 10
2260.5478350000003
 20
529.93441500000006
 11
2260.334245
 21
529.93441500000006
  0
LINE
  8
_0-1_レイヤ___1
  6
CONTINUOUS
 62
    7
 10
2260.334245
 20
529.93441500000006
 11
2260.1240850000004
 21
529.93441500000006
  0
LINE
  8
_0-1_レイヤ___1
  6
CONTINUOUS
 62
    7
 10
2260.1240850000004
 20
529.93441500000006
 11
2259.913935
 21
529.93441500000006
  0
LINE
  8
_0-1_レイヤ___1
  6
CONTINUOUS
 62
    7
 10
2259.913935
 20
529.93441500000006
 11
2259.7003450000002
 21
529.93441500000006
  0
LINE
  8
_0-1_レイヤ___1
  6
CONTINUOUS
 62
    7
 10
2259.7003450000002
 20
529.93441500000006
 11
2259.4901950000003
 21
529.93441500000006
  0
LINE
  8
_0-1_レイヤ___1
  6
CONTINUOUS
 62
    7
 10
2259.4901950000003
 20
529.93441500000006
 11
2259.280045
 21
529.93441500000006
  0
LINE
  8
_0-1_レイヤ___1
  6
CONTINUOUS
 62
    7
 10
2259.280045
 20
529.93441500000006
 11
2259.0664450000004
 21
529.93441500000006
  0
LINE
  8
_0-1_レイヤ___1
  6
CONTINUOUS
 62
    7
 10
2259.0664450000004
 20
529.93441500000006
 11
2258.8528450000003
 21
529.93441500000006
  0
LINE
  8
_0-1_レイヤ___1
  6
CONTINUOUS
 62
    7
 10
2258.8528450000003
 20
529.93441500000006
 11
2258.642695
 21
529.93441500000006
  0
LINE
  8
_0-1_レイヤ___1
  6
CONTINUOUS
 62
    7
 10
2258.642695
 20
529.93441500000006
 11
2258.4325450000001
 21
529.93441500000006
  0
LINE
  8
_0-1_レイヤ___1
  6
CONTINUOUS
 62
    7
 10
2258.4325450000001
 20
529.93441500000006
 11
2258.2189550000003
 21
529.93441500000006
  0
LINE
  8
_0-1_レイヤ___1
  6
CONTINUOUS
 62
    7
 10
2258.2189550000003
 20
529.93441500000006
 11
2258.0053550000002
 21
529.93441500000006
  0
LINE
  8
_0-1_レイヤ___1
  6
CONTINUOUS
 62
    7
 10
2258.0053550000002
 20
529.93441500000006
 11
2257.7952050000004
 21
529.93441500000006
  0
LINE
  8
_0-1_レイヤ___1
  6
CONTINUOUS
 62
    7
 10
2257.7952050000004
 20
529.93441500000006
 11
2257.585055
 21
529.93441500000006
  0
LINE
  8
_0-1_レイヤ___1
  6
CONTINUOUS
 62
    7
 10
2257.585055
 20
529.93441500000006
 11
2257.3714550000004
 21
529.93441500000006
  0
LINE
  8
_0-1_レイヤ___1
  6
CONTINUOUS
 62
    7
 10
2257.3714550000004
 20
529.93441500000006
 11
2257.1578650000001
 21
529.93441500000006
  0
LINE
  8
_0-1_レイヤ___1
  6
CONTINUOUS
 62
    7
 10
2257.1578650000001
 20
529.93441500000006
 11
2256.9477150000002
 21
529.93441500000006
  0
LINE
  8
_0-1_レイヤ___1
  6
CONTINUOUS
 62
    7
 10
2256.9477150000002
 20
529.93441500000006
 11
2256.7375650000004
 21
529.93441500000006
  0
LINE
  8
_0-1_レイヤ___1
  6
CONTINUOUS
 62
    7
 10
2256.7375650000004
 20
529.93441500000006
 11
2256.5239650000003
 21
529.93441500000006
  0
LINE
  8
_0-1_レイヤ___1
  6
CONTINUOUS
 62
    7
 10
2256.5239650000003
 20
529.93441500000006
 11
2256.313815
 21
529.93441500000006
  0
LINE
  8
_0-1_レイヤ___1
  6
CONTINUOUS
 62
    7
 10
2256.313815
 20
529.93441500000006
 11
2256.1036650000001
 21
529.93441500000006
  0
LINE
  8
_0-1_レイヤ___1
  6
CONTINUOUS
 62
    7
 10
2256.1036650000001
 20
529.93441500000006
 11
2255.890065
 21
529.93441500000006
  0
LINE
  8
_0-1_レイヤ___1
  6
CONTINUOUS
 62
    7
 10
2255.890065
 20
529.93441500000006
 11
2255.6799150000002
 21
529.93441500000006
  0
LINE
  8
_0-1_レイヤ___1
  6
CONTINUOUS
 62
    7
 10
2255.6799150000002
 20
529.93441500000006
 11
2255.4697650000003
 21
529.93441500000006
  0
LINE
  8
_0-1_レイヤ___1
  6
CONTINUOUS
 62
    7
 10
2255.4697650000003
 20
529.93441500000006
 11
2255.2561650000002
 21
529.93441500000006
  0
LINE
  8
_0-1_レイヤ___1
  6
CONTINUOUS
 62
    7
 10
2255.2561650000002
 20
529.93441500000006
 11
2255.0425750000004
 21
529.93441500000006
  0
LINE
  8
_0-1_レイヤ___1
  6
CONTINUOUS
 62
    7
 10
2255.0425750000004
 20
529.93441500000006
 11
2254.8324250000001
 21
529.93441500000006
  0
LINE
  8
_0-1_レイヤ___1
  6
CONTINUOUS
 62
    7
 10
2254.8324250000001
 20
529.93441500000006
 11
2254.6222750000002
 21
529.93441500000006
  0
LINE
  8
_0-1_レイヤ___1
  6
CONTINUOUS
 62
    7
 10
2254.6222750000002
 20
529.93441500000006
 11
2254.4086750000001
 21
529.93441500000006
  0
LINE
  8
_0-1_レイヤ___1
  6
CONTINUOUS
 62
    7
 10
2254.4086750000001
 20
529.93441500000006
 11
2254.1950850000003
 21
529.93441500000006
  0
LINE
  8
_0-1_レイヤ___1
  6
CONTINUOUS
 62
    7
 10
2254.1950850000003
 20
529.93441500000006
 11
2253.9849250000002
 21
529.93441500000006
  0
LINE
  8
_0-1_レイヤ___1
  6
CONTINUOUS
 62
    7
 10
2253.9849250000002
 20
529.93441500000006
 11
2253.7747750000003
 21
529.93441500000006
  0
LINE
  8
_0-1_レイヤ___1
  6
CONTINUOUS
 62
    7
 10
2253.7747750000003
 20
529.93441500000006
 11
2253.561185
 21
529.93441500000006
  0
LINE
  8
_0-1_レイヤ___1
  6
CONTINUOUS
 62
    7
 10
2253.561185
 20
529.93441500000006
 11
2253.3475850000004
 21
530.14801499999999
  0
LINE
  8
_0-1_レイヤ___1
  6
CONTINUOUS
 62
    7
 10
2253.3475850000004
 20
530.14801499999999
 11
2253.1374350000001
 21
530.35816499999999
  0
LINE
  8
_0-1_レイヤ___1
  6
CONTINUOUS
 62
    7
 10
2253.1374350000001
 20
530.35816499999999
 11
2252.9272850000002
 21
530.35816499999999
  0
LINE
  8
_0-1_レイヤ___1
  6
CONTINUOUS
 62
    7
 10
2252.9272850000002
 20
530.35816499999999
 11
2252.7171349999999
 21
530.35816499999999
  0
LINE
  8
_0-1_レイヤ___1
  6
CONTINUOUS
 62
    7
 10
2252.7171349999999
 20
530.35816499999999
 11
2252.5069850000004
 21
530.35816499999999
  0
LINE
  8
_0-1_レイヤ___1
  6
CONTINUOUS
 62
    7
 10
2252.5069850000004
 20
530.35816499999999
 11
2252.2933849999999
 21
530.35816499999999
  0
LINE
  8
_0-1_レイヤ___1
  6
CONTINUOUS
 62
    7
 10
2252.2933849999999
 20
530.35816499999999
 11
2252.0797950000001
 21
530.35816499999999
  0
LINE
  8
_0-1_レイヤ___1
  6
CONTINUOUS
 62
    7
 10
2252.0797950000001
 20
530.35816499999999
 11
2251.8696450000002
 21
530.35816499999999
  0
LINE
  8
_0-1_レイヤ___1
  6
CONTINUOUS
 62
    7
 10
2251.8696450000002
 20
530.35816499999999
 11
2251.6594850000001
 21
530.35816499999999
  0
LINE
  8
_0-1_レイヤ___1
  6
CONTINUOUS
 62
    7
 10
2251.6594850000001
 20
530.35816499999999
 11
2251.4458950000003
 21
530.35816499999999
  0
LINE
  8
_0-1_レイヤ___1
  6
CONTINUOUS
 62
    7
 10
2251.4458950000003
 20
530.35816499999999
 11
2251.2322950000002
 21
530.35816499999999
  0
LINE
  8
_0-1_レイヤ___1
  6
CONTINUOUS
 62
    7
 10
2251.2322950000002
 20
530.35816499999999
 11
2251.0221449999999
 21
530.35816499999999
  0
LINE
  8
_0-1_レイヤ___1
  6
CONTINUOUS
 62
    7
 10
2251.0221449999999
 20
530.35816499999999
 11
2250.811995
 21
530.35816499999999
  0
LINE
  8
_0-1_レイヤ___1
  6
CONTINUOUS
 62
    7
 10
2250.811995
 20
530.35816499999999
 11
2250.5984050000002
 21
530.35816499999999
  0
LINE
  8
_0-1_レイヤ___1
  6
CONTINUOUS
 62
    7
 10
2250.5984050000002
 20
530.35816499999999
 11
2250.3848050000001
 21
530.35816499999999
  0
LINE
  8
_0-1_レイヤ___1
  6
CONTINUOUS
 62
    7
 10
2250.3848050000001
 20
530.35816499999999
 11
2250.1746550000003
 21
530.35816499999999
  0
LINE
  8
_0-1_レイヤ___1
  6
CONTINUOUS
 62
    7
 10
2250.1746550000003
 20
530.35816499999999
 11
2249.9645049999999
 21
530.35816499999999
  0
LINE
  8
_0-1_レイヤ___1
  6
CONTINUOUS
 62
    7
 10
2249.9645049999999
 20
530.35816499999999
 11
2249.7509050000003
 21
530.35816499999999
  0
LINE
  8
_0-1_レイヤ___1
  6
CONTINUOUS
 62
    7
 10
2249.7509050000003
 20
530.35816499999999
 11
2249.540755
 21
530.35816499999999
  0
LINE
  8
_0-1_レイヤ___1
  6
CONTINUOUS
 62
    7
 10
2249.540755
 20
530.35816499999999
 11
2249.3306050000001
 21
530.35816499999999
  0
LINE
  8
_0-1_レイヤ___1
  6
CONTINUOUS
 62
    7
 10
2249.3306050000001
 20
530.35816499999999
 11
2249.1170050000001
 21
530.35816499999999
  0
LINE
  8
_0-1_レイヤ___1
  6
CONTINUOUS
 62
    7
 10
2249.1170050000001
 20
530.35816499999999
 11
2248.9068550000002
 21
530.35816499999999
  0
LINE
  8
_0-1_レイヤ___1
  6
CONTINUOUS
 62
    7
 10
2248.9068550000002
 20
530.35816499999999
 11
2248.6967050000003
 21
530.35816499999999
  0
LINE
  8
_0-1_レイヤ___1
  6
CONTINUOUS
 62
    7
 10
2248.6967050000003
 20
530.35816499999999
 11
2248.483115
 21
530.35816499999999
  0
LINE
  8
_0-1_レイヤ___1
  6
CONTINUOUS
 62
    7
 10
2248.483115
 20
530.35816499999999
 11
2248.269515
 21
530.35816499999999
  0
LINE
  8
_0-1_レイヤ___1
  6
CONTINUOUS
 62
    7
 10
2248.269515
 20
530.35816499999999
 11
2248.0593650000001
 21
530.35816499999999
  0
LINE
  8
_0-1_レイヤ___1
  6
CONTINUOUS
 62
    7
 10
2248.0593650000001
 20
530.35816499999999
 11
2247.8492150000002
 21
530.35816499999999
  0
LINE
  8
_0-1_レイヤ___1
  6
CONTINUOUS
 62
    7
 10
2247.8492150000002
 20
530.35816499999999
 11
2247.6356150000001
 21
530.35816499999999
  0
LINE
  8
_0-1_レイヤ___1
  6
CONTINUOUS
 62
    7
 10
2247.6356150000001
 20
530.35816499999999
 11
2247.4220250000003
 21
530.35816499999999
  0
LINE
  8
_0-1_レイヤ___1
  6
CONTINUOUS
 62
    7
 10
2247.4220250000003
 20
530.35816499999999
 11
2247.211875
 21
530.35816499999999
  0
LINE
  8
_0-1_レイヤ___1
  6
CONTINUOUS
 62
    7
 10
2247.211875
 20
530.35816499999999
 11
2247.0017250000001
 21
530.35816499999999
  0
LINE
  8
_0-1_レイヤ___1
  6
CONTINUOUS
 62
    7
 10
2247.0017250000001
 20
530.35816499999999
 11
2246.788125
 21
530.35816499999999
  0
LINE
  8
_0-1_レイヤ___1
  6
CONTINUOUS
 62
    7
 10
2246.788125
 20
530.35816499999999
 11
2246.574525
 21
530.35816499999999
  0
LINE
  8
_0-1_レイヤ___1
  6
CONTINUOUS
 62
    7
 10
2246.574525
 20
530.35816499999999
 11
2246.3643750000001
 21
530.35816499999999
  0
LINE
  8
_0-1_レイヤ___1
  6
CONTINUOUS
 62
    7
 10
2246.3643750000001
 20
530.35816499999999
 11
2246.1542250000002
 21
530.35816499999999
  0
LINE
  8
_0-1_レイヤ___1
  6
CONTINUOUS
 62
    7
 10
2246.1542250000002
 20
530.35816499999999
 11
2245.9406349999999
 21
530.35816499999999
  0
LINE
  8
_0-1_レイヤ___1
  6
CONTINUOUS
 62
    7
 10
2245.9406349999999
 20
530.35816499999999
 11
2245.730485
 21
530.35816499999999
  0
LINE
  8
_0-1_レイヤ___1
  6
CONTINUOUS
 62
    7
 10
2245.730485
 20
530.35816499999999
 11
2245.5203250000004
 21
530.35816499999999
  0
LINE
  8
_0-1_レイヤ___1
  6
CONTINUOUS
 62
    7
 10
2245.5203250000004
 20
530.35816499999999
 11
2245.3067350000001
 21
530.35816499999999
  0
LINE
  8
_0-1_レイヤ___1
  6
CONTINUOUS
 62
    7
 10
2245.3067350000001
 20
530.35816499999999
 11
2245.0965850000002
 21
530.35816499999999
  0
LINE
  8
_0-1_レイヤ___1
  6
CONTINUOUS
 62
    7
 10
2245.0965850000002
 20
530.35816499999999
 11
2244.8864350000003
 21
530.35816499999999
  0
LINE
  8
_0-1_レイヤ___1
  6
CONTINUOUS
 62
    7
 10
2244.8864350000003
 20
530.35816499999999
 11
2244.6728350000003
 21
530.35816499999999
  0
LINE
  8
_0-1_レイヤ___1
  6
CONTINUOUS
 62
    7
 10
2244.6728350000003
 20
530.35816499999999
 11
2244.459245
 21
530.35816499999999
  0
LINE
  8
_0-1_レイヤ___1
  6
CONTINUOUS
 62
    7
 10
2244.459245
 20
530.35816499999999
 11
2244.2490850000004
 21
530.35816499999999
  0
LINE
  8
_0-1_レイヤ___1
  6
CONTINUOUS
 62
    7
 10
2244.2490850000004
 20
530.35816499999999
 11
2244.038935
 21
530.35816499999999
  0
LINE
  8
_0-1_レイヤ___1
  6
CONTINUOUS
 62
    7
 10
2244.038935
 20
530.35816499999999
 11
2243.8253450000002
 21
530.35816499999999
  0
LINE
  8
_0-1_レイヤ___1
  6
CONTINUOUS
 62
    7
 10
2243.8253450000002
 20
530.35816499999999
 11
2243.6117450000002
 21
530.35816499999999
  0
LINE
  8
_0-1_レイヤ___1
  6
CONTINUOUS
 62
    7
 10
2243.6117450000002
 20
530.35816499999999
 11
2243.4015950000003
 21
530.35816499999999
  0
LINE
  8
_0-1_レイヤ___1
  6
CONTINUOUS
 62
    7
 10
2243.4015950000003
 20
530.35816499999999
 11
2243.1914450000004
 21
530.35816499999999
  0
LINE
  8
_0-1_レイヤ___1
  6
CONTINUOUS
 62
    7
 10
2243.1914450000004
 20
530.35816499999999
 11
2242.9778449999999
 21
530.35816499999999
  0
LINE
  8
_0-1_レイヤ___1
  6
CONTINUOUS
 62
    7
 10
2242.9778449999999
 20
530.35816499999999
 11
2242.764255
 21
530.35816499999999
  0
LINE
  8
_0-1_レイヤ___1
  6
CONTINUOUS
 62
    7
 10
2242.764255
 20
530.35816499999999
 11
2242.5541050000002
 21
530.35816499999999
  0
LINE
  8
_0-1_レイヤ___1
  6
CONTINUOUS
 62
    7
 10
2242.5541050000002
 20
530.35816499999999
 11
2242.3439550000003
 21
530.35816499999999
  0
LINE
  8
_0-1_レイヤ___1
  6
CONTINUOUS
 62
    7
 10
2242.3439550000003
 20
530.35816499999999
 11
2242.1338050000004
 21
530.35816499999999
  0
LINE
  8
_0-1_レイヤ___1
  6
CONTINUOUS
 62
    7
 10
2242.1338050000004
 20
530.35816499999999
 11
2241.9236550000001
 21
530.35816499999999
  0
LINE
  8
_0-1_レイヤ___1
  6
CONTINUOUS
 62
    7
 10
2241.9236550000001
 20
530.35816499999999
 11
2241.710055
 21
530.35816499999999
  0
LINE
  8
_0-1_レイヤ___1
  6
CONTINUOUS
 62
    7
 10
2241.710055
 20
530.35816499999999
 11
2241.4964550000004
 21
530.35816499999999
  0
LINE
  8
_0-1_レイヤ___1
  6
CONTINUOUS
 62
    7
 10
2241.4964550000004
 20
530.35816499999999
 11
2241.2863050000001
 21
530.35816499999999
  0
LINE
  8
_0-1_レイヤ___1
  6
CONTINUOUS
 62
    7
 10
2241.2863050000001
 20
530.35816499999999
 11
2241.0761550000002
 21
530.56831499999998
  0
LINE
  8
_0-1_レイヤ___1
  6
CONTINUOUS
 62
    7
 10
2241.0761550000002
 20
530.56831499999998
 11
2240.8625650000004
 21
530.78190499999994
  0
LINE
  8
_0-1_レイヤ___1
  6
CONTINUOUS
 62
    7
 10
2240.8625650000004
 20
530.78190499999994
 11
2240.6489649999999
 21
530.78190499999994
  0
LINE
  8
_0-1_レイヤ___1
  6
CONTINUOUS
 62
    7
 10
2240.6489649999999
 20
530.78190499999994
 11
2240.4388150000004
 21
530.78190499999994
  0
LINE
  8
_0-1_レイヤ___1
  6
CONTINUOUS
 62
    7
 10
2240.4388150000004
 20
530.78190499999994
 11
2240.2286650000001
 21
530.78190499999994
  0
LINE
  8
_0-1_レイヤ___1
  6
CONTINUOUS
 62
    7
 10
2240.2286650000001
 20
530.78190499999994
 11
2240.015065
 21
530.78190499999994
  0
LINE
  8
_0-1_レイヤ___1
  6
CONTINUOUS
 62
    7
 10
2240.015065
 20
530.78190499999994
 11
2239.8014750000002
 21
530.78190499999994
  0
LINE
  8
_0-1_レイヤ___1
  6
CONTINUOUS
 62
    7
 10
2239.8014750000002
 20
530.78190499999994
 11
2239.5913250000003
 21
530.78190499999994
  0
LINE
  8
_0-1_レイヤ___1
  6
CONTINUOUS
 62
    7
 10
2239.5913250000003
 20
530.78190499999994
 11
2239.3811650000002
 21
530.78190499999994
  0
LINE
  8
_0-1_レイヤ___1
  6
CONTINUOUS
 62
    7
 10
2239.3811650000002
 20
530.78190499999994
 11
2239.1675750000004
 21
530.78190499999994
  0
LINE
  8
_0-1_レイヤ___1
  6
CONTINUOUS
 62
    7
 10
2239.1675750000004
 20
530.78190499999994
 11
2238.9574250000001
 21
530.78190499999994
  0
LINE
  8
_0-1_レイヤ___1
  6
CONTINUOUS
 62
    7
 10
2238.9574250000001
 20
530.78190499999994
 11
2238.7472750000002
 21
530.78190499999994
  0
LINE
  8
_0-1_レイヤ___1
  6
CONTINUOUS
 62
    7
 10
2238.7472750000002
 20
530.78190499999994
 11
2238.5336750000001
 21
530.78190499999994
  0
LINE
  8
_0-1_レイヤ___1
  6
CONTINUOUS
 62
    7
 10
2238.5336750000001
 20
530.78190499999994
 11
2238.3235250000002
 21
530.78190499999994
  0
LINE
  8
_0-1_レイヤ___1
  6
CONTINUOUS
 62
    7
 10
2238.3235250000002
 20
530.78190499999994
 11
2238.1133749999999
 21
530.78190499999994
  0
LINE
  8
_0-1_レイヤ___1
  6
CONTINUOUS
 62
    7
 10
2238.1133749999999
 20
530.78190499999994
 11
2237.8997750000003
 21
530.78190499999994
  0
LINE
  8
_0-1_レイヤ___1
  6
CONTINUOUS
 62
    7
 10
2237.8997750000003
 20
530.78190499999994
 11
2237.686185
 21
530.78190499999994
  0
LINE
  8
_0-1_レイヤ___1
  6
CONTINUOUS
 62
    7
 10
2237.686185
 20
530.78190499999994
 11
2237.4760350000001
 21
530.78190499999994
  0
LINE
  8
_0-1_レイヤ___1
  6
CONTINUOUS
 62
    7
 10
2237.4760350000001
 20
530.78190499999994
 11
2237.2658850000003
 21
530.78190499999994
  0
LINE
  8
_0-1_レイヤ___1
  6
CONTINUOUS
 62
    7
 10
2237.2658850000003
 20
530.78190499999994
 11
2237.0522850000002
 21
530.78190499999994
  0
LINE
  8
_0-1_レイヤ___1
  6
CONTINUOUS
 62
    7
 10
2237.0522850000002
 20
530.78190499999994
 11
2236.8386850000002
 21
530.78190499999994
  0
LINE
  8
_0-1_レイヤ___1
  6
CONTINUOUS
 62
    7
 10
2236.8386850000002
 20
530.78190499999994
 11
2236.6285350000003
 21
530.78190499999994
  0
LINE
  8
_0-1_レイヤ___1
  6
CONTINUOUS
 62
    7
 10
2236.6285350000003
 20
530.78190499999994
 11
2236.4183849999999
 21
530.78190499999994
  0
LINE
  8
_0-1_レイヤ___1
  6
CONTINUOUS
 62
    7
 10
2236.4183849999999
 20
530.78190499999994
 11
2236.2047950000001
 21
530.78190499999994
  0
LINE
  8
_0-1_レイヤ___1
  6
CONTINUOUS
 62
    7
 10
2236.2047950000001
 20
530.78190499999994
 11
2235.9911950000005
 21
530.78190499999994
  0
LINE
  8
_0-1_レイヤ___1
  6
CONTINUOUS
 62
    7
 10
2235.9911950000005
 20
530.78190499999994
 11
2235.7810450000002
 21
530.78190499999994
  0
LINE
  8
_0-1_レイヤ___1
  6
CONTINUOUS
 62
    7
 10
2235.7810450000002
 20
530.78190499999994
 11
2235.5708950000003
 21
530.78190499999994
  0
LINE
  8
_0-1_レイヤ___1
  6
CONTINUOUS
 62
    7
 10
2235.5708950000003
 20
530.78190499999994
 11
2235.3572949999998
 21
530.78190499999994
  0
LINE
  8
_0-1_レイヤ___1
  6
CONTINUOUS
 62
    7
 10
2235.3572949999998
 20
530.78190499999994
 11
2235.1471450000004
 21
530.78190499999994
  0
LINE
  8
_0-1_レイヤ___1
  6
CONTINUOUS
 62
    7
 10
2235.1471450000004
 20
530.78190499999994
 11
2234.936995
 21
530.78190499999994
  0
LINE
  8
_0-1_レイヤ___1
  6
CONTINUOUS
 62
    7
 10
2234.936995
 20
530.78190499999994
 11
2234.7234050000002
 21
530.78190499999994
  0
LINE
  8
_0-1_レイヤ___1
  6
CONTINUOUS
 62
    7
 10
2234.7234050000002
 20
530.78190499999994
 11
2234.5132450000001
 21
530.78190499999994
  0
LINE
  8
_0-1_レイヤ___1
  6
CONTINUOUS
 62
    7
 10
2234.5132450000001
 20
530.78190499999994
 11
2234.3030950000002
 21
530.78190499999994
  0
LINE
  8
_0-1_レイヤ___1
  6
CONTINUOUS
 62
    7
 10
2234.3030950000002
 20
530.78190499999994
 11
2234.0895049999999
 21
530.78190499999994
  0
LINE
  8
_0-1_レイヤ___1
  6
CONTINUOUS
 62
    7
 10
2234.0895049999999
 20
530.78190499999994
 11
2233.8759050000003
 21
530.78190499999994
  0
LINE
  8
_0-1_レイヤ___1
  6
CONTINUOUS
 62
    7
 10
2233.8759050000003
 20
530.78190499999994
 11
2233.665755
 21
530.78190499999994
  0
LINE
  8
_0-1_レイヤ___1
  6
CONTINUOUS
 62
    7
 10
2233.665755
 20
530.78190499999994
 11
2233.4556050000001
 21
530.78190499999994
  0
LINE
  8
_0-1_レイヤ___1
  6
CONTINUOUS
 62
    7
 10
2233.4556050000001
 20
530.78190499999994
 11
2233.2420050000001
 21
530.78190499999994
  0
LINE
  8
_0-1_レイヤ___1
  6
CONTINUOUS
 62
    7
 10
2233.2420050000001
 20
530.78190499999994
 11
2233.0284150000002
 21
530.78190499999994
  0
LINE
  8
_0-1_レイヤ___1
  6
CONTINUOUS
 62
    7
 10
2233.0284150000002
 20
530.78190499999994
 11
2232.8182650000003
 21
530.78190499999994
  0
LINE
  8
_0-1_レイヤ___1
  6
CONTINUOUS
 62
    7
 10
2232.8182650000003
 20
530.78190499999994
 11
2232.608115
 21
530.78190499999994
  0
LINE
  8
_0-1_レイヤ___1
  6
CONTINUOUS
 62
    7
 10
2232.608115
 20
530.78190499999994
 11
2232.394515
 21
530.78190499999994
  0
LINE
  8
_0-1_レイヤ___1
  6
CONTINUOUS
 62
    7
 10
2232.394515
 20
530.78190499999994
 11
2232.1809149999999
 21
530.78190499999994
  0
LINE
  8
_0-1_レイヤ___1
  6
CONTINUOUS
 62
    7
 10
2232.1809149999999
 20
530.78190499999994
 11
2231.970765
 21
530.78190499999994
  0
LINE
  8
_0-1_レイヤ___1
  6
CONTINUOUS
 62
    7
 10
2231.970765
 20
530.78190499999994
 11
2231.7606150000001
 21
530.78190499999994
  0
LINE
  8
_0-1_レイヤ___1
  6
CONTINUOUS
 62
    7
 10
2231.7606150000001
 20
530.78190499999994
 11
2231.5504650000003
 21
530.78190499999994
  0
LINE
  8
_0-1_レイヤ___1
  6
CONTINUOUS
 62
    7
 10
2231.5504650000003
 20
530.78190499999994
 11
2231.3403150000004
 21
530.78190499999994
  0
LINE
  8
_0-1_レイヤ___1
  6
CONTINUOUS
 62
    7
 10
2231.3403150000004
 20
530.78190499999994
 11
2231.1267250000001
 21
530.78190499999994
  0
LINE
  8
_0-1_レイヤ___1
  6
CONTINUOUS
 62
    7
 10
2231.1267250000001
 20
530.78190499999994
 11
2230.913125
 21
530.78190499999994
  0
LINE
  8
_0-1_レイヤ___1
  6
CONTINUOUS
 62
    7
 10
2230.913125
 20
530.78190499999994
 11
2230.7029750000002
 21
530.78190499999994
  0
LINE
  8
_0-1_レイヤ___1
  6
CONTINUOUS
 62
    7
 10
2230.7029750000002
 20
530.78190499999994
 11
2230.4928250000003
 21
530.78190499999994
  0
LINE
  8
_0-1_レイヤ___1
  6
CONTINUOUS
 62
    7
 10
2230.4928250000003
 20
530.78190499999994
 11
2230.2792250000002
 21
530.78190499999994
  0
LINE
  8
_0-1_レイヤ___1
  6
CONTINUOUS
 62
    7
 10
2230.2792250000002
 20
530.78190499999994
 11
2230.0656350000004
 21
530.78190499999994
  0
LINE
  8
_0-1_レイヤ___1
  6
CONTINUOUS
 62
    7
 10
2230.0656350000004
 20
530.78190499999994
 11
2229.855485
 21
530.78190499999994
  0
LINE
  8
_0-1_レイヤ___1
  6
CONTINUOUS
 62
    7
 10
2229.855485
 20
530.78190499999994
 11
2229.6453250000004
 21
530.78190499999994
  0
LINE
  8
_0-1_レイヤ___1
  6
CONTINUOUS
 62
    7
 10
2229.6453250000004
 20
530.78190499999994
 11
2229.4317350000001
 21
530.78190499999994
  0
LINE
  8
_0-1_レイヤ___1
  6
CONTINUOUS
 62
    7
 10
2229.4317350000001
 20
530.78190499999994
 11
2229.2181350000001
 21
530.78190499999994
  0
LINE
  8
_0-1_レイヤ___1
  6
CONTINUOUS
 62
    7
 10
2229.2181350000001
 20
530.78190499999994
 11
2229.0079850000002
 21
530.78190499999994
  0
LINE
  8
_0-1_レイヤ___1
  6
CONTINUOUS
 62
    7
 10
2229.0079850000002
 20
530.78190499999994
 11
2228.7978349999998
 21
530.78190499999994
  0
LINE
  8
_0-1_レイヤ___1
  6
CONTINUOUS
 62
    7
 10
2228.7978349999998
 20
530.78190499999994
 11
2228.584245
 21
530.78190499999994
  0
LINE
  8
_0-1_レイヤ___1
  6
CONTINUOUS
 62
    7
 10
2228.584245
 20
530.78190499999994
 11
2228.3740849999999
 21
530.78190499999994
  0
LINE
  8
_0-1_レイヤ___1
  6
CONTINUOUS
 62
    7
 10
2228.3740849999999
 20
530.78190499999994
 11
2228.163935
 21
530.78190499999994
  0
LINE
  8
_0-1_レイヤ___1
  6
CONTINUOUS
 62
    7
 10
2228.163935
 20
530.78190499999994
 11
2227.9503450000002
 21
530.99550499999998
  0
LINE
  8
_0-1_レイヤ___1
  6
CONTINUOUS
 62
    7
 10
2227.9503450000002
 20
530.99550499999998
 11
2227.7401950000003
 21
531.20565499999998
  0
LINE
  8
_0-1_レイヤ___1
  6
CONTINUOUS
 62
    7
 10
2227.7401950000003
 20
531.20565499999998
 11
2227.530045
 21
531.20565499999998
  0
LINE
  8
_0-1_レイヤ___1
  6
CONTINUOUS
 62
    7
 10
2227.530045
 20
531.20565499999998
 11
2227.3164450000004
 21
531.20565499999998
  0
LINE
  8
_0-1_レイヤ___1
  6
CONTINUOUS
 62
    7
 10
2227.3164450000004
 20
531.20565499999998
 11
2227.1028450000003
 21
531.20565499999998
  0
LINE
  8
_0-1_レイヤ___1
  6
CONTINUOUS
 62
    7
 10
2227.1028450000003
 20
531.20565499999998
 11
2226.8926950000005
 21
531.20565499999998
  0
LINE
  8
_0-1_レイヤ___1
  6
CONTINUOUS
 62
    7
 10
2226.8926950000005
 20
531.20565499999998
 11
2226.6825450000001
 21
531.20565499999998
  0
LINE
  8
_0-1_レイヤ___1
  6
CONTINUOUS
 62
    7
 10
2226.6825450000001
 20
531.20565499999998
 11
2226.4689550000003
 21
531.20565499999998
  0
LINE
  8
_0-1_レイヤ___1
  6
CONTINUOUS
 62
    7
 10
2226.4689550000003
 20
531.20565499999998
 11
2226.2553550000002
 21
531.20565499999998
  0
LINE
  8
_0-1_レイヤ___1
  6
CONTINUOUS
 62
    7
 10
2226.2553550000002
 20
531.20565499999998
 11
2226.0452049999999
 21
531.20565499999998
  0
LINE
  8
_0-1_レイヤ___1
  6
CONTINUOUS
 62
    7
 10
2226.0452049999999
 20
531.20565499999998
 11
2225.8350550000005
 21
531.20565499999998
  0
LINE
  8
_0-1_レイヤ___1
  6
CONTINUOUS
 62
    7
 10
2225.8350550000005
 20
531.20565499999998
 11
2225.621455
 21
531.20565499999998
  0
LINE
  8
_0-1_レイヤ___1
  6
CONTINUOUS
 62
    7
 10
2225.621455
 20
531.20565499999998
 11
2225.4078650000001
 21
531.20565499999998
  0
LINE
  8
_0-1_レイヤ___1
  6
CONTINUOUS
 62
    7
 10
2225.4078650000001
 20
531.20565499999998
 11
2225.1977150000002
 21
531.20565499999998
  0
LINE
  8
_0-1_レイヤ___1
  6
CONTINUOUS
 62
    7
 10
2225.1977150000002
 20
531.20565499999998
 11
2224.9875650000004
 21
531.20565499999998
  0
LINE
  8
_0-1_レイヤ___1
  6
CONTINUOUS
 62
    7
 10
2224.9875650000004
 20
531.20565499999998
 11
2224.7739650000003
 21
531.20565499999998
  0
LINE
  8
_0-1_レイヤ___1
  6
CONTINUOUS
 62
    7
 10
2224.7739650000003
 20
531.20565499999998
 11
2224.5638150000004
 21
531.20565499999998
  0
LINE
  8
_0-1_レイヤ___1
  6
CONTINUOUS
 62
    7
 10
2224.5638150000004
 20
531.20565499999998
 11
2224.3536650000001
 21
531.20565499999998
  0
LINE
  8
_0-1_レイヤ___1
  6
CONTINUOUS
 62
    7
 10
2224.3536650000001
 20
531.20565499999998
 11
2224.1400650000005
 21
531.20565499999998
  0
LINE
  8
_0-1_レイヤ___1
  6
CONTINUOUS
 62
    7
 10
2224.1400650000005
 20
531.20565499999998
 11
2223.9299150000002
 21
531.20565499999998
  0
LINE
  8
_0-1_レイヤ___1
  6
CONTINUOUS
 62
    7
 10
2223.9299150000002
 20
531.20565499999998
 11
2223.7197650000003
 21
531.20565499999998
  0
LINE
  8
_0-1_レイヤ___1
  6
CONTINUOUS
 62
    7
 10
2223.7197650000003
 20
531.20565499999998
 11
2223.5061650000002
 21
531.20565499999998
  0
LINE
  8
_0-1_レイヤ___1
  6
CONTINUOUS
 62
    7
 10
2223.5061650000002
 20
531.20565499999998
 11
2223.2925749999999
 21
531.20565499999998
  0
LINE
  8
_0-1_レイヤ___1
  6
CONTINUOUS
 62
    7
 10
2223.2925749999999
 20
531.20565499999998
 11
2223.0824250000001
 21
531.20565499999998
  0
LINE
  8
_0-1_レイヤ___1
  6
CONTINUOUS
 62
    7
 10
2223.0824250000001
 20
531.20565499999998
 11
2222.8722750000002
 21
531.20565499999998
  0
LINE
  8
_0-1_レイヤ___1
  6
CONTINUOUS
 62
    7
 10
2222.8722750000002
 20
531.20565499999998
 11
2222.6586750000001
 21
531.20565499999998
  0
LINE
  8
_0-1_レイヤ___1
  6
CONTINUOUS
 62
    7
 10
2222.6586750000001
 20
531.20565499999998
 11
2222.4450850000003
 21
531.20565499999998
  0
LINE
  8
_0-1_レイヤ___1
  6
CONTINUOUS
 62
    7
 10
2222.4450850000003
 20
531.20565499999998
 11
2222.2349250000002
 21
531.20565499999998
  0
LINE
  8
_0-1_レイヤ___1
  6
CONTINUOUS
 62
    7
 10
2222.2349250000002
 20
531.20565499999998
 11
2222.0247750000003
 21
531.20565499999998
  0
LINE
  8
_0-1_レイヤ___1
  6
CONTINUOUS
 62
    7
 10
2222.0247750000003
 20
531.20565499999998
 11
2221.8111850000005
 21
531.20565499999998
  0
LINE
  8
_0-1_レイヤ___1
  6
CONTINUOUS
 62
    7
 10
2221.8111850000005
 20
531.20565499999998
 11
2221.597585
 21
531.20565499999998
  0
LINE
  8
_0-1_レイヤ___1
  6
CONTINUOUS
 62
    7
 10
2221.597585
 20
531.20565499999998
 11
2221.3874350000001
 21
531.20565499999998
  0
LINE
  8
_0-1_レイヤ___1
  6
CONTINUOUS
 62
    7
 10
2221.3874350000001
 20
531.20565499999998
 11
2221.1772850000002
 21
531.20565499999998
  0
LINE
  8
_0-1_レイヤ___1
  6
CONTINUOUS
 62
    7
 10
2221.1772850000002
 20
531.20565499999998
 11
2220.9671350000003
 21
531.20565499999998
  0
LINE
  8
_0-1_レイヤ___1
  6
CONTINUOUS
 62
    7
 10
2220.9671350000003
 20
531.20565499999998
 11
2220.756985
 21
531.20565499999998
  0
LINE
  8
_0-1_レイヤ___1
  6
CONTINUOUS
 62
    7
 10
2220.756985
 20
531.20565499999998
 11
2220.5433850000004
 21
531.20565499999998
  0
LINE
  8
_0-1_レイヤ___1
  6
CONTINUOUS
 62
    7
 10
2220.5433850000004
 20
531.20565499999998
 11
2220.3297950000001
 21
531.20565499999998
  0
LINE
  8
_0-1_レイヤ___1
  6
CONTINUOUS
 62
    7
 10
2220.3297950000001
 20
531.20565499999998
 11
2220.1196450000002
 21
531.20565499999998
  0
LINE
  8
_0-1_レイヤ___1
  6
CONTINUOUS
 62
    7
 10
2220.1196450000002
 20
531.20565499999998
 11
2219.9094850000001
 21
531.20565499999998
  0
LINE
  8
_0-1_レイヤ___1
  6
CONTINUOUS
 62
    7
 10
2219.9094850000001
 20
531.20565499999998
 11
2219.6958950000003
 21
531.20565499999998
  0
LINE
  8
_0-1_レイヤ___1
  6
CONTINUOUS
 62
    7
 10
2219.6958950000003
 20
531.20565499999998
 11
2219.4822950000002
 21
531.20565499999998
  0
LINE
  8
_0-1_レイヤ___1
  6
CONTINUOUS
 62
    7
 10
2219.4822950000002
 20
531.20565499999998
 11
2219.2721450000004
 21
531.20565499999998
  0
LINE
  8
_0-1_レイヤ___1
  6
CONTINUOUS
 62
    7
 10
2219.2721450000004
 20
531.20565499999998
 11
2219.061995
 21
531.20565499999998
  0
LINE
  8
_0-1_レイヤ___1
  6
CONTINUOUS
 62
    7
 10
2219.061995
 20
531.20565499999998
 11
2218.8484050000002
 21
531.20565499999998
  0
LINE
  8
_0-1_レイヤ___1
  6
CONTINUOUS
 62
    7
 10
2218.8484050000002
 20
531.20565499999998
 11
2218.6348050000001
 21
531.20565499999998
  0
LINE
  8
_0-1_レイヤ___1
  6
CONTINUOUS
 62
    7
 10
2218.6348050000001
 20
531.20565499999998
 11
2218.4246549999998
 21
531.20565499999998
  0
LINE
  8
_0-1_レイヤ___1
  6
CONTINUOUS
 62
    7
 10
2218.4246549999998
 20
531.20565499999998
 11
2218.2145050000004
 21
531.20565499999998
  0
LINE
  8
_0-1_レイヤ___1
  6
CONTINUOUS
 62
    7
 10
2218.2145050000004
 20
531.20565499999998
 11
2218.0009049999999
 21
531.20565499999998
  0
LINE
  8
_0-1_レイヤ___1
  6
CONTINUOUS
 62
    7
 10
2218.0009049999999
 20
531.20565499999998
 11
2217.790755
 21
531.20565499999998
  0
LINE
  8
_0-1_レイヤ___1
  6
CONTINUOUS
 62
    7
 10
2217.790755
 20
531.20565499999998
 11
2217.5806050000001
 21
531.20565499999998
  0
LINE
  8
_0-1_レイヤ___1
  6
CONTINUOUS
 62
    7
 10
2217.5806050000001
 20
531.20565499999998
 11
2217.3670050000001
 21
531.20565499999998
  0
LINE
  8
_0-1_レイヤ___1
  6
CONTINUOUS
 62
    7
 10
2217.3670050000001
 20
531.20565499999998
 11
2217.1568550000002
 21
531.20565499999998
  0
LINE
  8
_0-1_レイヤ___1
  6
CONTINUOUS
 62
    7
 10
2217.1568550000002
 20
531.20565499999998
 11
2216.9467050000003
 21
531.20565499999998
  0
LINE
  8
_0-1_レイヤ___1
  6
CONTINUOUS
 62
    7
 10
2216.9467050000003
 20
531.20565499999998
 11
2216.733115
 21
531.20565499999998
  0
LINE
  8
_0-1_レイヤ___1
  6
CONTINUOUS
 62
    7
 10
2216.733115
 20
531.20565499999998
 11
2216.5195150000004
 21
531.20565499999998
  0
LINE
  8
_0-1_レイヤ___1
  6
CONTINUOUS
 62
    7
 10
2216.5195150000004
 20
531.20565499999998
 11
2216.3093650000001
 21
531.20565499999998
  0
LINE
  8
_0-1_レイヤ___1
  6
CONTINUOUS
 62
    7
 10
2216.3093650000001
 20
531.20565499999998
 11
2216.0992150000002
 21
531.20565499999998
  0
LINE
  8
_0-1_レイヤ___1
  6
CONTINUOUS
 62
    7
 10
2216.0992150000002
 20
531.20565499999998
 11
2215.8856150000001
 21
531.20565499999998
  0
LINE
  8
_0-1_レイヤ___1
  6
CONTINUOUS
 62
    7
 10
2215.8856150000001
 20
531.20565499999998
 11
2215.6720249999998
 21
531.20565499999998
  0
LINE
  8
_0-1_レイヤ___1
  6
CONTINUOUS
 62
    7
 10
2215.6720249999998
 20
531.20565499999998
 11
2215.461875
 21
531.20565499999998
  0
LINE
  8
_0-1_レイヤ___1
  6
CONTINUOUS
 62
    7
 10
2215.461875
 20
531.20565499999998
 11
2215.2517250000001
 21
531.41580499999998
  0
LINE
  8
_0-1_レイヤ___1
  6
CONTINUOUS
 62
    7
 10
2215.2517250000001
 20
531.41580499999998
 11
2215.038125
 21
531.62940500000002
  0
LINE
  8
_0-1_レイヤ___1
  6
CONTINUOUS
 62
    7
 10
2215.038125
 20
531.62940500000002
 11
2214.824525
 21
531.62940500000002
  0
LINE
  8
_0-1_レイヤ___1
  6
CONTINUOUS
 62
    7
 10
2214.824525
 20
531.62940500000002
 11
2214.6143750000001
 21
531.62940500000002
  0
LINE
  8
_0-1_レイヤ___1
  6
CONTINUOUS
 62
    7
 10
2214.6143750000001
 20
531.62940500000002
 11
2214.4042250000002
 21
531.62940500000002
  0
LINE
  8
_0-1_レイヤ___1
  6
CONTINUOUS
 62
    7
 10
2214.4042250000002
 20
531.62940500000002
 11
2214.1906350000004
 21
531.62940500000002
  0
LINE
  8
_0-1_レイヤ___1
  6
CONTINUOUS
 62
    7
 10
2214.1906350000004
 20
531.62940500000002
 11
2213.980485
 21
531.62940500000002
  0
LINE
  8
_0-1_レイヤ___1
  6
CONTINUOUS
 62
    7
 10
2213.980485
 20
531.62940500000002
 11
2213.770325
 21
531.62940500000002
  0
LINE
  8
_0-1_レイヤ___1
  6
CONTINUOUS
 62
    7
 10
2213.770325
 20
531.62940500000002
 11
2213.5567350000001
 21
531.62940500000002
  0
LINE
  8
_0-1_レイヤ___1
  6
CONTINUOUS
 62
    7
 10
2213.5567350000001
 20
531.62940500000002
 11
2213.3465850000002
 21
531.62940500000002
  0
LINE
  8
_0-1_レイヤ___1
  6
CONTINUOUS
 62
    7
 10
2213.3465850000002
 20
531.62940500000002
 11
2213.1364350000003
 21
531.62940500000002
  0
LINE
  8
_0-1_レイヤ___1
  6
CONTINUOUS
 62
    7
 10
2213.1364350000003
 20
531.62940500000002
 11
2212.9228350000003
 21
531.62940500000002
  0
LINE
  8
_0-1_レイヤ___1
  6
CONTINUOUS
 62
    7
 10
2212.9228350000003
 20
531.62940500000002
 11
2212.709245
 21
531.62940500000002
  0
LINE
  8
_0-1_レイヤ___1
  6
CONTINUOUS
 62
    7
 10
2212.709245
 20
531.62940500000002
 11
2212.4990849999999
 21
531.62940500000002
  0
LINE
  8
_0-1_レイヤ___1
  6
CONTINUOUS
 62
    7
 10
2212.4990849999999
 20
531.62940500000002
 11
2212.2889350000005
 21
531.62940500000002
  0
LINE
  8
_0-1_レイヤ___1
  6
CONTINUOUS
 62
    7
 10
2212.2889350000005
 20
531.62940500000002
 11
2212.0753450000002
 21
531.62940500000002
  0
LINE
  8
_0-1_レイヤ___1
  6
CONTINUOUS
 62
    7
 10
2212.0753450000002
 20
531.62940500000002
 11
2211.8617450000002
 21
531.62940500000002
  0
LINE
  8
_0-1_レイヤ___1
  6
CONTINUOUS
 62
    7
 10
2211.8617450000002
 20
531.62940500000002
 11
2211.6515950000003
 21
531.62940500000002
  0
LINE
  8
_0-1_レイヤ___1
  6
CONTINUOUS
 62
    7
 10
2211.6515950000003
 20
531.62940500000002
 11
2211.4414449999999
 21
531.62940500000002
  0
LINE
  8
_0-1_レイヤ___1
  6
CONTINUOUS
 62
    7
 10
2211.4414449999999
 20
531.62940500000002
 11
2211.2278450000003
 21
531.62940500000002
  0
LINE
  8
_0-1_レイヤ___1
  6
CONTINUOUS
 62
    7
 10
2211.2278450000003
 20
531.62940500000002
 11
2211.014255
 21
531.62940500000002
  0
LINE
  8
_0-1_レイヤ___1
  6
CONTINUOUS
 62
    7
 10
2211.014255
 20
531.62940500000002
 11
2210.8041050000002
 21
531.62940500000002
  0
LINE
  8
_0-1_レイヤ___1
  6
CONTINUOUS
 62
    7
 10
2210.8041050000002
 20
531.62940500000002
 11
2210.5939550000003
 21
531.62940500000002
  0
LINE
  8
_0-1_レイヤ___1
  6
CONTINUOUS
 62
    7
 10
2210.5939550000003
 20
531.62940500000002
 11
2210.3838050000004
 21
531.62940500000002
  0
LINE
  8
_0-1_レイヤ___1
  6
CONTINUOUS
 62
    7
 10
2210.3838050000004
 20
531.62940500000002
 11
2210.1736550000001
 21
531.62940500000002
  0
LINE
  8
_0-1_レイヤ___1
  6
CONTINUOUS
 62
    7
 10
2210.1736550000001
 20
531.62940500000002
 11
2209.9600550000005
 21
531.62940500000002
  0
LINE
  8
_0-1_レイヤ___1
  6
CONTINUOUS
 62
    7
 10
2209.9600550000005
 20
531.62940500000002
 11
2209.746455
 21
531.62940500000002
  0
LINE
  8
_0-1_レイヤ___1
  6
CONTINUOUS
 62
    7
 10
2209.746455
 20
531.62940500000002
 11
2209.5363050000001
 21
531.62940500000002
  0
LINE
  8
_0-1_レイヤ___1
  6
CONTINUOUS
 62
    7
 10
2209.5363050000001
 20
531.62940500000002
 11
2209.3261550000002
 21
531.62940500000002
  0
LINE
  8
_0-1_レイヤ___1
  6
CONTINUOUS
 62
    7
 10
2209.3261550000002
 20
531.62940500000002
 11
2209.1125649999999
 21
531.62940500000002
  0
LINE
  8
_0-1_レイヤ___1
  6
CONTINUOUS
 62
    7
 10
2209.1125649999999
 20
531.62940500000002
 11
2208.8989650000003
 21
531.62940500000002
  0
LINE
  8
_0-1_レイヤ___1
  6
CONTINUOUS
 62
    7
 10
2208.8989650000003
 20
531.62940500000002
 11
2208.688815
 21
531.62940500000002
  0
LINE
  8
_0-1_レイヤ___1
  6
CONTINUOUS
 62
    7
 10
2208.688815
 20
531.62940500000002
 11
2208.4786650000001
 21
531.62940500000002
  0
LINE
  8
_0-1_レイヤ___1
  6
CONTINUOUS
 62
    7
 10
2208.4786650000001
 20
531.62940500000002
 11
2208.265065
 21
531.62940500000002
  0
LINE
  8
_0-1_レイヤ___1
  6
CONTINUOUS
 62
    7
 10
2208.265065
 20
531.62940500000002
 11
2208.0514750000002
 21
531.62940500000002
  0
LINE
  8
_0-1_レイヤ___1
  6
CONTINUOUS
 62
    7
 10
2208.0514750000002
 20
531.62940500000002
 11
2207.8413250000003
 21
531.62940500000002
  0
LINE
  8
_0-1_レイヤ___1
  6
CONTINUOUS
 62
    7
 10
2207.8413250000003
 20
531.62940500000002
 11
2207.6311650000002
 21
531.62940500000002
  0
LINE
  8
_0-1_レイヤ___1
  6
CONTINUOUS
 62
    7
 10
2207.6311650000002
 20
531.62940500000002
 11
2207.4175749999999
 21
531.62940500000002
  0
LINE
  8
_0-1_レイヤ___1
  6
CONTINUOUS
 62
    7
 10
2207.4175749999999
 20
531.62940500000002
 11
2207.2074250000005
 21
531.62940500000002
  0
LINE
  8
_0-1_レイヤ___1
  6
CONTINUOUS
 62
    7
 10
2207.2074250000005
 20
531.62940500000002
 11
2206.9972750000002
 21
531.62940500000002
  0
LINE
  8
_0-1_レイヤ___1
  6
CONTINUOUS
 62
    7
 10
2206.9972750000002
 20
531.62940500000002
 11
2206.7836750000001
 21
531.62940500000002
  0
LINE
  8
_0-1_レイヤ___1
  6
CONTINUOUS
 62
    7
 10
2206.7836750000001
 20
531.62940500000002
 11
2206.5735249999998
 21
531.62940500000002
  0
LINE
  8
_0-1_レイヤ___1
  6
CONTINUOUS
 62
    7
 10
2206.5735249999998
 20
531.62940500000002
 11
2206.3633750000004
 21
531.62940500000002
  0
LINE
  8
_0-1_レイヤ___1
  6
CONTINUOUS
 62
    7
 10
2206.3633750000004
 20
531.62940500000002
 11
2206.1497749999999
 21
531.62940500000002
  0
LINE
  8
_0-1_レイヤ___1
  6
CONTINUOUS
 62
    7
 10
2206.1497749999999
 20
531.62940500000002
 11
2205.936185
 21
531.62940500000002
  0
LINE
  8
_0-1_レイヤ___1
  6
CONTINUOUS
 62
    7
 10
2205.936185
 20
531.62940500000002
 11
2205.7260350000001
 21
531.62940500000002
  0
LINE
  8
_0-1_レイヤ___1
  6
CONTINUOUS
 62
    7
 10
2205.7260350000001
 20
531.62940500000002
 11
2205.5158850000003
 21
531.62940500000002
  0
LINE
  8
_0-1_レイヤ___1
  6
CONTINUOUS
 62
    7
 10
2205.5158850000003
 20
531.62940500000002
 11
2205.3022850000002
 21
531.62940500000002
  0
LINE
  8
_0-1_レイヤ___1
  6
CONTINUOUS
 62
    7
 10
2205.3022850000002
 20
531.62940500000002
 11
2205.0886850000002
 21
531.62940500000002
  0
LINE
  8
_0-1_レイヤ___1
  6
CONTINUOUS
 62
    7
 10
2205.0886850000002
 20
531.62940500000002
 11
2204.8785350000003
 21
531.62940500000002
  0
LINE
  8
_0-1_レイヤ___1
  6
CONTINUOUS
 62
    7
 10
2204.8785350000003
 20
531.62940500000002
 11
2204.6683850000004
 21
531.62940500000002
  0
LINE
  8
_0-1_レイヤ___1
  6
CONTINUOUS
 62
    7
 10
2204.6683850000004
 20
531.62940500000002
 11
2204.4547950000001
 21
531.62940500000002
  0
LINE
  8
_0-1_レイヤ___1
  6
CONTINUOUS
 62
    7
 10
2204.4547950000001
 20
531.62940500000002
 11
2204.2411950000001
 21
531.62940500000002
  0
LINE
  8
_0-1_レイヤ___1
  6
CONTINUOUS
 62
    7
 10
2204.2411950000001
 20
531.62940500000002
 11
2204.0310450000002
 21
531.62940500000002
  0
LINE
  8
_0-1_レイヤ___1
  6
CONTINUOUS
 62
    7
 10
2204.0310450000002
 20
531.62940500000002
 11
2203.8208949999998
 21
531.62940500000002
  0
LINE
  8
_0-1_レイヤ___1
  6
CONTINUOUS
 62
    7
 10
2203.8208949999998
 20
531.62940500000002
 11
2203.6072950000002
 21
531.62940500000002
  0
LINE
  8
_0-1_レイヤ___1
  6
CONTINUOUS
 62
    7
 10
2203.6072950000002
 20
531.62940500000002
 11
2203.3971449999999
 21
531.62940500000002
  0
LINE
  8
_0-1_レイヤ___1
  6
CONTINUOUS
 62
    7
 10
2203.3971449999999
 20
531.62940500000002
 11
2203.186995
 21
531.62940500000002
  0
LINE
  8
_0-1_レイヤ___1
  6
CONTINUOUS
 62
    7
 10
2203.186995
 20
531.62940500000002
 11
2202.9734050000002
 21
531.62940500000002
  0
LINE
  8
_0-1_レイヤ___1
  6
CONTINUOUS
 62
    7
 10
2202.9734050000002
 20
531.62940500000002
 11
2202.7632450000001
 21
531.62940500000002
  0
LINE
  8
_0-1_レイヤ___1
  6
CONTINUOUS
 62
    7
 10
2202.7632450000001
 20
531.62940500000002
 11
2202.5530950000002
 21
531.62940500000002
  0
LINE
  8
_0-1_レイヤ___1
  6
CONTINUOUS
 62
    7
 10
2202.5530950000002
 20
531.62940500000002
 11
2202.3395050000004
 21
531.62940500000002
  0
LINE
  8
_0-1_レイヤ___1
  6
CONTINUOUS
 62
    7
 10
2202.3395050000004
 20
531.62940500000002
 11
2202.1259049999999
 21
531.84299499999997
  0
LINE
  8
_0-1_レイヤ___1
  6
CONTINUOUS
 62
    7
 10
2202.1259049999999
 20
531.84299499999997
 11
2201.9157550000004
 21
532.05314499999997
  0
LINE
  8
_0-1_レイヤ___1
  6
CONTINUOUS
 62
    7
 10
2201.9157550000004
 20
532.05314499999997
 11
2201.7056050000001
 21
532.05314499999997
  0
LINE
  8
_0-1_レイヤ___1
  6
CONTINUOUS
 62
    7
 10
2201.7056050000001
 20
532.05314499999997
 11
2201.4920050000001
 21
532.05314499999997
  0
LINE
  8
_0-1_レイヤ___1
  6
CONTINUOUS
 62
    7
 10
2201.4920050000001
 20
532.05314499999997
 11
2201.2784150000002
 21
532.05314499999997
  0
LINE
  8
_0-1_レイヤ___1
  6
CONTINUOUS
 62
    7
 10
2201.2784150000002
 20
532.05314499999997
 11
2201.0682649999999
 21
532.05314499999997
  0
LINE
  8
_0-1_レイヤ___1
  6
CONTINUOUS
 62
    7
 10
2201.0682649999999
 20
532.05314499999997
 11
2200.858115
 21
532.05314499999997
  0
LINE
  8
_0-1_レイヤ___1
  6
CONTINUOUS
 62
    7
 10
2200.858115
 20
532.05314499999997
 11
2200.644515
 21
532.05314499999997
  0
LINE
  8
_0-1_レイヤ___1
  6
CONTINUOUS
 62
    7
 10
2200.644515
 20
532.05314499999997
 11
2200.4309149999999
 21
532.05314499999997
  0
LINE
  8
_0-1_レイヤ___1
  6
CONTINUOUS
 62
    7
 10
2200.4309149999999
 20
532.05314499999997
 11
2200.220765
 21
532.05314499999997
  0
LINE
  8
_0-1_レイヤ___1
  6
CONTINUOUS
 62
    7
 10
2200.220765
 20
532.05314499999997
 11
2200.0106150000001
 21
532.05314499999997
  0
LINE
  8
_0-1_レイヤ___1
  6
CONTINUOUS
 62
    7
 10
2200.0106150000001
 20
532.05314499999997
 11
2199.8004650000003
 21
532.05314499999997
  0
LINE
  8
_0-1_レイヤ___1
  6
CONTINUOUS
 62
    7
 10
2199.8004650000003
 20
532.05314499999997
 11
2199.5903149999999
 21
532.05314499999997
  0
LINE
  8
_0-1_レイヤ___1
  6
CONTINUOUS
 62
    7
 10
2199.5903149999999
 20
532.05314499999997
 11
2199.3767250000001
 21
532.05314499999997
  0
LINE
  8
_0-1_レイヤ___1
  6
CONTINUOUS
 62
    7
 10
2199.3767250000001
 20
532.05314499999997
 11
2199.163125
 21
532.05314499999997
  0
LINE
  8
_0-1_レイヤ___1
  6
CONTINUOUS
 62
    7
 10
2199.163125
 20
532.05314499999997
 11
2198.9529750000002
 21
532.05314499999997
  0
LINE
  8
_0-1_レイヤ___1
  6
CONTINUOUS
 62
    7
 10
2198.9529750000002
 20
532.05314499999997
 11
2198.7428250000003
 21
532.05314499999997
  0
LINE
  8
_0-1_レイヤ___1
  6
CONTINUOUS
 62
    7
 10
2198.7428250000003
 20
532.05314499999997
 11
2198.5292250000002
 21
532.05314499999997
  0
LINE
  8
_0-1_レイヤ___1
  6
CONTINUOUS
 62
    7
 10
2198.5292250000002
 20
532.05314499999997
 11
2198.3156349999999
 21
532.05314499999997
  0
LINE
  8
_0-1_レイヤ___1
  6
CONTINUOUS
 62
    7
 10
2198.3156349999999
 20
532.05314499999997
 11
2198.105485
 21
532.05314499999997
  0
LINE
  8
_0-1_レイヤ___1
  6
CONTINUOUS
 62
    7
 10
2198.105485
 20
532.05314499999997
 11
2197.895325
 21
532.05314499999997
  0
LINE
  8
_0-1_レイヤ___1
  6
CONTINUOUS
 62
    7
 10
2197.895325
 20
532.05314499999997
 11
2197.6817350000001
 21
532.05314499999997
  0
LINE
  8
_0-1_レイヤ___1
  6
CONTINUOUS
 62
    7
 10
2197.6817350000001
 20
532.05314499999997
 11
2197.4681350000001
 21
532.05314499999997
  0
LINE
  8
_0-1_レイヤ___1
  6
CONTINUOUS
 62
    7
 10
2197.4681350000001
 20
532.05314499999997
 11
2197.2579850000002
 21
532.05314499999997
  0
LINE
  8
_0-1_レイヤ___1
  6
CONTINUOUS
 62
    7
 10
2197.2579850000002
 20
532.05314499999997
 11
2197.0478350000003
 21
532.05314499999997
  0
LINE
  8
_0-1_レイヤ___1
  6
CONTINUOUS
 62
    7
 10
2197.0478350000003
 20
532.05314499999997
 11
2196.8342450000005
 21
532.05314499999997
  0
LINE
  8
_0-1_レイヤ___1
  6
CONTINUOUS
 62
    7
 10
2196.8342450000005
 20
532.05314499999997
 11
2196.6240850000004
 21
532.05314499999997
  0
LINE
  8
_0-1_レイヤ___1
  6
CONTINUOUS
 62
    7
 10
2196.6240850000004
 20
532.05314499999997
 11
2196.413935
 21
532.05314499999997
  0
LINE
  8
_0-1_レイヤ___1
  6
CONTINUOUS
 62
    7
 10
2196.413935
 20
532.05314499999997
 11
2196.2003450000002
 21
532.05314499999997
  0
LINE
  8
_0-1_レイヤ___1
  6
CONTINUOUS
 62
    7
 10
2196.2003450000002
 20
532.05314499999997
 11
2195.9901950000003
 21
532.05314499999997
  0
LINE
  8
_0-1_レイヤ___1
  6
CONTINUOUS
 62
    7
 10
2195.9901950000003
 20
532.05314499999997
 11
2195.7800450000004
 21
532.05314499999997
  0
LINE
  8
_0-1_レイヤ___1
  6
CONTINUOUS
 62
    7
 10
2195.7800450000004
 20
532.05314499999997
 11
2195.5664449999999
 21
532.05314499999997
  0
LINE
  8
_0-1_レイヤ___1
  6
CONTINUOUS
 62
    7
 10
2195.5664449999999
 20
532.05314499999997
 11
2195.3528450000003
 21
532.05314499999997
  0
LINE
  8
_0-1_レイヤ___1
  6
CONTINUOUS
 62
    7
 10
2195.3528450000003
 20
532.05314499999997
 11
2195.142695
 21
532.05314499999997
  0
LINE
  8
_0-1_レイヤ___1
  6
CONTINUOUS
 62
    7
 10
2195.142695
 20
532.05314499999997
 11
2194.9325450000001
 21
532.05314499999997
  0
LINE
  8
_0-1_レイヤ___1
  6
CONTINUOUS
 62
    7
 10
2194.9325450000001
 20
532.05314499999997
 11
2194.7189550000003
 21
532.05314499999997
  0
LINE
  8
_0-1_レイヤ___1
  6
CONTINUOUS
 62
    7
 10
2194.7189550000003
 20
532.05314499999997
 11
2194.5053550000002
 21
532.05314499999997
  0
LINE
  8
_0-1_レイヤ___1
  6
CONTINUOUS
 62
    7
 10
2194.5053550000002
 20
532.05314499999997
 11
2194.2952050000004
 21
532.05314499999997
  0
LINE
  8
_0-1_レイヤ___1
  6
CONTINUOUS
 62
    7
 10
2194.2952050000004
 20
532.05314499999997
 11
2194.085055
 21
532.05314499999997
  0
LINE
  8
_0-1_レイヤ___1
  6
CONTINUOUS
 62
    7
 10
2194.085055
 20
532.05314499999997
 11
2193.871455
 21
532.05314499999997
  0
LINE
  8
_0-1_レイヤ___1
  6
CONTINUOUS
 62
    7
 10
2193.871455
 20
532.05314499999997
 11
2193.6578650000001
 21
532.05314499999997
  0
LINE
  8
_0-1_レイヤ___1
  6
CONTINUOUS
 62
    7
 10
2193.6578650000001
 20
532.05314499999997
 11
2193.4477150000002
 21
532.05314499999997
  0
LINE
  8
_0-1_レイヤ___1
  6
CONTINUOUS
 62
    7
 10
2193.4477150000002
 20
532.05314499999997
 11
2193.2375649999999
 21
532.05314499999997
  0
LINE
  8
_0-1_レイヤ___1
  6
CONTINUOUS
 62
    7
 10
2193.2375649999999
 20
532.05314499999997
 11
2193.0239650000003
 21
532.05314499999997
  0
LINE
  8
_0-1_レイヤ___1
  6
CONTINUOUS
 62
    7
 10
2193.0239650000003
 20
532.05314499999997
 11
2192.813815
 21
532.05314499999997
  0
LINE
  8
_0-1_レイヤ___1
  6
CONTINUOUS
 62
    7
 10
2192.813815
 20
532.05314499999997
 11
2192.6036650000001
 21
532.05314499999997
  0
LINE
  8
_0-1_レイヤ___1
  6
CONTINUOUS
 62
    7
 10
2192.6036650000001
 20
532.05314499999997
 11
2192.390065
 21
532.05314499999997
  0
LINE
  8
_0-1_レイヤ___1
  6
CONTINUOUS
 62
    7
 10
2192.390065
 20
532.05314499999997
 11
2192.1799150000002
 21
532.05314499999997
  0
LINE
  8
_0-1_レイヤ___1
  6
CONTINUOUS
 62
    7
 10
2192.1799150000002
 20
532.05314499999997
 11
2191.9697649999998
 21
532.05314499999997
  0
LINE
  8
_0-1_レイヤ___1
  6
CONTINUOUS
 62
    7
 10
2191.9697649999998
 20
532.05314499999997
 11
2191.7561650000002
 21
532.05314499999997
  0
LINE
  8
_0-1_レイヤ___1
  6
CONTINUOUS
 62
    7
 10
2191.7561650000002
 20
532.05314499999997
 11
2191.5425750000004
 21
532.05314499999997
  0
LINE
  8
_0-1_レイヤ___1
  6
CONTINUOUS
 62
    7
 10
2191.5425750000004
 20
532.05314499999997
 11
2191.3324250000001
 21
532.05314499999997
  0
LINE
  8
_0-1_レイヤ___1
  6
CONTINUOUS
 62
    7
 10
2191.3324250000001
 20
532.05314499999997
 11
2191.1222750000002
 21
532.05314499999997
  0
LINE
  8
_0-1_レイヤ___1
  6
CONTINUOUS
 62
    7
 10
2191.1222750000002
 20
532.05314499999997
 11
2190.9086750000001
 21
532.05314499999997
  0
LINE
  8
_0-1_レイヤ___1
  6
CONTINUOUS
 62
    7
 10
2190.9086750000001
 20
532.05314499999997
 11
2190.6950850000003
 21
532.05314499999997
  0
LINE
  8
_0-1_レイヤ___1
  6
CONTINUOUS
 62
    7
 10
2190.6950850000003
 20
532.05314499999997
 11
2190.4849250000002
 21
532.05314499999997
  0
LINE
  8
_0-1_レイヤ___1
  6
CONTINUOUS
 62
    7
 10
2190.4849250000002
 20
532.05314499999997
 11
2190.2747749999999
 21
532.05314499999997
  0
LINE
  8
_0-1_レイヤ___1
  6
CONTINUOUS
 62
    7
 10
2190.2747749999999
 20
532.05314499999997
 11
2190.061185
 21
532.05314499999997
  0
LINE
  8
_0-1_レイヤ___1
  6
CONTINUOUS
 62
    7
 10
2190.061185
 20
532.05314499999997
 11
2189.8475850000004
 21
532.05314499999997
  0
LINE
  8
_0-1_レイヤ___1
  6
CONTINUOUS
 62
    7
 10
2189.8475850000004
 20
532.05314499999997
 11
2189.6374350000001
 21
532.05314499999997
  0
LINE
  8
_0-1_レイヤ___1
  6
CONTINUOUS
 62
    7
 10
2189.6374350000001
 20
532.05314499999997
 11
2189.4272850000002
 21
532.05314499999997
  0
LINE
  8
_0-1_レイヤ___1
  6
CONTINUOUS
 62
    7
 10
2189.4272850000002
 20
532.05314499999997
 11
2189.2171349999999
 21
532.05314499999997
  0
LINE
  8
_0-1_レイヤ___1
  6
CONTINUOUS
 62
    7
 10
2189.2171349999999
 20
532.05314499999997
 11
2189.006985
 21
532.05314499999997
  0
LINE
  8
_0-1_レイヤ___1
  6
CONTINUOUS
 62
    7
 10
2189.006985
 20
532.05314499999997
 11
2188.7933849999999
 21
532.05314499999997
  0
LINE
  8
_0-1_レイヤ___1
  6
CONTINUOUS
 62
    7
 10
2188.7933849999999
 20
532.05314499999997
 11
2188.7933849999999
 21
532.26329499999997
  0
LINE
  8
_0-1_レイヤ___1
  6
CONTINUOUS
 62
    7
 10
2188.7933849999999
 20
532.26329499999997
 11
2188.7933849999999
 21
532.47689500000001
  0
LINE
  8
_0-1_レイヤ___1
  6
CONTINUOUS
 62
    7
 10
2188.7933849999999
 20
532.47689500000001
 11
2188.5797950000001
 21
532.47689500000001
  0
LINE
  8
_0-1_レイヤ___1
  6
CONTINUOUS
 62
    7
 10
2188.5797950000001
 20
532.47689500000001
 11
2188.3696450000002
 21
532.47689500000001
  0
LINE
  8
_0-1_レイヤ___1
  6
CONTINUOUS
 62
    7
 10
2188.3696450000002
 20
532.47689500000001
 11
2188.1594850000001
 21
532.47689500000001
  0
LINE
  8
_0-1_レイヤ___1
  6
CONTINUOUS
 62
    7
 10
2188.1594850000001
 20
532.47689500000001
 11
2187.9458950000003
 21
532.47689500000001
  0
LINE
  8
_0-1_レイヤ___1
  6
CONTINUOUS
 62
    7
 10
2187.9458950000003
 20
532.47689500000001
 11
2187.7322950000002
 21
532.47689500000001
  0
LINE
  8
_0-1_レイヤ___1
  6
CONTINUOUS
 62
    7
 10
2187.7322950000002
 20
532.47689500000001
 11
2187.5221449999999
 21
532.47689500000001
  0
LINE
  8
_0-1_レイヤ___1
  6
CONTINUOUS
 62
    7
 10
2187.5221449999999
 20
532.47689500000001
 11
2187.311995
 21
532.47689500000001
  0
LINE
  8
_0-1_レイヤ___1
  6
CONTINUOUS
 62
    7
 10
2187.311995
 20
532.47689500000001
 11
2187.0984050000002
 21
532.47689500000001
  0
LINE
  8
_0-1_レイヤ___1
  6
CONTINUOUS
 62
    7
 10
2187.0984050000002
 20
532.47689500000001
 11
2186.8848050000001
 21
532.47689500000001
  0
LINE
  8
_0-1_レイヤ___1
  6
CONTINUOUS
 62
    7
 10
2186.8848050000001
 20
532.47689500000001
 11
2186.6746550000003
 21
532.47689500000001
  0
LINE
  8
_0-1_レイヤ___1
  6
CONTINUOUS
 62
    7
 10
2186.6746550000003
 20
532.47689500000001
 11
2183.711875
 21
532.47689500000001
  0
LINE
  8
_0-1_レイヤ___1
  6
CONTINUOUS
 62
    7
 10
2183.711875
 20
532.47689500000001
 11
2180.7490850000004
 21
532.47689500000001
  0
LINE
  8
_0-1_レイヤ___1
  6
CONTINUOUS
 62
    7
 10
2502.9068550000002
 20
620.53009500000007
 11
2502.9068550000002
 21
620.74024499999996
  0
LINE
  8
_0-1_レイヤ___1
  6
CONTINUOUS
 62
    7
 10
2502.9068550000002
 20
620.74024499999996
 11
2502.9068550000002
 21
620.95383500000003
  0
LINE
  8
_0-1_レイヤ___1
  6
CONTINUOUS
 62
    7
 10
2502.9068550000002
 20
620.95383500000003
 11
2502.9068550000002
 21
621.16398500000003
  0
LINE
  8
_0-1_レイヤ___1
  6
CONTINUOUS
 62
    7
 10
2502.9068550000002
 20
621.16398500000003
 11
2502.9068550000002
 21
621.37413500000002
  0
LINE
  8
_0-1_レイヤ___1
  6
CONTINUOUS
 62
    7
 10
2502.9068550000002
 20
621.37413500000002
 11
2502.9068550000002
 21
621.58773500000007
  0
LINE
  8
_0-1_レイヤ___1
  6
CONTINUOUS
 62
    7
 10
2502.9068550000002
 20
621.58773500000007
 11
2502.9068550000002
 21
621.79788499999995
  0
LINE
  8
_0-1_レイヤ___1
  6
CONTINUOUS
 62
    7
 10
2502.9068550000002
 20
621.79788499999995
 11
2502.9068550000002
 21
622.00803499999995
  0
LINE
  8
_0-1_レイヤ___1
  6
CONTINUOUS
 62
    7
 10
2502.9068550000002
 20
622.00803499999995
 11
2502.9068550000002
 21
622.22163499999999
  0
LINE
  8
_0-1_レイヤ___1
  6
CONTINUOUS
 62
    7
 10
2502.9068550000002
 20
622.22163499999999
 11
2502.9068550000002
 21
622.43522499999995
  0
LINE
  8
_0-1_レイヤ___1
  6
CONTINUOUS
 62
    7
 10
2502.9068550000002
 20
622.43522499999995
 11
2502.9068550000002
 21
622.64537500000006
  0
LINE
  8
_0-1_レイヤ___1
  6
CONTINUOUS
 62
    7
 10
2502.9068550000002
 20
622.64537500000006
 11
2502.9068550000002
 21
622.85552500000006
  0
LINE
  8
_0-1_レイヤ___1
  6
CONTINUOUS
 62
    7
 10
2502.9068550000002
 20
622.85552500000006
 11
2502.9068550000002
 21
623.06912499999999
  0
LINE
  8
_0-1_レイヤ___1
  6
CONTINUOUS
 62
    7
 10
2502.9068550000002
 20
623.06912499999999
 11
2502.9068550000002
 21
623.28272500000003
  0
LINE
  8
_0-1_レイヤ___1
  6
CONTINUOUS
 62
    7
 10
2502.9068550000002
 20
623.28272500000003
 11
2502.9068550000002
 21
623.49287500000003
  0
LINE
  8
_0-1_レイヤ___1
  6
CONTINUOUS
 62
    7
 10
2502.9068550000002
 20
623.49287500000003
 11
2502.9068550000002
 21
623.70302500000003
  0
LINE
  8
_0-1_レイヤ___1
  6
CONTINUOUS
 62
    7
 10
2502.9068550000002
 20
623.70302500000003
 11
2502.9068550000002
 21
623.91661499999998
  0
LINE
  8
_0-1_レイヤ___1
  6
CONTINUOUS
 62
    7
 10
2502.9068550000002
 20
623.91661499999998
 11
2502.9068550000002
 21
624.13021500000002
  0
LINE
  8
_0-1_レイヤ___1
  6
CONTINUOUS
 62
    7
 10
2502.9068550000002
 20
624.13021500000002
 11
2502.9068550000002
 21
624.34036500000002
  0
LINE
  8
_0-1_レイヤ___1
  6
CONTINUOUS
 62
    7
 10
2502.9068550000002
 20
624.34036500000002
 11
2502.9068550000002
 21
624.5505149999999
  0
LINE
  8
_0-1_レイヤ___1
  6
CONTINUOUS
 62
    7
 10
2502.9068550000002
 20
624.5505149999999
 11
2502.9068550000002
 21
624.76066500000002
  0
LINE
  8
_0-1_レイヤ___1
  6
CONTINUOUS
 62
    7
 10
2502.9068550000002
 20
624.76066500000002
 11
2502.9068550000002
 21
624.97081500000002
  0
LINE
  8
_0-1_レイヤ___1
  6
CONTINUOUS
 62
    7
 10
2502.9068550000002
 20
624.97081500000002
 11
2502.9068550000002
 21
625.18441500000006
  0
LINE
  8
_0-1_レイヤ___1
  6
CONTINUOUS
 62
    7
 10
2502.9068550000002
 20
625.18441500000006
 11
2503.1170050000001
 21
625.18441500000006
  0
LINE
  8
_0-1_レイヤ___1
  6
CONTINUOUS
 62
    7
 10
2503.1170050000001
 20
625.18441500000006
 11
2503.3306050000001
 21
625.18441500000006
  0
LINE
  8
_0-1_レイヤ___1
  6
CONTINUOUS
 62
    7
 10
2503.3306050000001
 20
625.18441500000006
 11
2503.3306050000001
 21
625.39801499999999
  0
LINE
  8
_0-1_レイヤ___1
  6
CONTINUOUS
 62
    7
 10
2503.3306050000001
 20
625.39801499999999
 11
2503.3306050000001
 21
625.60816499999999
  0
LINE
  8
_0-1_レイヤ___1
  6
CONTINUOUS
 62
    7
 10
2503.3306050000001
 20
625.60816499999999
 11
2503.3306050000001
 21
625.81831499999998
  0
LINE
  8
_0-1_レイヤ___1
  6
CONTINUOUS
 62
    7
 10
2503.3306050000001
 20
625.81831499999998
 11
2503.3306050000001
 21
626.03190499999994
  0
LINE
  8
_0-1_レイヤ___1
  6
CONTINUOUS
 62
    7
 10
2503.3306050000001
 20
626.03190499999994
 11
2503.3306050000001
 21
626.24550499999998
  0
LINE
  8
_0-1_レイヤ___1
  6
CONTINUOUS
 62
    7
 10
2503.3306050000001
 20
626.24550499999998
 11
2503.3306050000001
 21
626.45565499999998
  0
LINE
  8
_0-1_レイヤ___1
  6
CONTINUOUS
 62
    7
 10
2503.3306050000001
 20
626.45565499999998
 11
2503.3306050000001
 21
626.66580499999998
  0
LINE
  8
_0-1_レイヤ___1
  6
CONTINUOUS
 62
    7
 10
2503.3306050000001
 20
626.66580499999998
 11
2503.3306050000001
 21
626.87940499999991
  0
LINE
  8
_0-1_レイヤ___1
  6
CONTINUOUS
 62
    7
 10
2503.3306050000001
 20
626.87940499999991
 11
2503.3306050000001
 21
627.09299499999997
  0
LINE
  8
_0-1_レイヤ___1
  6
CONTINUOUS
 62
    7
 10
2503.3306050000001
 20
627.09299499999997
 11
2503.3306050000001
 21
627.30314499999997
  0
LINE
  8
_0-1_レイヤ___1
  6
CONTINUOUS
 62
    7
 10
2503.3306050000001
 20
627.30314499999997
 11
2503.3306050000001
 21
627.51329499999997
  0
LINE
  8
_0-1_レイヤ___1
  6
CONTINUOUS
 62
    7
 10
2503.3306050000001
 20
627.51329499999997
 11
2503.3306050000001
 21
627.72689500000001
  0
LINE
  8
_0-1_レイヤ___1
  6
CONTINUOUS
 62
    7
 10
2503.3306050000001
 20
627.72689500000001
 11
2503.3306050000001
 21
627.94049500000006
  0
LINE
  8
_0-1_レイヤ___1
  6
CONTINUOUS
 62
    7
 10
2503.3306050000001
 20
627.94049500000006
 11
2503.3306050000001
 21
628.15064499999994
  0
LINE
  8
_0-1_レイヤ___1
  6
CONTINUOUS
 62
    7
 10
2503.3306050000001
 20
628.15064499999994
 11
2503.3306050000001
 21
628.36079499999994
  0
LINE
  8
_0-1_レイヤ___1
  6
CONTINUOUS
 62
    7
 10
2503.3306050000001
 20
628.36079499999994
 11
2503.3306050000001
 21
628.57094500000005
  0
LINE
  8
_0-1_レイヤ___1
  6
CONTINUOUS
 62
    7
 10
2503.3306050000001
 20
628.57094500000005
 11
2503.3306050000001
 21
628.78109500000005
  0
LINE
  8
_0-1_レイヤ___1
  6
CONTINUOUS
 62
    7
 10
2503.3306050000001
 20
628.78109500000005
 11
2503.3306050000001
 21
628.994685
  0
LINE
  8
_0-1_レイヤ___1
  6
CONTINUOUS
 62
    7
 10
2503.3306050000001
 20
628.994685
 11
2503.3306050000001
 21
629.20828499999993
  0
LINE
  8
_0-1_レイヤ___1
  6
CONTINUOUS
 62
    7
 10
2503.3306050000001
 20
629.20828499999993
 11
2503.3306050000001
 21
629.41843499999993
  0
LINE
  8
_0-1_レイヤ___1
  6
CONTINUOUS
 62
    7
 10
2503.3306050000001
 20
629.41843499999993
 11
2503.3306050000001
 21
629.62858500000004
  0
LINE
  8
_0-1_レイヤ___1
  6
CONTINUOUS
 62
    7
 10
2503.3306050000001
 20
629.62858500000004
 11
2503.3306050000001
 21
629.84218499999997
  0
LINE
  8
_0-1_レイヤ___1
  6
CONTINUOUS
 62
    7
 10
2503.3306050000001
 20
629.84218499999997
 11
2507.3510350000001
 21
686.14537499999994
  0
LINE
  8
_0-1_レイヤ___1
  6
CONTINUOUS
 62
    7
 10
2507.3510350000001
 20
686.14537499999994
 11
2511.371455
 21
742.44857499999989
  0
LINE
  8
_0-1_レイヤ___1
  6
CONTINUOUS
 62
    7
 10
2511.371455
 20
742.44857499999989
 11
2511.371455
 21
743.50966500000004
  0
LINE
  8
_0-1_レイヤ___1
  6
CONTINUOUS
 62
    7
 10
2511.371455
 20
743.50966500000004
 11
2511.371455
 21
744.56730500000003
  0
LINE
  8
_0-1_レイヤ___1
  6
CONTINUOUS
 62
    7
 10
2511.371455
 20
744.56730500000003
 11
2512.2189550000003
 21
746.25885499999993
  0
LINE
  8
_0-1_レイヤ___1
  6
CONTINUOUS
 62
    7
 10
2512.2189550000003
 20
746.25885499999993
 11
2513.0664449999999
 21
747.95383500000003
  0
LINE
  8
_0-1_レイヤ___1
  6
CONTINUOUS
 62
    7
 10
2513.0664449999999
 20
747.95383500000003
 11
2513.4901950000003
 21
748.80133499999999
  0
LINE
  8
_0-1_レイヤ___1
  6
CONTINUOUS
 62
    7
 10
2513.4901950000003
 20
748.80133499999999
 11
2513.913935
 21
749.64537500000006
  0
LINE
  8
_0-1_レイヤ___1
  6
CONTINUOUS
 62
    7
 10
2513.913935
 20
749.64537500000006
 11
2514.9715850000002
 21
750.06912499999999
  0
LINE
  8
_0-1_レイヤ___1
  6
CONTINUOUS
 62
    7
 10
2514.9715850000002
 20
750.06912499999999
 11
2516.0292250000002
 21
750.49287500000003
  0
LINE
  8
_0-1_レイヤ___1
  6
CONTINUOUS
 62
    7
 10
2516.0292250000002
 20
750.49287500000003
 11
2517.7242150000002
 21
751.12677500000007
  0
LINE
  8
_0-1_レイヤ___1
  6
CONTINUOUS
 62
    7
 10
2517.7242150000002
 20
751.12677500000007
 11
2519.4157550000004
 21
751.76066500000002
  0
LINE
  8
_0-1_レイヤ___1
  6
CONTINUOUS
 62
    7
 10
2047.823525
 20
762.76774499999999
 11
2291.4503450000002
 21
762.76774499999999
  0
LINE
  8
_0-1_レイヤ___1
  6
CONTINUOUS
 62
    7
 10
2291.4503450000002
 20
762.76774499999999
 11
2535.0806050000001
 21
762.76774499999999
  0
LINE
  8
_0-1_レイヤ___1
  6
CONTINUOUS
 62
    7
 10
2535.0806050000001
 20
762.76774499999999
 11
2535.5009049999999
 21
762.76774499999999
  0
LINE
  8
_0-1_レイヤ___1
  6
CONTINUOUS
 62
    7
 10
2535.5009049999999
 20
762.76774499999999
 11
2535.9246549999998
 21
762.76774499999999
  0
LINE
  8
_0-1_レイヤ___1
  6
CONTINUOUS
 62
    7
 10
2535.9246549999998
 20
762.76774499999999
 11
2536.1348050000001
 21
762.76774499999999
  0
LINE
  8
_0-1_レイヤ___1
  6
CONTINUOUS
 62
    7
 10
2536.1348050000001
 20
762.76774499999999
 11
2536.3484050000002
 21
762.76774499999999
  0
LINE
  8
_0-1_レイヤ___1
  6
CONTINUOUS
 62
    7
 10
2536.3484050000002
 20
762.76774499999999
 11
2536.561995
 21
762.55415500000004
  0
LINE
  8
_0-1_レイヤ___1
  6
CONTINUOUS
 62
    7
 10
2536.561995
 20
762.55415500000004
 11
2536.7721450000004
 21
762.34400500000004
  0
LINE
  8
_0-1_レイヤ___1
  6
CONTINUOUS
 62
    7
 10
2536.7721450000004
 20
762.34400500000004
 11
2536.9822950000002
 21
762.13385500000004
  0
LINE
  8
_0-1_レイヤ___1
  6
CONTINUOUS
 62
    7
 10
2536.9822950000002
 20
762.13385500000004
 11
2537.1958950000003
 21
761.92369499999995
  0
LINE
  8
_0-1_レイヤ___1
  6
CONTINUOUS
 62
    7
 10
2537.1958950000003
 20
761.92369499999995
 11
2537.4094850000001
 21
761.71354499999995
  0
LINE
  8
_0-1_レイヤ___1
  6
CONTINUOUS
 62
    7
 10
2537.4094850000001
 20
761.71354499999995
 11
2537.6196450000002
 21
761.499955
  0
LINE
  8
_0-1_レイヤ___1
  6
CONTINUOUS
 62
    7
 10
2537.6196450000002
 20
761.499955
 11
2537.8297950000001
 21
761.28635499999996
  0
LINE
  8
_0-1_レイヤ___1
  6
CONTINUOUS
 62
    7
 10
2537.8297950000001
 20
761.28635499999996
 11
2538.0433850000004
 21
761.07620499999996
  0
LINE
  8
_0-1_レイヤ___1
  6
CONTINUOUS
 62
    7
 10
2538.0433850000004
 20
761.07620499999996
 11
2538.0433850000004
 21
760.86605500000007
  0
LINE
  8
_0-1_レイヤ___1
  6
CONTINUOUS
 62
    7
 10
2538.0433850000004
 20
760.86605500000007
 11
2538.0433850000004
 21
760.65245500000003
  0
LINE
  8
_0-1_レイヤ___1
  6
CONTINUOUS
 62
    7
 10
2538.0433850000004
 20
760.65245500000003
 11
2538.0433850000004
 21
760.43886499999996
  0
LINE
  8
_0-1_レイヤ___1
  6
CONTINUOUS
 62
    7
 10
2538.0433850000004
 20
760.43886499999996
 11
2538.0433850000004
 21
760.22871499999997
  0
LINE
  8
_0-1_レイヤ___1
  6
CONTINUOUS
 62
    7
 10
2538.0433850000004
 20
760.22871499999997
 11
2538.4636850000002
 21
755.994685
  0
LINE
  8
_0-1_レイヤ___1
  6
CONTINUOUS
 62
    7
 10
2538.4636850000002
 20
755.994685
 11
2538.8874350000001
 21
751.76066500000002
  0
LINE
  8
_0-1_レイヤ___1
  6
CONTINUOUS
 62
    7
 10
2538.8874350000001
 20
751.76066500000002
 11
2293.355485
 21
751.76066500000002
  0
LINE
  8
_0-1_レイヤ___1
  6
CONTINUOUS
 62
    7
 10
2293.355485
 20
751.76066500000002
 11
2047.823525
 21
751.76066500000002
  0
LINE
  8
_0-1_レイヤ___1
  6
CONTINUOUS
 62
    7
 10
2047.823525
 20
751.76066500000002
 11
2047.823525
 21
757.26248499999997
  0
LINE
  8
_0-1_レイヤ___1
  6
CONTINUOUS
 62
    7
 10
2047.823525
 20
757.26248499999997
 11
2047.823525
 21
762.76774499999999
  0
LINE
  8
_0-1_レイヤ___1
  6
CONTINUOUS
 62
    7
 10
2047.823525
 20
762.76774499999999
 11
2027.2907550000002
 21
762.76774499999999
  0
LINE
  8
_0-1_レイヤ___1
  6
CONTINUOUS
 62
    7
 10
2027.2907550000002
 20
762.76774499999999
 11
2006.7579850000002
 21
762.76774499999999
  0
LINE
  8
_0-1_レイヤ___1
  6
CONTINUOUS
 62
    5
 10
583.08950500000014
 20
762.76774499999999
 11
504.13824500000021
 21
762.76774499999999
  0
LINE
  8
_0-1_レイヤ___1
  6
CONTINUOUS
 62
    5
 10
504.13824500000021
 20
762.76774499999999
 11
425.18527500000016
 21
762.76774499999999
  0
LINE
  8
_0-1_レイヤ___1
  6
CONTINUOUS
 62
    5
 10
1245.605485
 20
518.92733499999997
 11
835.39451500000018
 21
518.92733499999997
  0
LINE
  8
_0-1_レイヤ___1
  6
CONTINUOUS
 62
    5
 10
835.39451500000018
 20
518.92733499999997
 11
425.18527500000016
 21
518.92733499999997
  0
LINE
  8
_0-1_レイヤ___1
  6
CONTINUOUS
 62
    5
 10
435.34486500000014
 20
762.76774499999999
 11
435.34486500000014
 21
640.84581500000002
  0
LINE
  8
_0-1_レイヤ___1
  6
CONTINUOUS
 62
    5
 10
435.34486500000014
 20
640.84581500000002
 11
435.34486500000014
 21
518.92733499999997
  0
LINE
  8
_0-1_レイヤ___1
  6
CONTINUOUS
 62
    5
 10
583.08950500000014
 20
762.76774499999999
 11
555.14977500000009
 21
762.76774499999999
  0
LINE
  8
_0-1_レイヤ___1
  6
CONTINUOUS
 62
    5
 10
555.14977500000009
 20
762.76774499999999
 11
527.20833500000015
 21
762.76774499999999
  0
LINE
  8
_0-1_レイヤ___1
  6
CONTINUOUS
 62
    5
 10
583.08950500000014
 20
593.01066500000002
 11
555.14977500000009
 21
593.01066500000002
  0
LINE
  8
_0-1_レイヤ___1
  6
CONTINUOUS
 62
    5
 10
555.14977500000009
 20
593.01066500000002
 11
527.20833500000015
 21
593.01066500000002
  0
LINE
  8
_0-1_レイヤ___1
  6
CONTINUOUS
 62
    5
 10
536.94589500000006
 20
762.76774499999999
 11
536.94589500000006
 21
677.88748499999997
  0
LINE
  8
_0-1_レイヤ___1
  6
CONTINUOUS
 62
    5
 10
536.94589500000006
 20
677.88748499999997
 11
536.94589500000006
 21
593.01066500000002
  0
LINE
  8
_0-1_レイヤ___1
  6
CONTINUOUS
 62
    5
 10
2047.823525
 20
782.66661499999998
 11
2047.823525
 21
876.22163499999999
  0
LINE
  8
_0-1_レイヤ___1
  6
CONTINUOUS
 62
    5
 10
2047.823525
 20
876.22163499999999
 11
2047.823525
 21
969.78009499999996
  0
LINE
  8
_0-1_レイヤ___1
  6
CONTINUOUS
 62
    5
 10
2538.8874350000001
 20
782.66661499999998
 11
2538.8874350000001
 21
876.22163499999999
  0
LINE
  8
_0-1_レイヤ___1
  6
CONTINUOUS
 62
    5
 10
2538.8874350000001
 20
876.22163499999999
 11
2538.8874350000001
 21
969.78009499999996
  0
LINE
  8
_0-1_レイヤ___1
  6
CONTINUOUS
 62
    5
 10
2047.823525
 20
960.04080499999998
 11
2293.355485
 21
960.04080499999998
  0
LINE
  8
_0-1_レイヤ___1
  6
CONTINUOUS
 62
    5
 10
2293.355485
 20
960.04080499999998
 11
2538.8874350000001
 21
960.04080499999998
  0
LINE
  8
_0-1_レイヤ___1
  6
CONTINUOUS
 62
    5
 10
2367.8625649999999
 20
649.73760500000003
 11
2367.8625649999999
 21
775.89356499999997
  0
LINE
  8
_0-1_レイヤ___1
  6
CONTINUOUS
 62
    5
 10
2367.8625649999999
 20
775.89356499999997
 11
2367.8625649999999
 21
902.046065
  0
LINE
  8
_0-1_レイヤ___1
  6
CONTINUOUS
 62
    5
 10
2538.8874350000001
 20
782.66661499999998
 11
2538.8874350000001
 21
842.35634500000003
  0
LINE
  8
_0-1_レイヤ___1
  6
CONTINUOUS
 62
    5
 10
2538.8874350000001
 20
842.35634500000003
 11
2538.8874350000001
 21
902.046065
  0
LINE
  8
_0-1_レイヤ___1
  6
CONTINUOUS
 62
    5
 10
2367.8625649999999
 20
891.88648499999999
 11
2453.3767250000001
 21
891.88648499999999
  0
LINE
  8
_0-1_レイヤ___1
  6
CONTINUOUS
 62
    5
 10
2453.3767250000001
 20
891.88648499999999
 11
2538.8874350000001
 21
891.88648499999999
  0
LINE
  8
_0-1_レイヤ___1
  6
CONTINUOUS
 62
    5
 10
2047.823525
 20
782.66661499999998
 11
2047.823525
 21
876.22163499999999
  0
LINE
  8
_0-1_レイヤ___1
  6
CONTINUOUS
 62
    5
 10
2047.823525
 20
876.22163499999999
 11
2047.823525
 21
969.78009499999996
  0
LINE
  8
_0-1_レイヤ___1
  6
CONTINUOUS
 62
    5
 10
1991.0965850000002
 20
782.66661499999998
 11
1991.0965850000002
 21
876.22163499999999
  0
LINE
  8
_0-1_レイヤ___1
  6
CONTINUOUS
 62
    5
 10
1991.0965850000002
 20
876.22163499999999
 11
1991.0965850000002
 21
969.78009499999996
  0
LINE
  8
_0-1_レイヤ___1
  6
CONTINUOUS
 62
    5
 10
2047.823525
 20
960.04080499999998
 11
2019.460055
 21
960.04080499999998
  0
LINE
  8
_0-1_レイヤ___1
  6
CONTINUOUS
 62
    5
 10
2019.460055
 20
960.04080499999998
 11
1991.0965850000002
 21
960.04080499999998
  0
LINE
  8
_0-1_レイヤ___1
  6
CONTINUOUS
 62
    5
 10
1991.0965850000002
 20
786.90064500000005
 11
1991.0965850000002
 21
907.33773499999995
  0
LINE
  8
_0-1_レイヤ___1
  6
CONTINUOUS
 62
    5
 10
1991.0965850000002
 20
907.33773499999995
 11
1991.0965850000002
 21
1027.774825
  0
LINE
  8
_0-1_レイヤ___1
  6
CONTINUOUS
 62
    5
 10
2538.8874350000001
 20
782.66661499999998
 11
2538.8874350000001
 21
905.22244499999999
  0
LINE
  8
_0-1_レイヤ___1
  6
CONTINUOUS
 62
    5
 10
2538.8874350000001
 20
905.22244499999999
 11
2538.8874350000001
 21
1027.774825
  0
LINE
  8
_0-1_レイヤ___1
  6
CONTINUOUS
 62
    5
 10
1991.0965850000002
 20
1018.038985
 11
2264.9920050000001
 21
1018.038985
  0
LINE
  8
_0-1_レイヤ___1
  6
CONTINUOUS
 62
    5
 10
2264.9920050000001
 20
1018.038985
 11
2538.8874350000001
 21
1018.038985
  0
LINE
  8
_0-1_レイヤ___1
  6
CONTINUOUS
 62
    5
 10
1994.0593650000003
 20
593.01066500000002
 11
1950.6683850000002
 21
593.01066500000002
  0
LINE
  8
_0-1_レイヤ___1
  6
CONTINUOUS
 62
    5
 10
1950.6683850000002
 20
593.01066500000002
 11
1907.2739650000003
 21
593.01066500000002
  0
LINE
  8
_0-1_レイヤ___1
  6
CONTINUOUS
 62
    5
 10
1970.7739650000003
 20
762.76774499999999
 11
1939.0239650000001
 21
762.76774499999999
  0
LINE
  8
_0-1_レイヤ___1
  6
CONTINUOUS
 62
    5
 10
1939.0239650000001
 20
762.76774499999999
 11
1907.2739650000003
 21
762.76774499999999
  0
LINE
  8
_0-1_レイヤ___1
  6
CONTINUOUS
 62
    5
 10
1917.0132450000003
 20
593.01066500000002
 11
1917.0132450000003
 21
677.88748499999997
  0
LINE
  8
_0-1_レイヤ___1
  6
CONTINUOUS
 62
    5
 10
1917.0132450000003
 20
677.88748499999997
 11
1917.0132450000003
 21
762.76774499999999
  0
LINE
  8
_0-1_レイヤ___1
  6
CONTINUOUS
 62
    5
 10
2558.7863050000001
 20
751.76066500000002
 11
2599.2145049999999
 21
751.76066500000002
  0
LINE
  8
_0-1_レイヤ___1
  6
CONTINUOUS
 62
    5
 10
2599.2145049999999
 20
751.76066500000002
 11
2639.642695
 21
751.76066500000002
  0
LINE
  8
_0-1_レイヤ___1
  6
CONTINUOUS
 62
    5
 10
2558.7863050000001
 20
762.76774499999999
 11
2599.2145049999999
 21
762.76774499999999
  0
LINE
  8
_0-1_レイヤ___1
  6
CONTINUOUS
 62
    5
 10
2599.2145049999999
 20
762.76774499999999
 11
2639.642695
 21
762.76774499999999
  0
LINE
  8
_0-1_レイヤ___1
  6
CONTINUOUS
 62
    5
 10
2629.4831150000005
 20
751.76066500000002
 11
2629.4831150000005
 21
788.59218499999997
  0
LINE
  8
_0-1_レイヤ___1
  6
CONTINUOUS
 62
    5
 10
2629.4831150000005
 20
788.59218499999997
 11
2629.4831150000005
 21
825.42369500000007
  0
LINE
  8
_0-1_レイヤ___1
  6
CONTINUOUS
 62
    5
 10
2629.4831150000005
 20
751.76066500000002
 11
2629.4831150000005
 21
757.26248499999997
  0
LINE
  8
_0-1_レイヤ___1
  6
CONTINUOUS
 62
    5
 10
2629.4831150000005
 20
757.26248499999997
 11
2629.4831150000005
 21
762.76774499999999
  0
LINE
  8
_0-1_レイヤ___1
  6
CONTINUOUS
 62
    5
 10
2137.1445150000004
 20
518.92733499999997
 11
1991.0931350000001
 21
518.92733499999997
  0
LINE
  8
_0-1_レイヤ___1
  6
CONTINUOUS
 62
    5
 10
1991.0931350000001
 20
518.92733499999997
 11
1845.0452050000001
 21
518.92733499999997
  0
LINE
  8
_0-1_レイヤ___1
  6
CONTINUOUS
 62
    5
 10
1970.7739650000003
 20
762.76774499999999
 11
1907.9078650000001
 21
762.76774499999999
  0
LINE
  8
_0-1_レイヤ___1
  6
CONTINUOUS
 62
    5
 10
1907.9078650000001
 20
762.76774499999999
 11
1845.0452050000001
 21
762.76774499999999
  0
LINE
  8
_0-1_レイヤ___1
  6
CONTINUOUS
 62
    5
 10
1855.2047950000001
 20
518.92733499999997
 11
1855.2047950000001
 21
640.84581500000002
  0
LINE
  8
_0-1_レイヤ___1
  6
CONTINUOUS
 62
    5
 10
1855.2047950000001
 20
640.84581500000002
 11
1855.2047950000001
 21
762.76774499999999
  0
LINE
  8
_0-7_
  6
CONTINUOUS
 62
    7
 10
582.77123507450608
 20
762.73225500000012
 11
425.01993327478829
 21
762.73225500000012
  0
LINE
  8
_0-7_
  6
CONTINUOUS
 62
    7
 10
1245.5199333120418
 20
518.73225500000001
 11
425.01993327478829
 21
518.73225500000001
  0
LINE
  8
_0-7_
  6
CONTINUOUS
 62
    7
 10
435.01993323753538
 20
762.73225500000012
 11
435.01993323753538
 21
518.73225500000001
  0
CIRCLE
  8
_0-7_
  6
CONTINUOUS
 62
    7
 10
435.01993323753538
 20
762.73225500000012
 40
3.751708984375
  0
CIRCLE
  8
_0-7_
  6
CONTINUOUS
 62
    7
 10
435.01993323753538
 20
518.73225500000001
 40
3.751708984375
  0
TEXT
  8
_0-7_
 62
    7
 10
423.10548881171724
 20
603.69058833333384
 40
33.954861111111107
 41
1
 50
90
  1
244
  0
LINE
  8
_0-7_
  6
CONTINUOUS
 62
    7
 10
582.77123507450608
 20
762.73225500000012
 11
527.01993327478829
 21
762.73225500000012
  0
LINE
  8
_0-7_
  6
CONTINUOUS
 62
    7
 10
582.77123507450608
 20
592.73225500000012
 11
527.01993327478829
 21
592.73225500000012
  0
LINE
  8
_0-7_
  6
CONTINUOUS
 62
    7
 10
537.01993323753538
 20
762.73225500000012
 11
537.01993323753538
 21
592.73225500000012
  0
CIRCLE
  8
_0-7_
  6
CONTINUOUS
 62
    7
 10
537.01993323753538
 20
762.73225500000012
 40
3.751708984375
  0
CIRCLE
  8
_0-7_
  6
CONTINUOUS
 62
    7
 10
537.01993323753538
 20
592.73225500000012
 40
3.751708984375
  0
TEXT
  8
_0-7_
 62
    7
 10
525.10548881171712
 20
640.69058833333327
 40
33.954861111111107
 41
1
 50
90
  1
170
  0
LINE
  8
_0-7_
  6
CONTINUOUS
 62
    7
 10
2047.7712350000002
 20
782.73225492549443
 11
2047.7712350000002
 21
969.73225496274722
  0
LINE
  8
_0-7_
  6
CONTINUOUS
 62
    7
 10
2538.7712350000002
 20
782.73225492549432
 11
2538.7712350000002
 21
969.73225496274722
  0
LINE
  8
_0-7_
  6
CONTINUOUS
 62
    7
 10
2047.7712350000002
 20
959.73225500000012
 11
2538.7712350000002
 21
959.73225500000012
  0
CIRCLE
  8
_0-7_
  6
CONTINUOUS
 62
    7
 10
2047.7712350000002
 20
959.73225500000012
 40
3.751708984375
  0
CIRCLE
  8
_0-7_
  6
CONTINUOUS
 62
    7
 10
2538.7712350000002
 20
959.73225500000012
 40
3.751708984375
  0
TEXT
  8
_0-7_
 62
    7
 10
2256.2295683333336
 20
971.64669942581804
 40
33.954861111111107
 41
1
 50
0
  1
491
  0
LINE
  8
_0-7_
  6
CONTINUOUS
 62
    7
 10
2367.7712350000002
 20
649.73225492549432
 11
2367.7712350000002
 21
901.73225496274722
  0
LINE
  8
_0-7_
  6
CONTINUOUS
 62
    7
 10
2538.7712350000002
 20
782.73225492549432
 11
2538.7712350000002
 21
901.73225496274722
  0
LINE
  8
_0-7_
  6
CONTINUOUS
 62
    7
 10
2367.7712350000002
 20
891.73225500000012
 11
2538.7712350000002
 21
891.73225500000012
  0
CIRCLE
  8
_0-7_
  6
CONTINUOUS
 62
    7
 10
2367.7712350000002
 20
891.73225500000012
 40
3.751708984375
  0
CIRCLE
  8
_0-7_
  6
CONTINUOUS
 62
    7
 10
2538.7712350000002
 20
891.73225500000012
 40
3.751708984375
  0
TEXT
  8
_0-7_
 62
    7
 10
2416.2295683333341
 20
903.64669942581816
 40
33.954861111111107
 41
1
 50
0
  1
171
  0
LINE
  8
_0-7_
  6
CONTINUOUS
 62
    7
 10
2047.7712350000002
 20
782.73225492549432
 11
2047.7712350000002
 21
969.73225496274722
  0
LINE
  8
_0-7_
  6
CONTINUOUS
 62
    7
 10
1990.7712350000002
 20
782.73225492549432
 11
1990.7712350000002
 21
969.73225496274722
  0
LINE
  8
_0-7_
  6
CONTINUOUS
 62
    7
 10
2047.7712350000002
 20
959.73225500000012
 11
1990.7712350000002
 21
959.73225500000012
  0
CIRCLE
  8
_0-7_
  6
CONTINUOUS
 62
    7
 10
2047.7712350000002
 20
959.73225500000012
 40
3.751708984375
  0
CIRCLE
  8
_0-7_
  6
CONTINUOUS
 62
    7
 10
1990.7712350000002
 20
959.73225500000012
 40
3.751708984375
  0
TEXT
  8
_0-7_
 62
    7
 10
1994.5767905555563
 20
971.64669942581804
 40
33.954861111111107
 41
1
 50
0
  1
57
  0
LINE
  8
_0-7_
  6
CONTINUOUS
 62
    7
 10
1990.7712350000002
 20
786.7322549254942
 11
1990.7712350000002
 21
1027.7322549627472
  0
LINE
  8
_0-7_
  6
CONTINUOUS
 62
    7
 10
2538.7712350000002
 20
782.73225492549432
 11
2538.7712350000002
 21
1027.7322549627472
  0
LINE
  8
_0-7_
  6
CONTINUOUS
 62
    7
 10
1990.7712350000002
 20
1017.7322550000001
 11
2538.7712350000002
 21
1017.7322550000001
  0
CIRCLE
  8
_0-7_
  6
CONTINUOUS
 62
    7
 10
1990.7712350000002
 20
1017.7322550000001
 40
3.751708984375
  0
CIRCLE
  8
_0-7_
  6
CONTINUOUS
 62
    7
 10
2538.7712350000002
 20
1017.7322550000001
 40
3.751708984375
  0
TEXT
  8
_0-7_
 62
    7
 10
2227.7295683333336
 20
1029.646699425818
 40
33.954861111111107
 41
1
 50
0
  1
548
  0
LINE
  8
_0-7_
  6
CONTINUOUS
 62
    7
 10
1994.0199333120418
 20
592.73225500000012
 11
1907.0199332747889
 21
592.73225500000012
  0
LINE
  8
_0-7_
  6
CONTINUOUS
 62
    7
 10
1970.771235074506
 20
762.73225500000024
 11
1907.0199332747889
 21
762.73225500000024
  0
LINE
  8
_0-7_
  6
CONTINUOUS
 62
    7
 10
1917.019933237536
 20
592.73225500000012
 11
1917.019933237536
 21
762.73225500000024
  0
CIRCLE
  8
_0-7_
  6
CONTINUOUS
 62
    7
 10
1917.019933237536
 20
592.73225500000012
 40
3.751708984375
  0
CIRCLE
  8
_0-7_
  6
CONTINUOUS
 62
    7
 10
1917.019933237536
 20
762.73225500000024
 40
3.751708984375
  0
TEXT
  8
_0-7_
 62
    7
 10
1905.1054888117178
 20
640.69058833333384
 40
33.954861111111107
 41
1
 50
90
  1
170
  0
LINE
  8
_0-7_
  6
CONTINUOUS
 62
    7
 10
2558.7712349254944
 20
751.73225500000001
 11
2639.519933200283
 21
751.73225500000001
  0
LINE
  8
_0-7_
  6
CONTINUOUS
 62
    7
 10
2558.7712349254944
 20
762.73225500000024
 11
2639.519933200283
 21
762.73225500000024
  0
LINE
  8
_0-7_
  6
CONTINUOUS
 62
    7
 10
2629.519933237536
 20
751.73225500000001
 11
2629.519933237536
 21
825.12114388888904
  0
LINE
  8
_0-7_
  6
CONTINUOUS
 62
    7
 10
2629.519933237536
 20
751.73225500000001
 11
2629.519933237536
 21
762.73225500000024
  0
CIRCLE
  8
_0-7_
  6
CONTINUOUS
 62
    7
 10
2629.519933237536
 20
751.73225500000001
 40
3.751708984375
  0
CIRCLE
  8
_0-7_
  6
CONTINUOUS
 62
    7
 10
2629.519933237536
 20
762.73225500000024
 40
3.751708984375
  0
TEXT
  8
_0-7_
 62
    7
 10
2617.6054888117183
 20
775.73225500000035
 40
33.954861111111107
 41
1
 50
90
  1
11
  0
LINE
  8
_0-7_
  6
CONTINUOUS
 62
    7
 10
2137.0199333120418
 20
518.73290708964987
 11
1845.0199332747889
 21
518.73290708964987
  0
LINE
  8
_0-7_
  6
CONTINUOUS
 62
    7
 10
1970.771235074506
 20
762.73225500000024
 11
1845.0199332747889
 21
762.73225500000024
  0
LINE
  8
_0-7_
  6
CONTINUOUS
 62
    7
 10
1855.019933237536
 20
518.73290708964987
 11
1855.019933237536
 21
762.73225500000024
  0
CIRCLE
  8
_0-7_
  6
CONTINUOUS
 62
    7
 10
1855.019933237536
 20
518.73290708964987
 40
3.751708984375
  0
CIRCLE
  8
_0-7_
  6
CONTINUOUS
 62
    7
 10
1855.019933237536
 20
762.73225500000024
 40
3.751708984375
  0
TEXT
  8
_0-7_
 62
    7
 10
1843.105488811718
 20
603.69091437815882
 40
33.954861111111107
 41
1
 50
90
  1
244
  0
LINE
  8
_0-1_レイヤ___1
  6
CONTINUOUS
 62
    7
 10
1034.7863050000001
 20
1616.4337540634153
 11
1250.0513750000002
 21
1616.4337540634153
  0
LINE
  8
_0-1_レイヤ___1
  6
CONTINUOUS
 62
    7
 10
1250.0513750000002
 20
1616.4337540634153
 11
1465.3164450000004
 21
1616.4337540634153
  0
LINE
  8
_0-1_レイヤ___1
  6
CONTINUOUS
 62
    7
 10
1465.3164450000004
 20
1616.4337540634153
 11
1465.526595
 21
1616.4337540634153
  0
LINE
  8
_0-1_レイヤ___1
  6
CONTINUOUS
 62
    7
 10
1465.526595
 20
1616.4337540634153
 11
1465.7384649999999
 21
1616.4337540634153
  0
LINE
  8
_0-1_レイヤ___1
  6
CONTINUOUS
 62
    7
 10
1465.7384649999999
 20
1616.4337540634153
 11
1465.9503450000002
 21
1616.4337540634153
  0
LINE
  8
_0-1_レイヤ___1
  6
CONTINUOUS
 62
    7
 10
1465.9503450000002
 20
1616.4337540634153
 11
1466.1622150000003
 21
1616.4337540634153
  0
LINE
  8
_0-1_レイヤ___1
  6
CONTINUOUS
 62
    7
 10
1466.1622150000003
 20
1616.4337540634153
 11
1466.3740850000002
 21
1616.2218740634153
  0
LINE
  8
_0-1_レイヤ___1
  6
CONTINUOUS
 62
    7
 10
1466.3740850000002
 20
1616.2218740634153
 11
1466.5859650000002
 21
1616.0100040634154
  0
LINE
  8
_0-1_レイヤ___1
  6
CONTINUOUS
 62
    7
 10
1466.5859650000002
 20
1616.0100040634154
 11
1466.5859650000002
 21
1615.7998540634153
  0
LINE
  8
_0-1_レイヤ___1
  6
CONTINUOUS
 62
    7
 10
1466.5859650000002
 20
1615.7998540634153
 11
1466.5859650000002
 21
1615.5879740634155
  0
LINE
  8
_0-1_レイヤ___1
  6
CONTINUOUS
 62
    7
 10
1466.5859650000002
 20
1615.5879740634155
 11
1466.7978350000001
 21
1615.3761040634154
  0
LINE
  8
_0-1_レイヤ___1
  6
CONTINUOUS
 62
    7
 10
1466.7978350000001
 20
1615.3761040634154
 11
1467.0097050000002
 21
1615.1642340634155
  0
LINE
  8
_0-1_レイヤ___1
  6
CONTINUOUS
 62
    7
 10
1467.0097050000002
 20
1615.1642340634155
 11
1467.0097050000002
 21
1370.2644540634153
  0
LINE
  8
_0-1_レイヤ___1
  6
CONTINUOUS
 62
    7
 10
1467.0097050000002
 20
1370.2644540634153
 11
1467.0097050000002
 21
1125.3663940634151
  0
LINE
  8
_0-1_レイヤ___1
  6
CONTINUOUS
 62
    7
 10
1467.0097050000002
 20
1125.3663940634151
 11
1475.687905
 21
1125.3663940634151
  0
LINE
  8
_0-1_レイヤ___1
  6
CONTINUOUS
 62
    7
 10
1475.687905
 20
1125.3663940634151
 11
1484.3661050000003
 21
1125.3663940634151
  0
LINE
  8
_0-1_レイヤ___1
  6
CONTINUOUS
 62
    7
 10
1484.3661050000003
 20
1125.3663940634151
 11
1484.5779750000002
 21
1125.3663940634151
  0
LINE
  8
_0-1_レイヤ___1
  6
CONTINUOUS
 62
    7
 10
1484.5779750000002
 20
1125.3663940634151
 11
1484.788125
 21
1125.3663940634151
  0
LINE
  8
_0-1_レイヤ___1
  6
CONTINUOUS
 62
    7
 10
1484.788125
 20
1125.3663940634151
 11
1484.9999950000001
 21
1125.3663940634151
  0
LINE
  8
_0-1_レイヤ___1
  6
CONTINUOUS
 62
    7
 10
1484.9999950000001
 20
1125.3663940634151
 11
1485.2118750000002
 21
1125.3663940634151
  0
LINE
  8
_0-1_レイヤ___1
  6
CONTINUOUS
 62
    7
 10
1485.2118750000002
 20
1125.3663940634151
 11
1485.4237450000003
 21
1125.1562440634154
  0
LINE
  8
_0-1_レイヤ___1
  6
CONTINUOUS
 62
    7
 10
1485.4237450000003
 20
1125.1562440634154
 11
1485.6356150000001
 21
1124.9443740634156
  0
LINE
  8
_0-1_レイヤ___1
  6
CONTINUOUS
 62
    7
 10
1485.6356150000001
 20
1124.9443740634156
 11
1485.6356150000001
 21
1124.7324940634153
  0
LINE
  8
_0-1_レイヤ___1
  6
CONTINUOUS
 62
    7
 10
1485.6356150000001
 20
1124.7324940634153
 11
1485.6356150000001
 21
1124.5206240634152
  0
LINE
  8
_0-1_レイヤ___1
  6
CONTINUOUS
 62
    7
 10
1485.6356150000001
 20
1124.5206240634152
 11
1485.8474950000002
 21
1124.5206240634152
  0
LINE
  8
_0-1_レイヤ___1
  6
CONTINUOUS
 62
    7
 10
1485.8474950000002
 20
1124.5206240634152
 11
1486.0593650000001
 21
1124.5206240634152
  0
LINE
  8
_0-1_レイヤ___1
  6
CONTINUOUS
 62
    7
 10
1486.0593650000001
 20
1124.5206240634152
 11
1486.0593650000001
 21
1124.3087540634153
  0
LINE
  8
_0-1_レイヤ___1
  6
CONTINUOUS
 62
    7
 10
1486.0593650000001
 20
1124.3087540634153
 11
1486.0593650000001
 21
1124.0968740634153
  0
LINE
  8
_0-1_レイヤ___1
  6
CONTINUOUS
 62
    7
 10
1486.0593650000001
 20
1124.0968740634153
 11
1486.0593650000001
 21
1116.2644540634153
  0
LINE
  8
_0-1_レイヤ___1
  6
CONTINUOUS
 62
    7
 10
1486.0593650000001
 20
1116.2644540634153
 11
1486.0593650000001
 21
1108.4337540634151
  0
LINE
  8
_0-1_レイヤ___1
  6
CONTINUOUS
 62
    7
 10
1486.0593650000001
 20
1108.4337540634151
 11
1485.6356150000001
 21
1104.6234740634154
  0
LINE
  8
_0-1_レイヤ___1
  6
CONTINUOUS
 62
    7
 10
1485.6356150000001
 20
1104.6234740634154
 11
1485.2118750000002
 21
1100.8131940634153
  0
LINE
  8
_0-1_レイヤ___1
  6
CONTINUOUS
 62
    7
 10
1485.2118750000002
 20
1100.8131940634153
 11
1483.9423550000001
 21
1097.0029240634153
  0
LINE
  8
_0-1_レイヤ___1
  6
CONTINUOUS
 62
    7
 10
1483.9423550000001
 20
1097.0029240634153
 11
1482.6728350000003
 21
1093.1943740634154
  0
LINE
  8
_0-1_レイヤ___1
  6
CONTINUOUS
 62
    7
 10
1482.6728350000003
 20
1093.1943740634154
 11
1480.9795750000001
 21
1089.8078440634154
  0
LINE
  8
_0-1_レイヤ___1
  6
CONTINUOUS
 62
    7
 10
1480.9795750000001
 20
1089.8078440634154
 11
1479.2863050000003
 21
1086.4213140634151
  0
LINE
  8
_0-1_レイヤ___1
  6
CONTINUOUS
 62
    7
 10
1479.2863050000003
 20
1086.4213140634151
 11
1476.7455450000002
 21
1083.2466540634152
  0
LINE
  8
_0-1_レイヤ___1
  6
CONTINUOUS
 62
    7
 10
1476.7455450000002
 20
1083.2466540634152
 11
1474.2047950000003
 21
1080.0702740634154
  0
LINE
  8
_0-1_レイヤ___1
  6
CONTINUOUS
 62
    7
 10
1474.2047950000003
 20
1080.0702740634154
 11
1471.2420050000003
 21
1077.7413940634153
  0
LINE
  8
_0-1_レイヤ___1
  6
CONTINUOUS
 62
    7
 10
1471.2420050000003
 20
1077.7413940634153
 11
1468.2792250000002
 21
1075.4142340634153
  0
LINE
  8
_0-1_レイヤ___1
  6
CONTINUOUS
 62
    7
 10
1468.2792250000002
 20
1075.4142340634153
 11
1464.6808250000001
 21
1073.5090940634152
  0
LINE
  8
_0-1_レイヤ___1
  6
CONTINUOUS
 62
    7
 10
1464.6808250000001
 20
1073.5090940634152
 11
1461.0824250000001
 21
1071.6039540634154
  0
LINE
  8
_0-1_レイヤ___1
  6
CONTINUOUS
 62
    7
 10
1461.0824250000001
 20
1071.6039540634154
 11
1457.4840250000002
 21
1070.5445840634152
  0
LINE
  8
_0-1_レイヤ___1
  6
CONTINUOUS
 62
    7
 10
1457.4840250000002
 20
1070.5445840634152
 11
1453.8856150000001
 21
1069.4869440634152
  0
LINE
  8
_0-1_レイヤ___1
  6
CONTINUOUS
 62
    7
 10
1453.8856150000001
 20
1069.4869440634152
 11
1449.8651950000001
 21
1069.0631940634153
  0
LINE
  8
_0-1_レイヤ___1
  6
CONTINUOUS
 62
    7
 10
1449.8651950000001
 20
1069.0631940634153
 11
1445.8430450000001
 21
1068.6411740634153
  0
LINE
  8
_0-1_レイヤ___1
  6
CONTINUOUS
 62
    7
 10
1445.8430450000001
 20
1068.6411740634153
 11
1034.7863050000001
 21
1068.6411740634153
  0
LINE
  8
_0-1_レイヤ___1
  6
CONTINUOUS
 62
    7
 10
1034.7863050000001
 20
1068.6411740634153
 11
623.72957500000007
 21
1068.6411740634153
  0
LINE
  8
_0-1_レイヤ___1
  6
CONTINUOUS
 62
    7
 10
623.72957500000007
 20
1068.6411740634153
 11
619.91929500000015
 21
1069.0631940634153
  0
LINE
  8
_0-1_レイヤ___1
  6
CONTINUOUS
 62
    7
 10
619.91929500000015
 20
1069.0631940634153
 11
616.10902500000009
 21
1069.4869440634152
  0
LINE
  8
_0-1_レイヤ___1
  6
CONTINUOUS
 62
    7
 10
616.10902500000009
 20
1069.4869440634152
 11
612.29874500000028
 21
1070.5445840634152
  0
LINE
  8
_0-1_レイヤ___1
  6
CONTINUOUS
 62
    7
 10
612.29874500000028
 20
1070.5445840634152
 11
608.48846500000013
 21
1071.6039540634154
  0
LINE
  8
_0-1_レイヤ___1
  6
CONTINUOUS
 62
    7
 10
608.48846500000013
 20
1071.6039540634154
 11
605.10194500000011
 21
1073.5090940634152
  0
LINE
  8
_0-1_レイヤ___1
  6
CONTINUOUS
 62
    7
 10
605.10194500000011
 20
1073.5090940634152
 11
601.71541500000012
 21
1075.4142340634153
  0
LINE
  8
_0-1_レイヤ___1
  6
CONTINUOUS
 62
    7
 10
601.71541500000012
 20
1075.4142340634153
 11
598.7509050000001
 21
1077.7413940634153
  0
LINE
  8
_0-1_レイヤ___1
  6
CONTINUOUS
 62
    7
 10
598.7509050000001
 20
1077.7413940634153
 11
595.78812500000015
 21
1080.0702740634154
  0
LINE
  8
_0-1_レイヤ___1
  6
CONTINUOUS
 62
    7
 10
595.78812500000015
 20
1080.0702740634154
 11
593.24908500000015
 21
1083.2466540634152
  0
LINE
  8
_0-1_レイヤ___1
  6
CONTINUOUS
 62
    7
 10
593.24908500000015
 20
1083.2466540634152
 11
590.70833500000026
 21
1086.4213140634151
  0
LINE
  8
_0-1_レイヤ___1
  6
CONTINUOUS
 62
    7
 10
590.70833500000026
 20
1086.4213140634151
 11
588.80491500000005
 21
1089.8078440634154
  0
LINE
  8
_0-1_レイヤ___1
  6
CONTINUOUS
 62
    7
 10
588.80491500000005
 20
1089.8078440634154
 11
586.89977500000009
 21
1093.1943740634154
  0
LINE
  8
_0-1_レイヤ___1
  6
CONTINUOUS
 62
    7
 10
586.89977500000009
 20
1093.1943740634154
 11
585.84213500000021
 21
1097.0029240634153
  0
LINE
  8
_0-1_レイヤ___1
  6
CONTINUOUS
 62
    7
 10
585.84213500000021
 20
1097.0029240634153
 11
584.78276500000015
 21
1100.8131940634153
  0
LINE
  8
_0-1_レイヤ___1
  6
CONTINUOUS
 62
    7
 10
584.78276500000015
 20
1100.8131940634153
 11
584.3590250000002
 21
1104.6234740634154
  0
LINE
  8
_0-1_レイヤ___1
  6
CONTINUOUS
 62
    7
 10
584.3590250000002
 20
1104.6234740634154
 11
583.93527500000016
 21
1108.4337540634151
  0
LINE
  8
_0-1_レイヤ___1
  6
CONTINUOUS
 62
    7
 10
583.93527500000016
 20
1108.4337540634151
 11
583.93527500000016
 21
1116.2644540634153
  0
LINE
  8
_0-1_レイヤ___1
  6
CONTINUOUS
 62
    7
 10
583.93527500000016
 20
1116.2644540634153
 11
583.93527500000016
 21
1124.0968740634153
  0
LINE
  8
_0-1_レイヤ___1
  6
CONTINUOUS
 62
    7
 10
583.93527500000016
 20
1124.0968740634153
 11
583.93527500000016
 21
1124.3087540634153
  0
LINE
  8
_0-1_レイヤ___1
  6
CONTINUOUS
 62
    7
 10
583.93527500000016
 20
1124.3087540634153
 11
583.93527500000016
 21
1124.5206240634152
  0
LINE
  8
_0-1_レイヤ___1
  6
CONTINUOUS
 62
    7
 10
583.93527500000016
 20
1124.5206240634152
 11
584.14714500000014
 21
1124.7324940634153
  0
LINE
  8
_0-1_レイヤ___1
  6
CONTINUOUS
 62
    7
 10
584.14714500000014
 20
1124.7324940634153
 11
584.3590250000002
 21
1124.9443740634156
  0
LINE
  8
_0-1_レイヤ___1
  6
CONTINUOUS
 62
    7
 10
584.3590250000002
 20
1124.9443740634156
 11
584.3590250000002
 21
1125.1562440634154
  0
LINE
  8
_0-1_レイヤ___1
  6
CONTINUOUS
 62
    7
 10
584.3590250000002
 20
1125.1562440634154
 11
584.3590250000002
 21
1125.3663940634151
  0
LINE
  8
_0-1_レイヤ___1
  6
CONTINUOUS
 62
    7
 10
584.3590250000002
 20
1125.3663940634151
 11
584.57089500000029
 21
1125.3663940634151
  0
LINE
  8
_0-1_レイヤ___1
  6
CONTINUOUS
 62
    7
 10
584.57089500000029
 20
1125.3663940634151
 11
584.78276500000015
 21
1125.3663940634151
  0
LINE
  8
_0-1_レイヤ___1
  6
CONTINUOUS
 62
    7
 10
584.78276500000015
 20
1125.3663940634151
 11
584.99464500000022
 21
1125.3663940634151
  0
LINE
  8
_0-1_レイヤ___1
  6
CONTINUOUS
 62
    7
 10
584.99464500000022
 20
1125.3663940634151
 11
585.20479500000022
 21
1125.3663940634151
  0
LINE
  8
_0-1_レイヤ___1
  6
CONTINUOUS
 62
    7
 10
585.20479500000022
 20
1125.3663940634151
 11
594.09486500000014
 21
1125.3663940634151
  0
LINE
  8
_0-1_レイヤ___1
  6
CONTINUOUS
 62
    7
 10
594.09486500000014
 20
1125.3663940634151
 11
602.98492500000009
 21
1125.3663940634151
  0
LINE
  8
_0-1_レイヤ___1
  6
CONTINUOUS
 62
    7
 10
602.98492500000009
 20
1125.3663940634151
 11
602.98492500000009
 21
1370.2644540634153
  0
LINE
  8
_0-1_レイヤ___1
  6
CONTINUOUS
 62
    7
 10
602.98492500000009
 20
1370.2644540634153
 11
602.98492500000009
 21
1615.1642340634155
  0
LINE
  8
_0-1_レイヤ___1
  6
CONTINUOUS
 62
    7
 10
602.98492500000009
 20
1615.1642340634155
 11
602.98492500000009
 21
1615.3761040634154
  0
LINE
  8
_0-1_レイヤ___1
  6
CONTINUOUS
 62
    7
 10
602.98492500000009
 20
1615.3761040634154
 11
602.98492500000009
 21
1615.5879740634155
  0
LINE
  8
_0-1_レイヤ___1
  6
CONTINUOUS
 62
    7
 10
602.98492500000009
 20
1615.5879740634155
 11
602.98492500000009
 21
1615.7998540634153
  0
LINE
  8
_0-1_レイヤ___1
  6
CONTINUOUS
 62
    7
 10
602.98492500000009
 20
1615.7998540634153
 11
602.98492500000009
 21
1616.0100040634154
  0
LINE
  8
_0-1_レイヤ___1
  6
CONTINUOUS
 62
    7
 10
602.98492500000009
 20
1616.0100040634154
 11
603.19680500000015
 21
1616.0100040634154
  0
LINE
  8
_0-1_レイヤ___1
  6
CONTINUOUS
 62
    7
 10
603.19680500000015
 20
1616.0100040634154
 11
603.40867500000013
 21
1616.0100040634154
  0
LINE
  8
_0-1_レイヤ___1
  6
CONTINUOUS
 62
    7
 10
603.40867500000013
 20
1616.0100040634154
 11
603.40867500000013
 21
1616.2218740634153
  0
LINE
  8
_0-1_レイヤ___1
  6
CONTINUOUS
 62
    7
 10
603.40867500000013
 20
1616.2218740634153
 11
603.40867500000013
 21
1616.4337540634153
  0
LINE
  8
_0-1_レイヤ___1
  6
CONTINUOUS
 62
    7
 10
603.40867500000013
 20
1616.4337540634153
 11
603.62054500000011
 21
1616.4337540634153
  0
LINE
  8
_0-1_レイヤ___1
  6
CONTINUOUS
 62
    7
 10
603.62054500000011
 20
1616.4337540634153
 11
603.83242500000028
 21
1616.4337540634153
  0
LINE
  8
_0-1_レイヤ___1
  6
CONTINUOUS
 62
    7
 10
603.83242500000028
 20
1616.4337540634153
 11
604.04429500000015
 21
1616.4337540634153
  0
LINE
  8
_0-1_レイヤ___1
  6
CONTINUOUS
 62
    7
 10
604.04429500000015
 20
1616.4337540634153
 11
604.25616500000024
 21
1616.4337540634153
  0
LINE
  8
_0-1_レイヤ___1
  6
CONTINUOUS
 62
    7
 10
604.25616500000024
 20
1616.4337540634153
 11
819.52123500000016
 21
1616.4337540634153
  0
LINE
  8
_0-1_レイヤ___1
  6
CONTINUOUS
 62
    7
 10
819.52123500000016
 20
1616.4337540634153
 11
1034.7863050000001
 21
1616.4337540634153
  0
LINE
  8
_0-1_レイヤ___1
  6
CONTINUOUS
 62
    7
 10
637.69943500000011
 20
1353.5436840634154
 11
637.69943500000011
 21
1447.5241640634154
  0
LINE
  8
_0-1_レイヤ___1
  6
CONTINUOUS
 62
    7
 10
637.69943500000011
 20
1447.5241640634154
 11
637.69943500000011
 21
1541.5046440634155
  0
LINE
  8
_0-1_レイヤ___1
  6
CONTINUOUS
 62
    7
 10
637.69943500000011
 20
1541.5046440634155
 11
638.1214550000002
 21
1545.5267940634153
  0
LINE
  8
_0-1_レイヤ___1
  6
CONTINUOUS
 62
    7
 10
638.1214550000002
 20
1545.5267940634153
 11
638.54520500000012
 21
1549.5472240634153
  0
LINE
  8
_0-1_レイヤ___1
  6
CONTINUOUS
 62
    7
 10
638.54520500000012
 20
1549.5472240634153
 11
639.81644500000016
 21
1553.1456240634154
  0
LINE
  8
_0-1_レイヤ___1
  6
CONTINUOUS
 62
    7
 10
639.81644500000016
 20
1553.1456240634154
 11
641.08596500000021
 21
1556.7440240634153
  0
LINE
  8
_0-1_レイヤ___1
  6
CONTINUOUS
 62
    7
 10
641.08596500000021
 20
1556.7440240634153
 11
642.77922500000022
 21
1560.3424240634154
  0
LINE
  8
_0-1_レイヤ___1
  6
CONTINUOUS
 62
    7
 10
642.77922500000022
 20
1560.3424240634154
 11
644.47249500000009
 21
1563.9408340634154
  0
LINE
  8
_0-1_レイヤ___1
  6
CONTINUOUS
 62
    7
 10
644.47249500000009
 20
1563.9408340634154
 11
647.0132450000001
 21
1566.9036140634153
  0
LINE
  8
_0-1_レイヤ___1
  6
CONTINUOUS
 62
    7
 10
647.0132450000001
 20
1566.9036140634153
 11
649.55228500000021
 21
1569.8663940634153
  0
LINE
  8
_0-1_レイヤ___1
  6
CONTINUOUS
 62
    7
 10
649.55228500000021
 20
1569.8663940634153
 11
652.51506500000005
 21
1572.4071540634154
  0
LINE
  8
_0-1_レイヤ___1
  6
CONTINUOUS
 62
    7
 10
652.51506500000005
 20
1572.4071540634154
 11
655.4795750000003
 21
1574.9479140634153
  0
LINE
  8
_0-1_レイヤ___1
  6
CONTINUOUS
 62
    7
 10
655.4795750000003
 20
1574.9479140634153
 11
659.07797500000015
 21
1576.6411740634155
  0
LINE
  8
_0-1_レイヤ___1
  6
CONTINUOUS
 62
    7
 10
659.07797500000015
 20
1576.6411740634155
 11
662.67637500000001
 21
1578.3344340634153
  0
LINE
  8
_0-1_レイヤ___1
  6
CONTINUOUS
 62
    7
 10
662.67637500000001
 20
1578.3344340634153
 11
666.4849250000002
 21
1579.6039540634156
  0
LINE
  8
_0-1_レイヤ___1
  6
CONTINUOUS
 62
    7
 10
666.4849250000002
 20
1579.6039540634156
 11
670.29520500000012
 21
1580.8734740634154
  0
LINE
  8
_0-1_レイヤ___1
  6
CONTINUOUS
 62
    7
 10
670.29520500000012
 20
1580.8734740634154
 11
674.10548500000016
 21
1581.2972240634153
  0
LINE
  8
_0-1_レイヤ___1
  6
CONTINUOUS
 62
    7
 10
674.10548500000016
 20
1581.2972240634153
 11
677.91575500000022
 21
1581.7209640634153
  0
LINE
  8
_0-1_レイヤ___1
  6
CONTINUOUS
 62
    7
 10
677.91575500000022
 20
1581.7209640634153
 11
856.35103500000014
 21
1581.7209640634153
  0
LINE
  8
_0-1_レイヤ___1
  6
CONTINUOUS
 62
    7
 10
856.35103500000014
 20
1581.7209640634153
 11
1034.7863050000001
 21
1581.7209640634153
  0
LINE
  8
_0-1_レイヤ___1
  6
CONTINUOUS
 62
    7
 10
1034.7863050000001
 20
1581.7209640634153
 11
1213.4317350000001
 21
1581.7209640634153
  0
LINE
  8
_0-1_レイヤ___1
  6
CONTINUOUS
 62
    7
 10
1213.4317350000001
 20
1581.7209640634153
 11
1392.0788850000004
 21
1581.7209640634153
  0
LINE
  8
_0-1_レイヤ___1
  6
CONTINUOUS
 62
    7
 10
1392.0788850000004
 20
1581.7209640634153
 11
1395.8891550000001
 21
1581.2972240634153
  0
LINE
  8
_0-1_レイヤ___1
  6
CONTINUOUS
 62
    7
 10
1395.8891550000001
 20
1581.2972240634153
 11
1399.6994350000002
 21
1580.8734740634154
  0
LINE
  8
_0-1_レイヤ___1
  6
CONTINUOUS
 62
    7
 10
1399.6994350000002
 20
1580.8734740634154
 11
1403.5079850000002
 21
1579.6039540634156
  0
LINE
  8
_0-1_レイヤ___1
  6
CONTINUOUS
 62
    7
 10
1403.5079850000002
 20
1579.6039540634156
 11
1407.3182650000001
 21
1578.3344340634153
  0
LINE
  8
_0-1_レイヤ___1
  6
CONTINUOUS
 62
    7
 10
1407.3182650000001
 20
1578.3344340634153
 11
1410.7047950000001
 21
1576.6411740634155
  0
LINE
  8
_0-1_レイヤ___1
  6
CONTINUOUS
 62
    7
 10
1410.7047950000001
 20
1576.6411740634155
 11
1414.0930450000001
 21
1574.9479140634153
  0
LINE
  8
_0-1_レイヤ___1
  6
CONTINUOUS
 62
    7
 10
1414.0930450000001
 20
1574.9479140634153
 11
1417.0558250000001
 21
1572.4071540634154
  0
LINE
  8
_0-1_レイヤ___1
  6
CONTINUOUS
 62
    7
 10
1417.0558250000001
 20
1572.4071540634154
 11
1420.0186050000002
 21
1569.8663940634153
  0
LINE
  8
_0-1_レイヤ___1
  6
CONTINUOUS
 62
    7
 10
1420.0186050000002
 20
1569.8663940634153
 11
1422.5593650000001
 21
1566.9036140634153
  0
LINE
  8
_0-1_レイヤ___1
  6
CONTINUOUS
 62
    7
 10
1422.5593650000001
 20
1566.9036140634153
 11
1425.0984050000002
 21
1563.9408340634154
  0
LINE
  8
_0-1_レイヤ___1
  6
CONTINUOUS
 62
    7
 10
1425.0984050000002
 20
1563.9408340634154
 11
1427.0035350000001
 21
1560.3424240634154
  0
LINE
  8
_0-1_レイヤ___1
  6
CONTINUOUS
 62
    7
 10
1427.0035350000001
 20
1560.3424240634154
 11
1428.9086750000001
 21
1556.7440240634153
  0
LINE
  8
_0-1_レイヤ___1
  6
CONTINUOUS
 62
    7
 10
1428.9086750000001
 20
1556.7440240634153
 11
1429.9663250000001
 21
1553.1456240634154
  0
LINE
  8
_0-1_レイヤ___1
  6
CONTINUOUS
 62
    7
 10
1429.9663250000001
 20
1553.1456240634154
 11
1431.0256850000001
 21
1549.5472240634153
  0
LINE
  8
_0-1_レイヤ___1
  6
CONTINUOUS
 62
    7
 10
1431.0256850000001
 20
1549.5472240634153
 11
1431.4477150000002
 21
1545.5267940634153
  0
LINE
  8
_0-1_レイヤ___1
  6
CONTINUOUS
 62
    7
 10
1431.4477150000002
 20
1545.5267940634153
 11
1431.8714550000002
 21
1541.5046440634155
  0
LINE
  8
_0-1_レイヤ___1
  6
CONTINUOUS
 62
    7
 10
1431.8714550000002
 20
1541.5046440634155
 11
1431.8714550000002
 21
1447.5241640634154
  0
LINE
  8
_0-1_レイヤ___1
  6
CONTINUOUS
 62
    7
 10
1431.8714550000002
 20
1447.5241640634154
 11
1431.8714550000002
 21
1353.5436840634154
  0
LINE
  8
_0-1_レイヤ___1
  6
CONTINUOUS
 62
    7
 10
1431.8714550000002
 20
1353.5436840634154
 11
1431.8714550000002
 21
1259.5631940634153
  0
LINE
  8
_0-1_レイヤ___1
  6
CONTINUOUS
 62
    7
 10
1431.8714550000002
 20
1259.5631940634153
 11
1431.8714550000002
 21
1165.5844340634153
  0
LINE
  8
_0-1_レイヤ___1
  6
CONTINUOUS
 62
    7
 10
1431.8714550000002
 20
1165.5844340634153
 11
1431.4477150000002
 21
1161.5622940634153
  0
LINE
  8
_0-1_レイヤ___1
  6
CONTINUOUS
 62
    7
 10
1431.4477150000002
 20
1161.5622940634153
 11
1431.0256850000001
 21
1157.5401440634153
  0
LINE
  8
_0-1_レイヤ___1
  6
CONTINUOUS
 62
    7
 10
1431.0256850000001
 20
1157.5401440634153
 11
1429.9663250000001
 21
1153.9417340634154
  0
LINE
  8
_0-1_レイヤ___1
  6
CONTINUOUS
 62
    7
 10
1429.9663250000001
 20
1153.9417340634154
 11
1428.9086750000001
 21
1150.3433340634156
  0
LINE
  8
_0-1_レイヤ___1
  6
CONTINUOUS
 62
    7
 10
1428.9086750000001
 20
1150.3433340634156
 11
1427.0035350000001
 21
1146.7449340634153
  0
LINE
  8
_0-1_レイヤ___1
  6
CONTINUOUS
 62
    7
 10
1427.0035350000001
 20
1146.7449340634153
 11
1425.0984050000002
 21
1143.1465340634154
  0
LINE
  8
_0-1_レイヤ___1
  6
CONTINUOUS
 62
    7
 10
1425.0984050000002
 20
1143.1465340634154
 11
1422.5593650000001
 21
1140.1837540634153
  0
LINE
  8
_0-1_レイヤ___1
  6
CONTINUOUS
 62
    7
 10
1422.5593650000001
 20
1140.1837540634153
 11
1420.0186050000002
 21
1137.2209640634153
  0
LINE
  8
_0-1_レイヤ___1
  6
CONTINUOUS
 62
    7
 10
1420.0186050000002
 20
1137.2209640634153
 11
1417.0558250000001
 21
1134.6819340634152
  0
LINE
  8
_0-1_レイヤ___1
  6
CONTINUOUS
 62
    7
 10
1417.0558250000001
 20
1134.6819340634152
 11
1414.0930450000001
 21
1132.1411740634153
  0
LINE
  8
_0-1_レイヤ___1
  6
CONTINUOUS
 62
    7
 10
1414.0930450000001
 20
1132.1411740634153
 11
1410.7047950000001
 21
1130.4479140634155
  0
LINE
  8
_0-1_レイヤ___1
  6
CONTINUOUS
 62
    7
 10
1410.7047950000001
 20
1130.4479140634155
 11
1407.3182650000001
 21
1128.7546440634153
  0
LINE
  8
_0-1_レイヤ___1
  6
CONTINUOUS
 62
    7
 10
1407.3182650000001
 20
1128.7546440634153
 11
1403.5079850000002
 21
1127.4851240634155
  0
LINE
  8
_0-1_レイヤ___1
  6
CONTINUOUS
 62
    7
 10
1403.5079850000002
 20
1127.4851240634155
 11
1399.6994350000002
 21
1126.2138840634154
  0
LINE
  8
_0-1_レイヤ___1
  6
CONTINUOUS
 62
    7
 10
1399.6994350000002
 20
1126.2138840634154
 11
1395.8891550000001
 21
1125.7901440634155
  0
LINE
  8
_0-1_レイヤ___1
  6
CONTINUOUS
 62
    7
 10
1395.8891550000001
 20
1125.7901440634155
 11
1392.0788850000004
 21
1125.3663940634151
  0
LINE
  8
_0-1_レイヤ___1
  6
CONTINUOUS
 62
    7
 10
1392.0788850000004
 20
1125.3663940634151
 11
1213.4317350000001
 21
1125.3663940634151
  0
LINE
  8
_0-1_レイヤ___1
  6
CONTINUOUS
 62
    7
 10
1213.4317350000001
 20
1125.3663940634151
 11
1034.7863050000001
 21
1125.3663940634151
  0
LINE
  8
_0-1_レイヤ___1
  6
CONTINUOUS
 62
    7
 10
1034.7863050000001
 20
1125.3663940634151
 11
856.35103500000014
 21
1125.3663940634151
  0
LINE
  8
_0-1_レイヤ___1
  6
CONTINUOUS
 62
    7
 10
856.35103500000014
 20
1125.3663940634151
 11
677.91575500000022
 21
1125.3663940634151
  0
LINE
  8
_0-1_レイヤ___1
  6
CONTINUOUS
 62
    7
 10
677.91575500000022
 20
1125.3663940634151
 11
674.10548500000016
 21
1125.7901440634155
  0
LINE
  8
_0-1_レイヤ___1
  6
CONTINUOUS
 62
    7
 10
674.10548500000016
 20
1125.7901440634155
 11
670.29520500000012
 21
1126.2138840634154
  0
LINE
  8
_0-1_レイヤ___1
  6
CONTINUOUS
 62
    7
 10
670.29520500000012
 20
1126.2138840634154
 11
666.4849250000002
 21
1127.4851240634155
  0
LINE
  8
_0-1_レイヤ___1
  6
CONTINUOUS
 62
    7
 10
666.4849250000002
 20
1127.4851240634155
 11
662.67637500000001
 21
1128.7546440634153
  0
LINE
  8
_0-1_レイヤ___1
  6
CONTINUOUS
 62
    7
 10
662.67637500000001
 20
1128.7546440634153
 11
659.07797500000015
 21
1130.4479140634155
  0
LINE
  8
_0-1_レイヤ___1
  6
CONTINUOUS
 62
    7
 10
659.07797500000015
 20
1130.4479140634155
 11
655.4795750000003
 21
1132.1411740634153
  0
LINE
  8
_0-1_レイヤ___1
  6
CONTINUOUS
 62
    7
 10
655.4795750000003
 20
1132.1411740634153
 11
652.51506500000005
 21
1134.6819340634152
  0
LINE
  8
_0-1_レイヤ___1
  6
CONTINUOUS
 62
    7
 10
652.51506500000005
 20
1134.6819340634152
 11
649.55228500000021
 21
1137.2209640634153
  0
LINE
  8
_0-1_レイヤ___1
  6
CONTINUOUS
 62
    7
 10
649.55228500000021
 20
1137.2209640634153
 11
647.0132450000001
 21
1140.1837540634153
  0
LINE
  8
_0-1_レイヤ___1
  6
CONTINUOUS
 62
    7
 10
647.0132450000001
 20
1140.1837540634153
 11
644.47249500000009
 21
1143.1465340634154
  0
LINE
  8
_0-1_レイヤ___1
  6
CONTINUOUS
 62
    7
 10
644.47249500000009
 20
1143.1465340634154
 11
642.77922500000022
 21
1146.7449340634153
  0
LINE
  8
_0-1_レイヤ___1
  6
CONTINUOUS
 62
    7
 10
642.77922500000022
 20
1146.7449340634153
 11
641.08596500000021
 21
1150.3433340634156
  0
LINE
  8
_0-1_レイヤ___1
  6
CONTINUOUS
 62
    7
 10
641.08596500000021
 20
1150.3433340634156
 11
639.81644500000016
 21
1153.9417340634154
  0
LINE
  8
_0-1_レイヤ___1
  6
CONTINUOUS
 62
    7
 10
639.81644500000016
 20
1153.9417340634154
 11
638.54520500000012
 21
1157.5401440634153
  0
LINE
  8
_0-1_レイヤ___1
  6
CONTINUOUS
 62
    7
 10
638.54520500000012
 20
1157.5401440634153
 11
638.1214550000002
 21
1161.5622940634153
  0
LINE
  8
_0-1_レイヤ___1
  6
CONTINUOUS
 62
    7
 10
638.1214550000002
 20
1161.5622940634153
 11
637.69943500000011
 21
1165.5844340634153
  0
LINE
  8
_0-1_レイヤ___1
  6
CONTINUOUS
 62
    7
 10
637.69943500000011
 20
1165.5844340634153
 11
637.69943500000011
 21
1259.5631940634153
  0
LINE
  8
_0-1_レイヤ___1
  6
CONTINUOUS
 62
    7
 10
637.69943500000011
 20
1259.5631940634153
 11
637.69943500000011
 21
1353.5436840634154
  0
LINE
  8
_0-1_レイヤ___1
  6
CONTINUOUS
 62
    7
 10
1034.7863050000001
 20
1536.4231240634153
 11
1200.9432650000003
 21
1536.4231240634153
  0
LINE
  8
_0-1_レイヤ___1
  6
CONTINUOUS
 62
    7
 10
1200.9432650000003
 20
1536.4231240634153
 11
1367.1019450000003
 21
1536.4231240634153
  0
LINE
  8
_0-1_レイヤ___1
  6
CONTINUOUS
 62
    7
 10
1367.1019450000003
 20
1536.4231240634153
 11
1369.007075
 21
1536.2112540634155
  0
LINE
  8
_0-1_レイヤ___1
  6
CONTINUOUS
 62
    7
 10
1369.007075
 20
1536.2112540634155
 11
1370.9122150000003
 21
1536.0011040634154
  0
LINE
  8
_0-1_レイヤ___1
  6
CONTINUOUS
 62
    7
 10
1370.9122150000003
 20
1536.0011040634154
 11
1372.8173550000001
 21
1535.5773540634152
  0
LINE
  8
_0-1_レイヤ___1
  6
CONTINUOUS
 62
    7
 10
1372.8173550000001
 20
1535.5773540634152
 11
1374.722495
 21
1535.1536140634153
  0
LINE
  8
_0-1_レイヤ___1
  6
CONTINUOUS
 62
    7
 10
1374.722495
 20
1535.1536140634153
 11
1376.4157550000002
 21
1534.0959640634153
  0
LINE
  8
_0-1_レイヤ___1
  6
CONTINUOUS
 62
    7
 10
1376.4157550000002
 20
1534.0959640634153
 11
1378.1090250000002
 21
1533.0366040634153
  0
LINE
  8
_0-1_レイヤ___1
  6
CONTINUOUS
 62
    7
 10
1378.1090250000002
 20
1533.0366040634153
 11
1379.5904150000001
 21
1531.7670840634153
  0
LINE
  8
_0-1_レイヤ___1
  6
CONTINUOUS
 62
    7
 10
1379.5904150000001
 20
1531.7670840634153
 11
1381.0718050000003
 21
1530.4975640634154
  0
LINE
  8
_0-1_レイヤ___1
  6
CONTINUOUS
 62
    7
 10
1381.0718050000003
 20
1530.4975640634154
 11
1382.3413250000001
 21
1529.0144540634153
  0
LINE
  8
_0-1_レイヤ___1
  6
CONTINUOUS
 62
    7
 10
1382.3413250000001
 20
1529.0144540634153
 11
1383.6125650000004
 21
1527.5330640634152
  0
LINE
  8
_0-1_レイヤ___1
  6
CONTINUOUS
 62
    7
 10
1383.6125650000004
 20
1527.5330640634152
 11
1384.460055
 21
1525.8397940634154
  0
LINE
  8
_0-1_レイヤ___1
  6
CONTINUOUS
 62
    7
 10
1384.460055
 20
1525.8397940634154
 11
1385.3058250000001
 21
1524.1465340634154
  0
LINE
  8
_0-1_レイヤ___1
  6
CONTINUOUS
 62
    7
 10
1385.3058250000001
 20
1524.1465340634154
 11
1385.9414450000004
 21
1522.2413940634151
  0
LINE
  8
_0-1_レイヤ___1
  6
CONTINUOUS
 62
    7
 10
1385.9414450000004
 20
1522.2413940634151
 11
1386.5753450000002
 21
1520.3362540634155
  0
LINE
  8
_0-1_レイヤ___1
  6
CONTINUOUS
 62
    7
 10
1386.5753450000002
 20
1520.3362540634155
 11
1386.7872150000003
 21
1518.4311140634154
  0
LINE
  8
_0-1_レイヤ___1
  6
CONTINUOUS
 62
    7
 10
1386.7872150000003
 20
1518.4311140634154
 11
1386.9990850000002
 21
1516.5277040634155
  0
LINE
  8
_0-1_レイヤ___1
  6
CONTINUOUS
 62
    7
 10
1386.9990850000002
 20
1516.5277040634155
 11
1386.9990850000002
 21
1446.2529240634153
  0
LINE
  8
_0-1_レイヤ___1
  6
CONTINUOUS
 62
    7
 10
1386.9990850000002
 20
1446.2529240634153
 11
1386.9990850000002
 21
1375.9798640634153
  0
LINE
  8
_0-1_レイヤ___1
  6
CONTINUOUS
 62
    7
 10
1386.9990850000002
 20
1375.9798640634153
 11
1386.9990850000002
 21
1305.7068040634153
  0
LINE
  8
_0-1_レイヤ___1
  6
CONTINUOUS
 62
    7
 10
1386.9990850000002
 20
1305.7068040634153
 11
1386.9990850000002
 21
1235.4337540634153
  0
LINE
  8
_0-1_レイヤ___1
  6
CONTINUOUS
 62
    7
 10
1386.9990850000002
 20
1235.4337540634153
 11
1386.7872150000003
 21
1233.5286140634153
  0
LINE
  8
_0-1_レイヤ___1
  6
CONTINUOUS
 62
    7
 10
1386.7872150000003
 20
1233.5286140634153
 11
1386.5753450000002
 21
1231.6234740634152
  0
LINE
  8
_0-1_レイヤ___1
  6
CONTINUOUS
 62
    7
 10
1386.5753450000002
 20
1231.6234740634152
 11
1385.9414450000004
 21
1229.7183340634156
  0
LINE
  8
_0-1_レイヤ___1
  6
CONTINUOUS
 62
    7
 10
1385.9414450000004
 20
1229.7183340634156
 11
1385.3058250000001
 21
1227.8131940634153
  0
LINE
  8
_0-1_レイヤ___1
  6
CONTINUOUS
 62
    7
 10
1385.3058250000001
 20
1227.8131940634153
 11
1384.460055
 21
1226.1199340634153
  0
LINE
  8
_0-1_レイヤ___1
  6
CONTINUOUS
 62
    7
 10
1384.460055
 20
1226.1199340634153
 11
1383.6125650000004
 21
1224.4266740634155
  0
LINE
  8
_0-1_レイヤ___1
  6
CONTINUOUS
 62
    7
 10
1383.6125650000004
 20
1224.4266740634155
 11
1382.3413250000001
 21
1222.9452740634154
  0
LINE
  8
_0-1_レイヤ___1
  6
CONTINUOUS
 62
    7
 10
1382.3413250000001
 20
1222.9452740634154
 11
1381.0718050000003
 21
1221.4638840634154
  0
LINE
  8
_0-1_レイヤ___1
  6
CONTINUOUS
 62
    7
 10
1381.0718050000003
 20
1221.4638840634154
 11
1379.5904150000001
 21
1220.1926440634154
  0
LINE
  8
_0-1_レイヤ___1
  6
CONTINUOUS
 62
    7
 10
1379.5904150000001
 20
1220.1926440634154
 11
1378.1090250000002
 21
1218.9231240634153
  0
LINE
  8
_0-1_レイヤ___1
  6
CONTINUOUS
 62
    7
 10
1378.1090250000002
 20
1218.9231240634153
 11
1376.4157550000002
 21
1218.0773540634152
  0
LINE
  8
_0-1_レイヤ___1
  6
CONTINUOUS
 62
    7
 10
1376.4157550000002
 20
1218.0773540634152
 11
1374.722495
 21
1217.2298640634153
  0
LINE
  8
_0-1_レイヤ___1
  6
CONTINUOUS
 62
    7
 10
1374.722495
 20
1217.2298640634153
 11
1372.8173550000001
 21
1216.5959640634153
  0
LINE
  8
_0-1_レイヤ___1
  6
CONTINUOUS
 62
    7
 10
1372.8173550000001
 20
1216.5959640634153
 11
1370.9122150000003
 21
1215.9603440634155
  0
LINE
  8
_0-1_レイヤ___1
  6
CONTINUOUS
 62
    7
 10
1370.9122150000003
 20
1215.9603440634155
 11
1369.007075
 21
1215.7484740634154
  0
LINE
  8
_0-1_レイヤ___1
  6
CONTINUOUS
 62
    7
 10
1369.007075
 20
1215.7484740634154
 11
1367.1019450000003
 21
1215.5366040634153
  0
LINE
  8
_0-1_レイヤ___1
  6
CONTINUOUS
 62
    7
 10
1367.1019450000003
 20
1215.5366040634153
 11
1200.9432650000003
 21
1215.5366040634153
  0
LINE
  8
_0-1_レイヤ___1
  6
CONTINUOUS
 62
    7
 10
1200.9432650000003
 20
1215.5366040634153
 11
1034.7863050000001
 21
1215.5366040634153
  0
LINE
  8
_0-1_レイヤ___1
  6
CONTINUOUS
 62
    7
 10
1034.7863050000001
 20
1215.5366040634153
 11
868.83950500000014
 21
1215.5366040634153
  0
LINE
  8
_0-1_レイヤ___1
  6
CONTINUOUS
 62
    7
 10
868.83950500000014
 20
1215.5366040634153
 11
702.89269500000023
 21
1215.5366040634153
  0
LINE
  8
_0-1_レイヤ___1
  6
CONTINUOUS
 62
    7
 10
702.89269500000023
 20
1215.5366040634153
 11
700.98756500000025
 21
1215.7484740634154
  0
LINE
  8
_0-1_レイヤ___1
  6
CONTINUOUS
 62
    7
 10
700.98756500000025
 20
1215.7484740634154
 11
699.08242500000017
 21
1215.9603440634155
  0
LINE
  8
_0-1_レイヤ___1
  6
CONTINUOUS
 62
    7
 10
699.08242500000017
 20
1215.9603440634155
 11
697.17728500000021
 21
1216.5959640634153
  0
LINE
  8
_0-1_レイヤ___1
  6
CONTINUOUS
 62
    7
 10
697.17728500000021
 20
1216.5959640634153
 11
695.27214500000014
 21
1217.2298640634153
  0
LINE
  8
_0-1_レイヤ___1
  6
CONTINUOUS
 62
    7
 10
695.27214500000014
 20
1217.2298640634153
 11
693.57888500000013
 21
1218.0773540634152
  0
LINE
  8
_0-1_レイヤ___1
  6
CONTINUOUS
 62
    7
 10
693.57888500000013
 20
1218.0773540634152
 11
691.88561500000014
 21
1218.9231240634153
  0
LINE
  8
_0-1_レイヤ___1
  6
CONTINUOUS
 62
    7
 10
691.88561500000014
 20
1218.9231240634153
 11
690.40422500000022
 21
1220.1926440634154
  0
LINE
  8
_0-1_レイヤ___1
  6
CONTINUOUS
 62
    7
 10
690.40422500000022
 20
1220.1926440634154
 11
688.92283500000019
 21
1221.4638840634154
  0
LINE
  8
_0-1_レイヤ___1
  6
CONTINUOUS
 62
    7
 10
688.92283500000019
 20
1221.4638840634154
 11
687.65159500000004
 21
1222.9452740634154
  0
LINE
  8
_0-1_レイヤ___1
  6
CONTINUOUS
 62
    7
 10
687.65159500000004
 20
1222.9452740634154
 11
686.38207500000021
 21
1224.4266740634155
  0
LINE
  8
_0-1_レイヤ___1
  6
CONTINUOUS
 62
    7
 10
686.38207500000021
 20
1224.4266740634155
 11
685.32271500000002
 21
1226.1199340634153
  0
LINE
  8
_0-1_レイヤ___1
  6
CONTINUOUS
 62
    7
 10
685.32271500000002
 20
1226.1199340634153
 11
684.26506500000016
 21
1227.8131940634153
  0
LINE
  8
_0-1_レイヤ___1
  6
CONTINUOUS
 62
    7
 10
684.26506500000016
 20
1227.8131940634153
 11
683.84132500000021
 21
1229.7183340634156
  0
LINE
  8
_0-1_レイヤ___1
  6
CONTINUOUS
 62
    7
 10
683.84132500000021
 20
1229.7183340634156
 11
683.41929500000015
 21
1231.6234740634152
  0
LINE
  8
_0-1_レイヤ___1
  6
CONTINUOUS
 62
    7
 10
683.41929500000015
 20
1231.6234740634152
 11
683.20742500000028
 21
1233.5286140634153
  0
LINE
  8
_0-1_レイヤ___1
  6
CONTINUOUS
 62
    7
 10
683.20742500000028
 20
1233.5286140634153
 11
682.99554500000011
 21
1235.4337540634153
  0
LINE
  8
_0-1_レイヤ___1
  6
CONTINUOUS
 62
    7
 10
682.99554500000011
 20
1235.4337540634153
 11
682.99554500000011
 21
1305.7068040634153
  0
LINE
  8
_0-1_レイヤ___1
  6
CONTINUOUS
 62
    7
 10
682.99554500000011
 20
1305.7068040634153
 11
682.99554500000011
 21
1375.9798640634153
  0
LINE
  8
_0-1_レイヤ___1
  6
CONTINUOUS
 62
    7
 10
682.99554500000011
 20
1375.9798640634153
 11
682.99554500000011
 21
1446.2529240634153
  0
LINE
  8
_0-1_レイヤ___1
  6
CONTINUOUS
 62
    7
 10
682.99554500000011
 20
1446.2529240634153
 11
682.99554500000011
 21
1516.5277040634155
  0
LINE
  8
_0-1_レイヤ___1
  6
CONTINUOUS
 62
    7
 10
682.99554500000011
 20
1516.5277040634155
 11
683.20742500000028
 21
1518.4311140634154
  0
LINE
  8
_0-1_レイヤ___1
  6
CONTINUOUS
 62
    7
 10
683.20742500000028
 20
1518.4311140634154
 11
683.41929500000015
 21
1520.3362540634155
  0
LINE
  8
_0-1_レイヤ___1
  6
CONTINUOUS
 62
    7
 10
683.41929500000015
 20
1520.3362540634155
 11
683.84132500000021
 21
1522.2413940634151
  0
LINE
  8
_0-1_レイヤ___1
  6
CONTINUOUS
 62
    7
 10
683.84132500000021
 20
1522.2413940634151
 11
684.26506500000016
 21
1524.1465340634154
  0
LINE
  8
_0-1_レイヤ___1
  6
CONTINUOUS
 62
    7
 10
684.26506500000016
 20
1524.1465340634154
 11
685.32271500000002
 21
1525.8397940634154
  0
LINE
  8
_0-1_レイヤ___1
  6
CONTINUOUS
 62
    7
 10
685.32271500000002
 20
1525.8397940634154
 11
686.38207500000021
 21
1527.5330640634152
  0
LINE
  8
_0-1_レイヤ___1
  6
CONTINUOUS
 62
    7
 10
686.38207500000021
 20
1527.5330640634152
 11
687.65159500000004
 21
1529.0144540634153
  0
LINE
  8
_0-1_レイヤ___1
  6
CONTINUOUS
 62
    7
 10
687.65159500000004
 20
1529.0144540634153
 11
688.92283500000019
 21
1530.4975640634154
  0
LINE
  8
_0-1_レイヤ___1
  6
CONTINUOUS
 62
    7
 10
688.92283500000019
 20
1530.4975640634154
 11
690.40422500000022
 21
1531.7670840634153
  0
LINE
  8
_0-1_レイヤ___1
  6
CONTINUOUS
 62
    7
 10
690.40422500000022
 20
1531.7670840634153
 11
691.88561500000014
 21
1533.0366040634153
  0
LINE
  8
_0-1_レイヤ___1
  6
CONTINUOUS
 62
    7
 10
691.88561500000014
 20
1533.0366040634153
 11
693.57888500000013
 21
1534.0959640634153
  0
LINE
  8
_0-1_レイヤ___1
  6
CONTINUOUS
 62
    7
 10
693.57888500000013
 20
1534.0959640634153
 11
695.27214500000014
 21
1535.1536140634153
  0
LINE
  8
_0-1_レイヤ___1
  6
CONTINUOUS
 62
    7
 10
695.27214500000014
 20
1535.1536140634153
 11
697.17728500000021
 21
1535.5773540634152
  0
LINE
  8
_0-1_レイヤ___1
  6
CONTINUOUS
 62
    7
 10
697.17728500000021
 20
1535.5773540634152
 11
699.08242500000017
 21
1536.0011040634154
  0
LINE
  8
_0-1_レイヤ___1
  6
CONTINUOUS
 62
    7
 10
699.08242500000017
 20
1536.0011040634154
 11
700.98756500000025
 21
1536.2112540634155
  0
LINE
  8
_0-1_レイヤ___1
  6
CONTINUOUS
 62
    7
 10
700.98756500000025
 20
1536.2112540634155
 11
702.89269500000023
 21
1536.4231240634153
  0
LINE
  8
_0-1_レイヤ___1
  6
CONTINUOUS
 62
    7
 10
702.89269500000023
 20
1536.4231240634153
 11
868.83950500000014
 21
1536.4231240634153
  0
LINE
  8
_0-1_レイヤ___1
  6
CONTINUOUS
 62
    7
 10
868.83950500000014
 20
1536.4231240634153
 11
1034.7863050000001
 21
1536.4231240634153
  0
LINE
  8
_0-1_レイヤ___1
  6
CONTINUOUS
 62
    7
 10
1213.4317350000001
 20
1445.4071540634154
 11
1229.3067350000001
 21
1445.4071540634154
  0
LINE
  8
_0-1_レイヤ___1
  6
CONTINUOUS
 62
    7
 10
1229.3067350000001
 20
1445.4071540634154
 11
1245.1817350000001
 21
1445.4071540634154
  0
LINE
  8
_0-1_レイヤ___1
  6
CONTINUOUS
 62
    7
 10
1255.7650650000003
 20
1445.4071540634154
 11
1257.4583350000003
 21
1445.4071540634154
  0
LINE
  8
_0-1_レイヤ___1
  6
CONTINUOUS
 62
    7
 10
1257.4583350000003
 20
1445.4071540634154
 11
1259.1515950000003
 21
1445.4071540634154
  0
LINE
  8
_0-1_レイヤ___1
  6
CONTINUOUS
 62
    7
 10
1266.3484050000002
 20
1445.4071540634154
 11
1282.2234050000002
 21
1445.4071540634154
  0
LINE
  8
_0-1_レイヤ___1
  6
CONTINUOUS
 62
    7
 10
1282.2234050000002
 20
1445.4071540634154
 11
1298.0984050000002
 21
1445.4071540634154
  0
LINE
  8
_0-1_レイヤ___1
  6
CONTINUOUS
 62
    7
 10
1308.6817350000001
 20
1445.4071540634154
 11
1310.3749950000001
 21
1445.4071540634154
  0
LINE
  8
_0-1_レイヤ___1
  6
CONTINUOUS
 62
    7
 10
1310.3749950000001
 20
1445.4071540634154
 11
1312.0682650000003
 21
1445.4071540634154
  0
LINE
  8
_0-1_レイヤ___1
  6
CONTINUOUS
 62
    7
 10
1319.265065
 20
1445.4071540634154
 11
1335.1400650000003
 21
1445.4071540634154
  0
LINE
  8
_0-1_レイヤ___1
  6
CONTINUOUS
 62
    7
 10
1335.1400650000003
 20
1445.4071540634154
 11
1351.0150650000003
 21
1445.4071540634154
  0
LINE
  8
_0-1_レイヤ___1
  6
CONTINUOUS
 62
    7
 10
1361.598405
 20
1445.4071540634154
 11
1363.2916650000002
 21
1445.4071540634154
  0
LINE
  8
_0-1_レイヤ___1
  6
CONTINUOUS
 62
    7
 10
1363.2916650000002
 20
1445.4071540634154
 11
1364.9849250000002
 21
1445.4071540634154
  0
LINE
  8
_0-1_レイヤ___1
  6
CONTINUOUS
 62
    7
 10
1372.1817350000001
 20
1445.4071540634154
 11
1375.3581150000002
 21
1445.4071540634154
  0
LINE
  8
_0-1_レイヤ___1
  6
CONTINUOUS
 62
    7
 10
1375.3581150000002
 20
1445.4071540634154
 11
1378.5327650000002
 21
1445.4071540634154
  0
LINE
  8
_0-1_レイヤ___1
  6
CONTINUOUS
 62
    7
 10
1295.9831150000002
 20
1527.9568040634153
 11
1295.9831150000002
 21
1512.0818040634153
  0
LINE
  8
_0-1_レイヤ___1
  6
CONTINUOUS
 62
    7
 10
1295.9831150000002
 20
1512.0818040634153
 11
1295.9831150000002
 21
1496.2068040634153
  0
LINE
  8
_0-1_レイヤ___1
  6
CONTINUOUS
 62
    7
 10
1295.9831150000002
 20
1485.6234740634154
 11
1295.9831150000002
 21
1483.9302140634154
  0
LINE
  8
_0-1_レイヤ___1
  6
CONTINUOUS
 62
    7
 10
1295.9831150000002
 20
1483.9302140634154
 11
1295.9831150000002
 21
1482.2369440634154
  0
LINE
  8
_0-1_レイヤ___1
  6
CONTINUOUS
 62
    7
 10
1295.9831150000002
 20
1475.0401440634153
 11
1295.9831150000002
 21
1459.1651440634155
  0
LINE
  8
_0-1_レイヤ___1
  6
CONTINUOUS
 62
    7
 10
1295.9831150000002
 20
1459.1651440634155
 11
1295.9831150000002
 21
1443.2901440634155
  0
LINE
  8
_0-1_レイヤ___1
  6
CONTINUOUS
 62
    7
 10
1295.9831150000002
 20
1432.7068040634153
 11
1295.9831150000002
 21
1431.0135440634153
  0
LINE
  8
_0-1_レイヤ___1
  6
CONTINUOUS
 62
    7
 10
1295.9831150000002
 20
1431.0135440634153
 11
1295.9831150000002
 21
1429.3202740634156
  0
LINE
  8
_0-1_レイヤ___1
  6
CONTINUOUS
 62
    7
 10
1295.9831150000002
 20
1422.1234740634154
 11
1295.9831150000002
 21
1406.2484740634154
  0
LINE
  8
_0-1_レイヤ___1
  6
CONTINUOUS
 62
    7
 10
1295.9831150000002
 20
1406.2484740634154
 11
1295.9831150000002
 21
1390.3734740634152
  0
LINE
  8
_0-1_レイヤ___1
  6
CONTINUOUS
 62
    7
 10
1295.9831150000002
 20
1379.7901440634155
 11
1295.9831150000002
 21
1378.0968740634153
  0
LINE
  8
_0-1_レイヤ___1
  6
CONTINUOUS
 62
    7
 10
1295.9831150000002
 20
1378.0968740634153
 11
1295.9831150000002
 21
1376.4036140634153
  0
LINE
  8
_0-1_レイヤ___1
  6
CONTINUOUS
 62
    7
 10
1295.9831150000002
 20
1369.2068040634153
 11
1295.9831150000002
 21
1366.0321540634154
  0
LINE
  8
_0-1_レイヤ___1
  6
CONTINUOUS
 62
    7
 10
1295.9831150000002
 20
1366.0321540634154
 11
1295.9831150000002
 21
1362.8574940634153
  0
LINE
  8
_0-1_レイヤ___1
  6
CONTINUOUS
 62
    5
 10
583.08950500000014
 20
1616.4337540634153
 11
504.13824500000021
 21
1616.4337540634153
  0
LINE
  8
_0-1_レイヤ___1
  6
CONTINUOUS
 62
    5
 10
504.13824500000021
 20
1616.4337540634153
 11
425.18527500000016
 21
1616.4337540634153
  0
LINE
  8
_0-1_レイヤ___1
  6
CONTINUOUS
 62
    5
 10
564.03812500000015
 20
1125.3663940634151
 11
494.61256500000019
 21
1125.3663940634151
  0
LINE
  8
_0-1_レイヤ___1
  6
CONTINUOUS
 62
    5
 10
494.61256500000019
 20
1125.3663940634151
 11
425.18527500000016
 21
1125.3663940634151
  0
LINE
  8
_0-1_レイヤ___1
  6
CONTINUOUS
 62
    5
 10
435.34486500000014
 20
1616.4337540634153
 11
435.34486500000014
 21
1370.9000740634153
  0
LINE
  8
_0-1_レイヤ___1
  6
CONTINUOUS
 62
    5
 10
435.34486500000014
 20
1370.9000740634153
 11
435.34486500000014
 21
1125.3663940634151
  0
LINE
  8
_0-1_レイヤ___1
  6
CONTINUOUS
 62
    5
 10
583.93527500000016
 20
1048.7440240634151
 11
583.93527500000016
 21
992.65270406341529
  0
LINE
  8
_0-1_レイヤ___1
  6
CONTINUOUS
 62
    5
 10
583.93527500000016
 20
992.65270406341529
 11
583.93527500000016
 21
936.5613840634154
  0
LINE
  8
_0-1_レイヤ___1
  6
CONTINUOUS
 62
    5
 10
1486.0593650000001
 20
1048.7440240634151
 11
1486.0593650000001
 21
992.65270406341529
  0
LINE
  8
_0-1_レイヤ___1
  6
CONTINUOUS
 62
    5
 10
1486.0593650000001
 20
992.65270406341529
 11
1486.0593650000001
 21
936.5613840634154
  0
LINE
  8
_0-1_レイヤ___1
  6
CONTINUOUS
 62
    5
 10
583.93527500000016
 20
946.72096406341529
 11
1034.9964550000002
 21
946.72096406341529
  0
LINE
  8
_0-1_レイヤ___1
  6
CONTINUOUS
 62
    5
 10
1034.9964550000002
 20
946.72096406341529
 11
1486.0593650000001
 21
946.72096406341529
  0
LINE
  8
_0-1_レイヤ___1
  6
CONTINUOUS
 62
    5
 10
1467.0097050000002
 20
1636.3308940634151
 11
1467.0097050000002
 21
1672.9488140634155
  0
LINE
  8
_0-1_レイヤ___1
  6
CONTINUOUS
 62
    5
 10
1467.0097050000002
 20
1672.9488140634155
 11
1467.0097050000002
 21
1709.5667340634154
  0
LINE
  8
_0-1_レイヤ___1
  6
CONTINUOUS
 62
    5
 10
1295.9831150000002
 20
1547.8539540634154
 11
1295.9831150000002
 21
1628.7103440634153
  0
LINE
  8
_0-1_レイヤ___1
  6
CONTINUOUS
 62
    5
 10
1295.9831150000002
 20
1628.7103440634153
 11
1295.9831150000002
 21
1709.5667340634154
  0
LINE
  8
_0-1_レイヤ___1
  6
CONTINUOUS
 62
    5
 10
1467.0097050000002
 20
1699.4071540634152
 11
1381.4972750000002
 21
1699.4071540634152
  0
LINE
  8
_0-1_レイヤ___1
  6
CONTINUOUS
 62
    5
 10
1381.4972750000002
 20
1699.4071540634152
 11
1295.9831150000002
 21
1699.4071540634152
  0
LINE
  8
_0-1_レイヤ___1
  6
CONTINUOUS
 62
    5
 10
621.1888150000002
 20
1581.7209640634153
 11
566.1551350000002
 21
1581.7209640634153
  0
LINE
  8
_0-1_レイヤ___1
  6
CONTINUOUS
 62
    5
 10
566.1551350000002
 20
1581.7209640634153
 11
511.12145500000025
 21
1581.7209640634153
  0
LINE
  8
_0-1_レイヤ___1
  6
CONTINUOUS
 62
    5
 10
583.08950500000014
 20
1616.4337540634153
 11
547.10548500000016
 21
1616.4337540634153
  0
LINE
  8
_0-1_レイヤ___1
  6
CONTINUOUS
 62
    5
 10
547.10548500000016
 20
1616.4337540634153
 11
511.12145500000025
 21
1616.4337540634153
  0
LINE
  8
_0-1_レイヤ___1
  6
CONTINUOUS
 62
    5
 10
521.28276500000015
 20
1581.7209640634153
 11
521.28276500000015
 21
1599.0773540634154
  0
LINE
  8
_0-1_レイヤ___1
  6
CONTINUOUS
 62
    5
 10
521.28276500000015
 20
1599.0773540634154
 11
521.28276500000015
 21
1616.4337540634153
  0
LINE
  8
_0-1_レイヤ___1
  6
CONTINUOUS
 62
    5
 10
1398.4281950000002
 20
1445.4071540634154
 11
1483.730485
 21
1445.4071540634154
  0
LINE
  8
_0-1_レイヤ___1
  6
CONTINUOUS
 62
    5
 10
1483.730485
 20
1445.4071540634154
 11
1569.0310450000002
 21
1445.4071540634154
  0
LINE
  8
_0-1_レイヤ___1
  6
CONTINUOUS
 62
    5
 10
1486.905135
 20
1616.4337540634153
 11
1527.9689550000001
 21
1616.4337540634153
  0
LINE
  8
_0-1_レイヤ___1
  6
CONTINUOUS
 62
    5
 10
1527.9689550000001
 20
1616.4337540634153
 11
1569.0310450000002
 21
1616.4337540634153
  0
LINE
  8
_0-1_レイヤ___1
  6
CONTINUOUS
 62
    5
 10
1559.2952050000004
 20
1445.4071540634154
 11
1559.2952050000004
 21
1530.9195840634154
  0
LINE
  8
_0-1_レイヤ___1
  6
CONTINUOUS
 62
    5
 10
1559.2952050000004
 20
1530.9195840634154
 11
1559.2952050000004
 21
1616.4337540634153
  0
LINE
  8
_0-1_レイヤ___1
  6
CONTINUOUS
 62
    5
 10
583.08950500000014
 20
1616.4337540634153
 11
475.13915500000024
 21
1616.4337540634153
  0
LINE
  8
_0-1_レイヤ___1
  6
CONTINUOUS
 62
    5
 10
475.13915500000024
 20
1616.4337540634153
 11
367.18881500000009
 21
1616.4337540634153
  0
LINE
  8
_0-1_レイヤ___1
  6
CONTINUOUS
 62
    5
 10
564.03812500000015
 20
1068.6411740634153
 11
465.61346500000013
 21
1068.6411740634153
  0
LINE
  8
_0-1_レイヤ___1
  6
CONTINUOUS
 62
    5
 10
465.61346500000013
 20
1068.6411740634153
 11
367.18881500000009
 21
1068.6411740634153
  0
LINE
  8
_0-1_レイヤ___1
  6
CONTINUOUS
 62
    5
 10
377.34840500000018
 20
1616.4337540634153
 11
377.34840500000018
 21
1342.5383240634153
  0
LINE
  8
_0-1_レイヤ___1
  6
CONTINUOUS
 62
    5
 10
377.34840500000018
 20
1342.5383240634153
 11
377.34840500000018
 21
1068.6411740634153
  0
LINE
  8
_0-1_レイヤ___1
  6
CONTINUOUS
 62
    5
 10
564.03812500000015
 20
1068.6411740634153
 11
494.61256500000019
 21
1068.6411740634153
  0
LINE
  8
_0-1_レイヤ___1
  6
CONTINUOUS
 62
    5
 10
494.61256500000019
 20
1068.6411740634153
 11
425.18527500000016
 21
1068.6411740634153
  0
LINE
  8
_0-1_レイヤ___1
  6
CONTINUOUS
 62
    5
 10
564.03812500000015
 20
1125.3663940634151
 11
494.61256500000019
 21
1125.3663940634151
  0
LINE
  8
_0-1_レイヤ___1
  6
CONTINUOUS
 62
    5
 10
494.61256500000019
 20
1125.3663940634151
 11
425.18527500000016
 21
1125.3663940634151
  0
LINE
  8
_0-1_レイヤ___1
  6
CONTINUOUS
 62
    5
 10
435.34486500000014
 20
1068.6411740634153
 11
435.34486500000014
 21
1097.0029240634153
  0
LINE
  8
_0-1_レイヤ___1
  6
CONTINUOUS
 62
    5
 10
435.34486500000014
 20
1097.0029240634153
 11
435.34486500000014
 21
1125.3663940634151
  0
LINE
  8
_0-1_レイヤ___1
  6
CONTINUOUS
 62
    5
 10
1272.699435
 20
1405.6145740634154
 11
1243.0664450000002
 21
1354.1793040634152
  0
LINE
  8
_0-1_レイヤ___1
  6
CONTINUOUS
 62
    5
 10
1243.0664450000002
 20
1354.1793040634152
 11
1213.4317350000001
 21
1302.7440240634153
  0
LINE
  8
_0-1_レイヤ___1
  6
CONTINUOUS
 62
    5
 10
1213.4317350000001
 20
1302.7440240634153
 11
1272.6977150000002
 21
1302.7440240634153
  0
LINE
  8
_0-1_レイヤ___1
  6
CONTINUOUS
 62
    5
 10
1272.6977150000002
 20
1302.7440240634153
 11
1331.9654150000001
 21
1302.7440240634153
  0
LINE
  8
_0-1_レイヤ___1
  6
CONTINUOUS
 62
    5
 10
1318.8430450000001
 20
1485.1997240634155
 11
1295.7712350000002
 21
1445.4071540634154
  0
LINE
  8
_0-1_レイヤ___1
  6
CONTINUOUS
 62
    5
 10
1295.7712350000002
 20
1445.4071540634154
 11
1272.699435
 21
1405.6145740634154
  0
LINE
  8
_0-1_レイヤ___1
  6
CONTINUOUS
 62
    5
 10
602.98492500000009
 20
1636.3308940634151
 11
602.98492500000009
 21
1705.3344340634155
  0
LINE
  8
_0-1_レイヤ___1
  6
CONTINUOUS
 62
    5
 10
602.98492500000009
 20
1705.3344340634155
 11
602.98492500000009
 21
1774.3362540634155
  0
LINE
  8
_0-1_レイヤ___1
  6
CONTINUOUS
 62
    5
 10
1467.0097050000002
 20
1636.3308940634151
 11
1467.0097050000002
 21
1705.3344340634155
  0
LINE
  8
_0-1_レイヤ___1
  6
CONTINUOUS
 62
    5
 10
1467.0097050000002
 20
1705.3344340634155
 11
1467.0097050000002
 21
1774.3362540634155
  0
LINE
  8
_0-1_レイヤ___1
  6
CONTINUOUS
 62
    5
 10
602.98492500000009
 20
1764.6004140634154
 11
1034.9964550000002
 21
1764.6004140634154
  0
LINE
  8
_0-1_レイヤ___1
  6
CONTINUOUS
 62
    5
 10
1034.9964550000002
 20
1764.6004140634154
 11
1467.0097050000002
 21
1764.6004140634154
  0
CIRCLE
  8
_0-1_レイヤ___1
  6
CONTINUOUS
 62
    7
 10
1295.9831150000002
 20
1445.4071540634154
 40
46
  0
CIRCLE
  8
_0-1_レイヤ___1
  6
CONTINUOUS
 62
    7
 10
1295.9831150000002
 20
1445.4071540634154
 40
55.142014627999998
  0
LINE
  8
_0-7_
  6
CONTINUOUS
 62
    7
 10
582.77123507450608
 20
1616.4071540634154
 11
425.01993327478829
 21
1616.4071540634154
  0
LINE
  8
_0-7_
  6
CONTINUOUS
 62
    7
 10
563.77123507450563
 20
1125.4071540634154
 11
425.01993327478829
 21
1125.4071540634154
  0
LINE
  8
_0-7_
  6
CONTINUOUS
 62
    7
 10
435.01993323753538
 20
1616.4071540634154
 11
435.01993323753538
 21
1125.4071540634154
  0
CIRCLE
  8
_0-7_
  6
CONTINUOUS
 62
    7
 10
435.01993323753538
 20
1616.4071540634154
 40
3.751708984375
  0
CIRCLE
  8
_0-7_
  6
CONTINUOUS
 62
    7
 10
435.01993323753538
 20
1125.4071540634154
 40
3.751708984375
  0
TEXT
  8
_0-7_
 62
    7
 10
423.10548881171724
 20
1333.8654873967489
 40
33.954861111111107
 41
1
 50
90
  1
491
  0
LINE
  8
_0-7_
  6
CONTINUOUS
 62
    7
 10
583.77123499999982
 20
1048.4071541379212
 11
583.77123499999982
 21
936.40715410066832
  0
LINE
  8
_0-7_
  6
CONTINUOUS
 62
    7
 10
1485.7712350000002
 20
1048.4071541379212
 11
1485.7712350000002
 21
936.40715410066832
  0
LINE
  8
_0-7_
  6
CONTINUOUS
 62
    7
 10
583.77123499999982
 20
946.40715406341542
 11
1485.7712350000002
 21
946.40715406341542
  0
CIRCLE
  8
_0-7_
  6
CONTINUOUS
 62
    7
 10
583.77123499999982
 20
946.40715406341542
 40
3.751708984375
  0
CIRCLE
  8
_0-7_
  6
CONTINUOUS
 62
    7
 10
1485.7712350000002
 20
946.40715406341542
 40
3.751708984375
  0
TEXT
  8
_0-7_
 62
    7
 10
997.72956833333342
 20
958.32159848923322
 40
33.954861111111107
 41
1
 50
0
  1
902
  0
LINE
  8
_0-7_
  6
CONTINUOUS
 62
    7
 10
1466.7712349999999
 20
1636.4071539889096
 11
1466.7712349999999
 21
1709.4071540261625
  0
LINE
  8
_0-7_
  6
CONTINUOUS
 62
    7
 10
1295.7712350000002
 20
1547.9071539889096
 11
1295.7712350000002
 21
1709.4071540261625
  0
LINE
  8
_0-7_
  6
CONTINUOUS
 62
    7
 10
1466.7712349999999
 20
1699.4071540634154
 11
1295.7712350000002
 21
1699.4071540634154
  0
CIRCLE
  8
_0-7_
  6
CONTINUOUS
 62
    7
 10
1466.7712349999999
 20
1699.4071540634154
 40
3.751708984375
  0
CIRCLE
  8
_0-7_
  6
CONTINUOUS
 62
    7
 10
1295.7712350000002
 20
1699.4071540634154
 40
3.751708984375
  0
TEXT
  8
_0-7_
 62
    7
 10
1344.2295683333336
 20
1711.3215984892336
 40
33.954861111111107
 41
1
 50
0
  1
171
  0
LINE
  8
_0-7_
  6
CONTINUOUS
 62
    7
 10
621.01993331204142
 20
1581.4071540634154
 11
511.0199332747884
 21
1581.4071540634154
  0
LINE
  8
_0-7_
  6
CONTINUOUS
 62
    7
 10
582.77123507450608
 20
1616.4071540634154
 11
511.0199332747884
 21
1616.4071540634154
  0
LINE
  8
_0-7_
  6
CONTINUOUS
 62
    7
 10
521.0199332375355
 20
1581.4071540634154
 11
521.0199332375355
 21
1616.4071540634154
  0
CIRCLE
  8
_0-7_
  6
CONTINUOUS
 62
    7
 10
521.0199332375355
 20
1581.4071540634154
 40
3.751708984375
  0
CIRCLE
  8
_0-7_
  6
CONTINUOUS
 62
    7
 10
521.0199332375355
 20
1616.4071540634154
 40
3.751708984375
  0
TEXT
  8
_0-7_
 62
    7
 10
509.10548881171746
 20
1574.2127096189711
 40
33.954861111111107
 41
1
 50
90
  1
35
  0
LINE
  8
_0-7_
  6
CONTINUOUS
 62
    7
 10
1398.2712349254944
 20
1445.4071540634152
 11
1569.0199332002828
 21
1445.4071540634152
  0
LINE
  8
_0-7_
  6
CONTINUOUS
 62
    7
 10
1486.7712349254941
 20
1616.4071540634154
 11
1569.0199332002828
 21
1616.4071540634154
  0
LINE
  8
_0-7_
  6
CONTINUOUS
 62
    7
 10
1559.0199332375357
 20
1445.4071540634152
 11
1559.0199332375357
 21
1616.4071540634154
  0
CIRCLE
  8
_0-7_
  6
CONTINUOUS
 62
    7
 10
1559.0199332375357
 20
1445.4071540634152
 40
3.751708984375
  0
CIRCLE
  8
_0-7_
  6
CONTINUOUS
 62
    7
 10
1559.0199332375357
 20
1616.4071540634154
 40
3.751708984375
  0
TEXT
  8
_0-7_
 62
    7
 10
1547.105488811718
 20
1493.8654873967489
 40
33.954861111111107
 41
1
 50
90
  1
171
  0
LINE
  8
_0-7_
  6
CONTINUOUS
 62
    7
 10
582.77123507450608
 20
1616.4071540634154
 11
367.01993327478874
 21
1616.4071540634154
  0
LINE
  8
_0-7_
  6
CONTINUOUS
 62
    7
 10
563.77123507450563
 20
1068.4071540634154
 11
367.01993327478874
 21
1068.4071540634154
  0
LINE
  8
_0-7_
  6
CONTINUOUS
 62
    7
 10
377.01993323753584
 20
1616.4071540634154
 11
377.01993323753584
 21
1068.4071540634154
  0
CIRCLE
  8
_0-7_
  6
CONTINUOUS
 62
    7
 10
377.01993323753584
 20
1616.4071540634154
 40
3.751708984375
  0
CIRCLE
  8
_0-7_
  6
CONTINUOUS
 62
    7
 10
377.01993323753584
 20
1068.4071540634154
 40
3.751708984375
  0
TEXT
  8
_0-7_
 62
    7
 10
365.10548881171769
 20
1305.3654873967484
 40
33.954861111111107
 41
1
 50
90
  1
548
  0
LINE
  8
_0-7_
  6
CONTINUOUS
 62
    7
 10
563.77123507450563
 20
1068.4071540634154
 11
425.01993327478829
 21
1068.4071540634154
  0
LINE
  8
_0-7_
  6
CONTINUOUS
 62
    7
 10
563.77123507450563
 20
1125.4071540634154
 11
425.01993327478829
 21
1125.4071540634154
  0
LINE
  8
_0-7_
  6
CONTINUOUS
 62
    7
 10
435.01993323753538
 20
1068.4071540634154
 11
435.01993323753538
 21
1125.4071540634154
  0
CIRCLE
  8
_0-7_
  6
CONTINUOUS
 62
    7
 10
435.01993323753538
 20
1068.4071540634154
 40
3.751708984375
  0
CIRCLE
  8
_0-7_
  6
CONTINUOUS
 62
    7
 10
435.01993323753538
 20
1125.4071540634154
 40
3.751708984375
  0
TEXT
  8
_0-7_
 62
    7
 10
423.10548881171758
 20
1072.2127096189708
 40
33.954861111111107
 41
1
 50
90
  1
57
  0
LINE
  8
_0-7_
  6
CONTINUOUS
 62
    7
 10
1272.7712350000006
 20
1405.5699854893323
 11
1213.2101465058836
 21
1302.4071540634154
  0
LINE
  8
_0-7_
  6
CONTINUOUS
 62
    7
 10
1213.2101465058836
 20
1302.4071540634154
 11
1331.9879242091554
 21
1302.4071540634154
  0
LINE
  8
_0-7_
  6
CONTINUOUS
 62
    7
 10
1318.7712349999997
 20
1485.2443226374987
 11
1272.7712350000006
 21
1405.5699854893323
  0
CIRCLE
  8
_0-7_
  6
CONTINUOUS
 62
    7
 10
1318.7712349999997
 20
1485.2443226374987
 40
3.751708984375
  0
CIRCLE
  8
_0-7_
  6
CONTINUOUS
 62
    7
 10
1272.7712350000006
 20
1405.5699854893323
 40
3.751708984375
  0
TEXT
  8
_0-7_
 62
    7
 10
1233.2101464313778
 20
1314.3215984892333
 40
33.954861111111107
 41
1
 50
0
  1
φ92
  0
LINE
  8
_0-7_
  6
CONTINUOUS
 62
    7
 10
602.77123500000027
 20
1636.4071539889096
 11
602.77123500000027
 21
1774.4071540261625
  0
LINE
  8
_0-7_
  6
CONTINUOUS
 62
    7
 10
1466.7712349999999
 20
1636.4071539889096
 11
1466.7712349999999
 21
1774.4071540261625
  0
LINE
  8
_0-7_
  6
CONTINUOUS
 62
    7
 10
602.77123500000027
 20
1764.4071540634154
 11
1466.7712349999999
 21
1764.4071540634154
  0
CIRCLE
  8
_0-7_
  6
CONTINUOUS
 62
    7
 10
602.77123500000027
 20
1764.4071540634154
 40
3.751708984375
  0
CIRCLE
  8
_0-7_
  6
CONTINUOUS
 62
    7
 10
1466.7712349999999
 20
1764.4071540634154
 40
3.751708984375
  0
TEXT
  8
_0-7_
 62
    7
 10
997.72956833333342
 20
1776.3215984892336
 40
33.954861111111107
 41
1
 50
0
  1
864
  0
LINE
  8
_f-0_
  6
CONTINUOUS
 62
    7
 10
145.92190945814195
 20
272.17690842700108
 11
2782.5613812702341
 21
272.17690842700108
  0
LINE
  8
_f-0_
  6
CONTINUOUS
 62
    7
 10
93.498778584810225
 20
2041.1430038495319
 11
2835.164073948858
 21
2041.1430038495319
  0
LINE
  8
_f-0_
  6
CONTINUOUS
 62
    7
 10
2835.164073948858
 20
2041.1430038495319
 11
2835.164073948858
 21
102.59178490525528
  0
LINE
  8
_f-0_
  6
CONTINUOUS
 62
    7
 10
2835.164073948858
 20
102.59178490525528
 11
93.498778584810225
 21
102.59178490525528
  0
LINE
  8
_f-0_
  6
CONTINUOUS
 62
    7
 10
93.498778584810225
 20
102.59178490525528
 11
93.498778584810225
 21
2041.1430038495319
  0
LINE
  8
_f-0_
  6
CONTINUOUS
 62
    7
 10
145.92190945814195
 20
154.63137802700089
 11
2782.5613812702341
 21
154.63137802700089
  0
LINE
  8
_f-0_
  6
CONTINUOUS
 62
    7
 10
145.92190945814195
 20
272.17690842700108
 11
145.92190945814195
 21
154.63137802700089
  0
LINE
  8
_f-0_
  6
CONTINUOUS
 62
    7
 10
1084.5597312581417
 20
272.17690842700108
 11
1084.5597312581417
 21
154.63137802700089
  0
LINE
  8
_f-0_
  6
CONTINUOUS
 62
    7
 10
1521.3244371581418
 20
272.17690842700108
 11
1521.3244371581418
 21
154.63137802700089
  0
LINE
  8
_f-0_
  6
CONTINUOUS
 62
    7
 10
1755.1479665581417
 20
272.17690842700108
 11
1755.1479665581417
 21
154.63137802700089
  0
LINE
  8
_f-0_
  6
CONTINUOUS
 62
    7
 10
2026.471495958142
 20
272.17690842700108
 11
2026.471495958142
 21
154.63137802700089
  0
LINE
  8
_f-0_
  6
CONTINUOUS
 62
    7
 10
2782.5613812581419
 20
272.17690842700108
 11
2782.5613812581419
 21
154.63137802700089
  0
TEXT
  8
_f-0_
 62
    7
 10
1568.5886917757796
 20
188.15385166346772
 40
34.616986052576095
 41
1.0000000000000095
 50
0
  1
S=1/10
  0
TEXT
  8
_f-0_
 62
    7
 10
1111.1467034703219
 20
216.01644236760961
 40
34.616986052576095
 41
1.0000000000000056
 50
0
  1
キッチンシンク
  0
TEXT
  8
_f-0_
 62
    7
 10
1118.9898407252256
 20
170.91840315192343
 40
34.616986052576095
 41
1.0000000000000056
 50
0
  1
K-6488
  0
TEXT
  8
_f-0_
 62
    7
 10
2045.705526999735
 20
224.34977570094276
 40
34.616986052576095
 41
1.000000000000008
 50
0
  1
KOHLER　ホワイトヘブン
  0
TEXT
  8
_f-0_
 62
    7
 10
1817.2741544507153
 20
193.95761883819773
 40
34.616986052576237
 41
1.0000000000000038
 50
0
  1
19/04/10
  0
TEXT
  8
_f-0_
 62
    7
 10
2174.7535403050106
 20
164.29057734204775
 40
34.616986052575953
 41
1.000000000000012
 50
0
  1
日鉄物産マテックス株式会社
  0
ENDSEC
  0
EOF
