  0
SECTION
  2
HEADER
  9
$ACADVER
  1
AC1009
  9
$INSBASE
 10
0
 20
0
 30
0
  9
$EXTMIN
 10
0
 20
0
  9
$EXTMAX
 10
594
 20
420
  9
$LIMMIN
 10
0
 20
0
  9
$LIMMAX
 10
594
 20
420
  9
$LTSCALE
 40
2
  0
ENDSEC
  0
SECTION
  2
TABLES
  0
TABLE
  2
LTYPE
 70
     9
  0
LTYPE
  2
CONTINUOUS
 70
    64
  3
実線
 72
    65
 73
     0
 40
0.0
  0
LTYPE
  2
DASHED1
 70
    64
  3
--  --  --  --  --  --  --  --  
 72
    65
 73
     2
 40
2.5
 49
1.25
 49
-1.25
  0
LTYPE
  2
DASHED2
 70
    64
  3
----    ----    ----    ----    
 72
    65
 73
     2
 40
5.0
 49
2.5
 49
-2.5
  0
LTYPE
  2
DASHED3
 70
    64
  3
------  ------  ------  ------  
 72
    65
 73
     2
 40
5.0
 49
3.75
 49
-1.25
  0
LTYPE
  2
CENTER1
 70
    64
  3
----- - ----- - ----- - ----- - 
 72
    65
 73
     4
 40
10.0
 49
6.25
 49
-1.25
 49
1.25
 49
-1.25
  0
LTYPE
  2
CENTER2
 70
    64
  3
----------  --  ----------  --  
 72
    65
 73
     4
 40
20.0
 49
12.5
 49
-2.5
 49
2.5
 49
-2.5
  0
LTYPE
  2
PHANTOM1
 70
    64
  3
--- - - --- - - --- - - --- - - 
 72
    65
 73
     6
 40
10.0
 49
3.25
 49
-1.25
 49
1.25
 49
-1.25
 49
1.25
 49
-1.25
  0
LTYPE
  2
PHANTOM2
 70
    64
  3
--------  -  -  --------  -  -  
 72
    65
 73
     6
 40
20.0
 49
10.0
 49
-2.5
 49
1.25
 49
-2.5
 49
1.25
 49
-2.5
  0
LTYPE
  2
DOT
 70
    64
  3
-   -   -   -   -   -   -   -   
 72
    65
 73
     2
 40
2.5
 49
0.625
 49
-1.875
  0
LTYPE
  2
DUMMY
 70
    64
  3
ダミー
 72
    65
 73
     0
 40
0.0
  0
LTYPE
  2
RAND1
 70
    64
  3
ランダム線1
 72
    65
 73
     4
 40
10.0
 49
1.0
 49
-2.0
 49
3.0
 49
-4.0
  0
LTYPE
  2
RAND2
 70
    64
  3
ランダム線2
 72
    65
 73
     4
 40
14.0
 49
2.0
 49
-3.0
 49
4.0
 49
-5.0
  0
LTYPE
  2
RAND3
 70
    64
  3
ランダム線3
 72
    65
 73
     4
 40
18.0
 49
3.0
 49
-4.0
 49
5.0
 49
-6.0
  0
LTYPE
  2
RAND4
 70
    64
  3
ランダム線4
 72
    65
 73
     4
 40
22.0
 49
4.0
 49
-5.0
 49
6.0
 49
-7.0
  0
LTYPE
  2
RAND5
 70
    64
  3
ランダム線5
 72
    65
 73
     4
 40
26.0
 49
5.0
 49
-6.0
 49
7.0
 49
-8.0
  0
LTYPE
  2
LONG1
 70
    64
  3
----------  --  ----------  --  
 72
    65
 73
     4
 40
40.0
 49
32.5
 49
-2.5
 49
2.5
 49
-2.5
  0
LTYPE
  2
LONG2
 70
    64
  3
--------  -  -  --------  -  -  
 72
    65
 73
     6
 40
40.0
 49
30.0
 49
-2.5
 49
1.25
 49
-2.5
 49
1.25
 49
-2.5
  0
LTYPE
  2
LONG3
 70
    64
  3
+++++++++++++++..+++++++++++++++
 72
    65
 73
     2
 40
40.0
 49
37.5
 49
-2.5
  0
LTYPE
  2
LONG4
 70
    64
  3
+++++++++++++++..+++++++++++++++
 72
    65
 73
     2
 40
80.0
 49
75.0
 49
-5.0
  0
LTYPE
  2
LONG5
 70
    64
  3
----------  --  ----------  --  
 72
    65
 73
     4
 40
60.0
 49
37.5
 49
-7.5
 49
7.5
 49
-7.5
  0
LTYPE
  2
dashed
 70
   64
  3
-------   -------------   ------
 72
   65
 73
    2
 40
7.5
 49
6
 49
-1.5
  0
LTYPE
  2
dashed_spaced
 70
   64
  3
----        --------        ----
 72
   65
 73
    2
 40
12
 49
6
 49
-6
  0
LTYPE
  2
long_dashed_dotted
 70
   64
  3
------------- --- --------------
 72
   65
 73
    4
 40
15.25
 49
12
 49
-1.5
 49
0.25
 49
-1.5
  0
LTYPE
  2
long_dashed_double-dotted
 70
   64
  3
----------- --- --- ------------
 72
   65
 73
    6
 40
17
 49
12
 49
-1.5
 49
0.25
 49
-1.5
 49
0.25
 49
-1.5
  0
LTYPE
  2
long_dashed_triplicate-dotted
 70
   64
  3
--------- --- --- --- ----------
 72
   65
 73
    8
 40
18.75
 49
12
 49
-1.5
 49
0.25
 49
-1.5
 49
0.25
 49
-1.5
 49
0.25
 49
-1.5
  0
LTYPE
  2
dotted
 70
   64
  3
   -       -       -       -    
 72
   65
 73
    2
 40
1.75
 49
0.25
 49
-1.5
  0
LTYPE
  2
chain
 70
   64
  3
-------------- -- --------------
 72
   65
 73
    4
 40
18.5
 49
12
 49
-1.5
 49
3.5
 49
-1.5
  0
LTYPE
  2
chain_double_dash
 70
   64
  3
------------ -- -- -------------
 72
   65
 73
    6
 40
23.5
 49
12
 49
-1.5
 49
3.5
 49
-1.5
 49
3.5
 49
-1.5
  0
LTYPE
  2
dashed_dotted
 70
   64
  3
-----------     -     ----------
 72
   65
 73
    4
 40
9.25
 49
6
 49
-1.5
 49
0.25
 49
-1.5
  0
LTYPE
  2
double-dashed_dotted
 70
   64
  3
------   -----------   -   -----
 72
   65
 73
    6
 40
16.75
 49
6
 49
-1.5
 49
6
 49
-1.5
 49
0.25
 49
-1.5
  0
LTYPE
  2
dashed_double-dotted
 70
   64
  3
---------    -    -    ---------
 72
   65
 73
    6
 40
11
 49
6
 49
-1.5
 49
0.25
 49
-1.5
 49
0.25
 49
-1.5
  0
LTYPE
  2
double-dashed_double-dotted
 70
   64
  3
-----   ---------   -   -   ----
 72
   65
 73
    8
 40
18.5
 49
6
 49
-1.5
 49
6
 49
-1.5
 49
0.25
 49
-1.5
 49
0.25
 49
-1.5
  0
LTYPE
  2
dashed_triplicate-dotted
 70
   64
  3
-------    -    -    -    ------
 72
   65
 73
    8
 40
12.75
 49
6
 49
-1.5
 49
0.25
 49
-1.5
 49
0.25
 49
-1.5
 49
0.25
 49
-1.5
  0
LTYPE
  2
double-dashed_triplicate-dotted
 70
   64
  3
-----  ---------  -  -  -  -----
 72
   65
 73
   10
 40
20.25
 49
6
 49
-1.5
 49
6
 49
-1.5
 49
0.25
 49
-1.5
 49
0.25
 49
-1.5
 49
0.25
 49
-1.5
  0
LTYPE
  2
undefined
 70
   64
  3
--------------------------------
 72
   65
 73
    0
 40
0
  0
LTYPE
  2
_
 70
   64
  3
                                
 72
   65
 73
    0
 40
0
  0
LTYPE
  2
__18
 70
   64
  3
                                
 72
   65
 73
    0
 40
0
  0
LTYPE
  2
__19
 70
   64
  3
                                
 72
   65
 73
    0
 40
0
  0
LTYPE
  2
__20
 70
   64
  3
                                
 72
   65
 73
    0
 40
0
  0
LTYPE
  2
__21
 70
   64
  3
                                
 72
   65
 73
    0
 40
0
  0
LTYPE
  2
__22
 70
   64
  3
                                
 72
   65
 73
    0
 40
0
  0
LTYPE
  2
__23
 70
   64
  3
                                
 72
   65
 73
    0
 40
0
  0
LTYPE
  2
__24
 70
   64
  3
                                
 72
   65
 73
    0
 40
0
  0
LTYPE
  2
__25
 70
   64
  3
                                
 72
   65
 73
    0
 40
0
  0
LTYPE
  2
__26
 70
   64
  3
                                
 72
   65
 73
    0
 40
0
  0
LTYPE
  2
__27
 70
   64
  3
                                
 72
   65
 73
    0
 40
0
  0
LTYPE
  2
__28
 70
   64
  3
                                
 72
   65
 73
    0
 40
0
  0
LTYPE
  2
__29
 70
   64
  3
                                
 72
   65
 73
    0
 40
0
  0
LTYPE
  2
__30
 70
   64
  3
                                
 72
   65
 73
    0
 40
0
  0
LTYPE
  2
__31
 70
   64
  3
                                
 72
   65
 73
    0
 40
0
  0
LTYPE
  2
__32
 70
   64
  3
                                
 72
   65
 73
    0
 40
0
  0
ENDTAB
  0
TABLE
  2
STYLE
  5
3
100
AcDbSymbolTable
 70
     1
  0
STYLE
  5
10
100
AcDbSymbolTableRecord
100
AcDbTextStyleTableRecord
  2
STANDARD
 70
     0
 40
0.0
 41
1.0
 50
0.0
 71
     0
 42
0.2
  3
txt
  4
bigfont.shx
  0
STYLE
  5
26
100
AcDbSymbolTableRecord
100
AcDbTextStyleTableRecord
  2
TATEGAKI
 70
    68
 40
0.0
 41
1.0
 50
0.0
 71
     0
 42
1.0
  3
txt
  4
bigfont.shx
  0
ENDTAB
  0
TABLE
  2
LAYER
 70
    4
  0
LAYER
  2
_0-0_0
 70
   64
 62
    7
  6
CONTINUOUS
  0
LAYER
  2
_0-1_レイヤ___1
 70
   64
 62
    7
  6
CONTINUOUS
  0
LAYER
  2
_f-0_
 70
   64
 62
    7
  6
CONTINUOUS
  0
LAYER
  2
ADD_LINE
 70
   64
 62
    7
  6
CONTINUOUS
  0
ENDTAB
  0
ENDSEC
  0
SECTION
  2
BLOCKS
  0
ENDSEC
  0
SECTION
  2
ENTITIES
  0
LINE
  8
_f-0_
  6
CONTINUOUS
 62
    7
 10
29.184381891628391
 20
54.435381685400216
 11
556.51227625404681
 21
54.435381685400216
  0
LINE
  8
_f-0_
  6
CONTINUOUS
 62
    7
 10
18.699755716962045
 20
408.22860076990639
 11
567.03281478977158
 21
408.22860076990639
  0
LINE
  8
_f-0_
  6
CONTINUOUS
 62
    7
 10
567.03281478977158
 20
408.22860076990639
 11
567.03281478977158
 21
20.518356981051056
  0
LINE
  8
_f-0_
  6
CONTINUOUS
 62
    7
 10
567.03281478977158
 20
20.518356981051056
 11
18.699755716962045
 21
20.518356981051056
  0
LINE
  8
_f-0_
  6
CONTINUOUS
 62
    7
 10
18.699755716962045
 20
20.518356981051056
 11
18.699755716962045
 21
408.22860076990639
  0
TEXT
  8
_f-0_
 62
    7
 10
366.58083694629437
 20
37.715316159599638
 40
6.9233972105152475
 41
1.0000000000000038
 50
0
  1
19/04/18
  0
LINE
  8
_f-0_
  6
CONTINUOUS
 62
    7
 10
29.184381891628391
 20
30.926275605400178
 11
556.51227625404681
 21
30.926275605400178
  0
LINE
  8
_f-0_
  6
CONTINUOUS
 62
    7
 10
29.184381891628391
 20
54.435381685400216
 11
29.184381891628391
 21
30.926275605400178
  0
LINE
  8
_f-0_
  6
CONTINUOUS
 62
    7
 10
216.91194625162836
 20
54.435381685400216
 11
216.91194625162836
 21
30.926275605400178
  0
LINE
  8
_f-0_
  6
CONTINUOUS
 62
    7
 10
304.26488743162838
 20
54.435381685400216
 11
304.26488743162838
 21
30.926275605400178
  0
LINE
  8
_f-0_
  6
CONTINUOUS
 62
    7
 10
351.02959331162833
 20
54.435381685400216
 11
351.02959331162833
 21
30.926275605400178
  0
LINE
  8
_f-0_
  6
CONTINUOUS
 62
    7
 10
405.2942991916284
 20
54.435381685400216
 11
405.2942991916284
 21
30.926275605400178
  0
LINE
  8
_f-0_
  6
CONTINUOUS
 62
    7
 10
556.51227625162835
 20
54.435381685400216
 11
556.51227625162835
 21
30.926275605400178
  0
TEXT
  8
_f-0_
 62
    7
 10
434.95070806100176
 20
32.858115468409551
 40
6.9233972105151906
 41
1.000000000000012
 50
0
  1
日鉄物産マテックス株式会社
  0
TEXT
  8
_f-0_
 62
    7
 10
313.71773835515592
 20
37.630770332693544
 40
6.9233972105152191
 41
1.0000000000000095
 50
0
  1
S=1/2
  0
LINE
  8
ADD_LINE
  6
DOT
 62
    9
 10
29.184381891628391
 20
42.519063180800202
 11
556.51227625404681
 21
42.519063180800202
  0
LINE
  8
ADD_LINE
  6
DOT
 62
    9
 10
29.184381891628391
 20
35.152808036800224
 11
556.51227625404681
 21
35.152808036800224
  0
LINE
  8
ADD_LINE
  6
DOT
 62
    9
 10
220.90613652862839
 20
54.435381685400216
 11
220.90613652862839
 21
30.926275605400178
  0
LINE
  8
ADD_LINE
  6
DOT
 62
    9
 10
408.50599128542842
 20
54.435381685400216
 11
408.50599128542842
 21
30.926275605400178
  0
LINE
  8
ADD_LINE
  6
DOT
 62
    9
 10
397.12254901960785
 20
45.677499394800208
 11
556.51227625404681
 21
45.677499394800208
  0
TEXT
  8
_f-0_
 62
    7
 10
220.90613652862839
 20
35.152808036800224
 40
6.9233972105152191
 41
1.0000000000000056
 50
0
  1
K-7129-A
  0
TEXT
  8
_f-0_
 62
    7
 10
220.90613652862839
 20
42.519063180800202
 40
6.9233972105152191
 41
1.0000000000000056
 50
0
  1
ラバトリーシンクドレン
  0
TEXT
  8
_f-0_
 62
    7
 10
408.50599128542842
 20
45.677499394800208
 40
6.9233972105152191
 41
1.000000000000008
 50
0
  1
KOHLER
  0
LINE
  8
_0-0_0
  6
CONTINUOUS
 62
    7
 10
247.08674467911464
 20
70.469577077976908
 11
251.05073839864099
 21
70.469577077976908
  0
LINE
  8
_0-0_0
  6
CONTINUOUS
 62
    7
 10
251.05073839864099
 20
70.469577077976908
 11
255.01417139382806
 21
70.469577077976908
  0
LINE
  8
_0-0_0
  6
CONTINUOUS
 62
    7
 10
255.01417139382806
 20
70.469577077976908
 11
258.9776076301963
 21
70.469577077976908
  0
LINE
  8
_0-0_0
  6
CONTINUOUS
 62
    7
 10
258.9776076301963
 20
70.469577077976908
 11
262.94160134972265
 21
70.469577077976908
  0
LINE
  8
_0-0_0
  6
CONTINUOUS
 62
    7
 10
262.94160134972265
 20
70.469577077976908
 11
266.90559506924905
 21
70.469577077976908
  0
LINE
  8
_0-0_0
  6
CONTINUOUS
 62
    7
 10
266.90559506924905
 20
70.469577077976908
 11
270.86958878877539
 21
70.469577077976908
  0
LINE
  8
_0-0_0
  6
CONTINUOUS
 62
    7
 10
270.86958878877539
 20
70.469577077976908
 11
274.83358250830179
 21
70.469577077976908
  0
LINE
  8
_0-0_0
  6
CONTINUOUS
 62
    7
 10
274.83358250830179
 20
70.469577077976908
 11
278.79757622782819
 21
70.469577077976908
  0
LINE
  8
_0-0_0
  6
CONTINUOUS
 62
    7
 10
235.63694490037824
 20
245.37324759484611
 11
235.08645296997912
 21
245.21468901289032
  0
LINE
  8
_0-0_0
  6
CONTINUOUS
 62
    7
 10
235.08645296997912
 20
245.21468901289032
 11
234.53596103958
 21
245.05612718975328
  0
LINE
  8
_0-0_0
  6
CONTINUOUS
 62
    7
 10
234.53596103958
 20
245.05612718975328
 11
233.98546586799972
 21
244.89756860779744
  0
LINE
  8
_0-0_0
  6
CONTINUOUS
 62
    7
 10
233.98546586799972
 20
244.89756860779744
 11
233.43497393760055
 21
244.73901002584165
  0
LINE
  8
_0-0_0
  6
CONTINUOUS
 62
    7
 10
233.43497393760055
 20
244.73901002584165
 11
232.88448200720143
 21
244.58044820270464
  0
LINE
  8
_0-0_0
  6
CONTINUOUS
 62
    7
 10
232.88448200720143
 20
244.58044820270464
 11
232.33399007680231
 21
244.4218896207488
  0
LINE
  8
_0-0_0
  6
CONTINUOUS
 62
    7
 10
232.33399007680231
 20
244.4218896207488
 11
231.78349814640319
 21
244.26333103879301
  0
LINE
  8
_0-0_0
  6
CONTINUOUS
 62
    7
 10
231.78349814640319
 20
244.26333103879301
 11
231.23300297482291
 21
244.10532669881411
  0
LINE
  8
_0-0_0
  6
CONTINUOUS
 62
    7
 10
243.2835427153579
 20
255.52051390402829
 11
242.32771839363301
 21
254.25259300799621
  0
LINE
  8
_0-0_0
  6
CONTINUOUS
 62
    7
 10
242.32771839363301
 20
254.25259300799621
 11
241.37189407190823
 21
252.98411462880608
  0
LINE
  8
_0-0_0
  6
CONTINUOUS
 62
    7
 10
241.37189407190823
 20
252.98411462880608
 11
240.41606975018345
 21
251.71563624961584
  0
LINE
  8
_0-0_0
  6
CONTINUOUS
 62
    7
 10
240.41606975018345
 20
251.71563624961584
 11
239.46024542845862
 21
250.44715787042574
  0
LINE
  8
_0-0_0
  6
CONTINUOUS
 62
    7
 10
239.46024542845862
 20
250.44715787042574
 11
238.50442110673384
 21
249.17868273241666
  0
LINE
  8
_0-0_0
  6
CONTINUOUS
 62
    7
 10
238.50442110673384
 20
249.17868273241666
 11
237.54859354382791
 21
247.91020435322656
  0
LINE
  8
_0-0_0
  6
CONTINUOUS
 62
    7
 10
237.54859354382791
 20
247.91020435322656
 11
236.59276922210313
 21
246.64172597403632
  0
LINE
  8
_0-0_0
  6
CONTINUOUS
 62
    7
 10
236.59276922210313
 20
246.64172597403632
 11
235.63694490037824
 21
245.37324759484611
  0
LINE
  8
_0-0_0
  6
CONTINUOUS
 62
    7
 10
229.58599353125294
 20
229.39221174199082
 11
229.58599353125294
 21
229.48712649084592
  0
LINE
  8
_0-0_0
  6
CONTINUOUS
 62
    7
 10
229.58599353125294
 20
229.48712649084592
 11
229.58599353125294
 21
229.58203799851992
  0
LINE
  8
_0-0_0
  6
CONTINUOUS
 62
    7
 10
229.58599353125294
 20
229.58203799851992
 11
229.58599353125294
 21
229.67694950619392
  0
LINE
  8
_0-0_0
  6
CONTINUOUS
 62
    7
 10
229.58599353125294
 20
229.67694950619392
 11
229.58599353125294
 21
229.77186425504914
  0
LINE
  8
_0-0_0
  6
CONTINUOUS
 62
    7
 10
229.58599353125294
 20
229.77186425504914
 11
229.58599353125294
 21
229.86677576272314
  0
LINE
  8
_0-0_0
  6
CONTINUOUS
 62
    7
 10
229.58599353125294
 20
229.86677576272314
 11
229.58599353125294
 21
229.96168727039714
  0
LINE
  8
_0-0_0
  6
CONTINUOUS
 62
    7
 10
229.58599353125294
 20
229.96168727039714
 11
229.58599353125294
 21
230.05771698556856
  0
LINE
  8
_0-0_0
  6
CONTINUOUS
 62
    7
 10
229.58599353125294
 20
230.05771698556856
 11
229.58599353125294
 21
230.15262849324256
  0
LINE
  8
_0-0_0
  6
CONTINUOUS
 62
    7
 10
229.71049702284472
 20
217.85085183689154
 11
229.71049702284472
 21
218.05630706893567
  0
LINE
  8
_0-0_0
  6
CONTINUOUS
 62
    7
 10
229.71049702284472
 20
218.05630706893567
 11
229.71049702284472
 21
218.26288374965841
  0
LINE
  8
_0-0_0
  6
CONTINUOUS
 62
    7
 10
229.71049702284472
 20
218.26288374965841
 11
229.71049702284472
 21
218.46945718919994
  0
LINE
  8
_0-0_0
  6
CONTINUOUS
 62
    7
 10
229.71049702284472
 20
218.46945718919994
 11
229.71049702284472
 21
218.67491566242518
  0
LINE
  8
_0-0_0
  6
CONTINUOUS
 62
    7
 10
229.71049702284472
 20
218.67491566242518
 11
229.71049702284472
 21
218.88037413565058
  0
LINE
  8
_0-0_0
  6
CONTINUOUS
 62
    7
 10
229.71049702284472
 20
218.88037413565058
 11
229.71049702284472
 21
219.08694757519208
  0
LINE
  8
_0-0_0
  6
CONTINUOUS
 62
    7
 10
229.71049702284472
 20
219.08694757519208
 11
229.71049702284472
 21
219.2935210147337
  0
LINE
  8
_0-0_0
  6
CONTINUOUS
 62
    7
 10
229.71049702284472
 20
219.2935210147337
 11
229.71049702284472
 21
219.49897948795893
  0
LINE
  8
_0-0_0
  6
CONTINUOUS
 62
    7
 10
231.23300297482291
 20
244.10532669881411
 11
231.23300297482291
 21
243.94732560001643
  0
LINE
  8
_0-0_0
  6
CONTINUOUS
 62
    7
 10
231.23300297482291
 20
243.94732560001643
 11
231.23300297482291
 21
243.78876701806058
  0
LINE
  8
_0-0_0
  6
CONTINUOUS
 62
    7
 10
231.23300297482291
 20
243.78876701806058
 11
231.23300297482291
 21
243.63020843610468
  0
LINE
  8
_0-0_0
  6
CONTINUOUS
 62
    7
 10
231.23300297482291
 20
243.63020843610468
 11
231.23300297482291
 21
243.47164661296779
  0
LINE
  8
_0-0_0
  6
CONTINUOUS
 62
    7
 10
231.23300297482291
 20
243.47164661296779
 11
231.23300297482291
 21
243.31308803101192
  0
LINE
  8
_0-0_0
  6
CONTINUOUS
 62
    7
 10
231.23300297482291
 20
243.31308803101192
 11
231.23300297482291
 21
243.15452944905604
  0
LINE
  8
_0-0_0
  6
CONTINUOUS
 62
    7
 10
231.23300297482291
 20
243.15452944905604
 11
231.23300297482291
 21
242.99596762591909
  0
LINE
  8
_0-0_0
  6
CONTINUOUS
 62
    7
 10
231.23300297482291
 20
242.99596762591909
 11
231.23300297482291
 21
242.83740904396325
  0
LINE
  8
_0-0_0
  6
CONTINUOUS
 62
    7
 10
280.19334551440079
 20
166.73655319212162
 11
275.8809701975706
 21
166.73655319212162
  0
LINE
  8
_0-0_0
  6
CONTINUOUS
 62
    7
 10
275.8809701975706
 20
166.73655319212162
 11
271.5685916395592
 21
166.73655319212162
  0
LINE
  8
_0-0_0
  6
CONTINUOUS
 62
    7
 10
271.5685916395592
 20
166.73655319212162
 11
267.2562130815478
 21
166.73655319212162
  0
LINE
  8
_0-0_0
  6
CONTINUOUS
 62
    7
 10
267.2562130815478
 20
166.73655319212162
 11
262.94271631603897
 21
166.73655319212162
  0
LINE
  8
_0-0_0
  6
CONTINUOUS
 62
    7
 10
262.94271631603897
 20
166.73655319212162
 11
258.63034099920873
 21
166.73655319212162
  0
LINE
  8
_0-0_0
  6
CONTINUOUS
 62
    7
 10
258.63034099920873
 20
166.73655319212162
 11
254.31740171685803
 21
166.73655319212162
  0
LINE
  8
_0-0_0
  6
CONTINUOUS
 62
    7
 10
254.31740171685803
 20
166.73655319212162
 11
250.00446567568849
 21
166.73655319212162
  0
LINE
  8
_0-0_0
  6
CONTINUOUS
 62
    7
 10
250.00446567568849
 20
166.73655319212162
 11
245.69208711767709
 21
166.73655319212162
  0
LINE
  8
_0-0_0
  6
CONTINUOUS
 62
    7
 10
241.88609773812959
 20
208.59185715186425
 11
241.88609773812959
 21
209.51194745138821
  0
LINE
  8
_0-0_0
  6
CONTINUOUS
 62
    7
 10
241.88609773812959
 20
209.51194745138821
 11
241.88609773812959
 21
210.43092602577713
  0
LINE
  8
_0-0_0
  6
CONTINUOUS
 62
    7
 10
241.88609773812959
 20
210.43092602577713
 11
241.88609773812959
 21
211.34990135898488
  0
LINE
  8
_0-0_0
  6
CONTINUOUS
 62
    7
 10
241.88609773812959
 20
211.34990135898488
 11
241.88609773812959
 21
212.26999489969
  0
LINE
  8
_0-0_0
  6
CONTINUOUS
 62
    7
 10
241.88609773812959
 20
212.26999489969
 11
241.88609773812959
 21
213.19008844039513
  0
LINE
  8
_0-0_0
  6
CONTINUOUS
 62
    7
 10
241.88609773812959
 20
213.19008844039513
 11
241.88609773812959
 21
214.10906377360288
  0
LINE
  8
_0-0_0
  6
CONTINUOUS
 62
    7
 10
241.88609773812959
 20
214.10906377360288
 11
241.88609773812959
 21
215.02804234799174
  0
LINE
  8
_0-0_0
  6
CONTINUOUS
 62
    7
 10
241.88609773812959
 20
215.02804234799174
 11
241.88609773812959
 21
215.94813264751576
  0
LINE
  8
_0-0_0
  6
CONTINUOUS
 62
    7
 10
245.69208711767709
 20
173.26988306973686
 11
245.69208711767709
 21
172.45363373196068
  0
LINE
  8
_0-0_0
  6
CONTINUOUS
 62
    7
 10
245.69208711767709
 20
172.45363373196068
 11
245.69208711767709
 21
171.63627266904928
  0
LINE
  8
_0-0_0
  6
CONTINUOUS
 62
    7
 10
245.69208711767709
 20
171.63627266904928
 11
245.69208711767709
 21
170.82002333127303
  0
LINE
  8
_0-0_0
  6
CONTINUOUS
 62
    7
 10
245.69208711767709
 20
170.82002333127303
 11
245.69208711767709
 21
170.00377723467795
  0
LINE
  8
_0-0_0
  6
CONTINUOUS
 62
    7
 10
245.69208711767709
 20
170.00377723467795
 11
245.69208711767709
 21
169.18641293058545
  0
LINE
  8
_0-0_0
  6
CONTINUOUS
 62
    7
 10
245.69208711767709
 20
169.18641293058545
 11
245.69208711767709
 21
168.37016359280926
  0
LINE
  8
_0-0_0
  6
CONTINUOUS
 62
    7
 10
245.69208711767709
 20
168.37016359280926
 11
245.69208711767709
 21
167.55391749621424
  0
LINE
  8
_0-0_0
  6
CONTINUOUS
 62
    7
 10
245.69208711767709
 20
167.55391749621424
 11
245.69208711767709
 21
166.73655319212162
  0
LINE
  8
_0-0_0
  6
CONTINUOUS
 62
    7
 10
246.83494703895923
 20
200.37801374111086
 11
246.83494703895923
 21
197.25036792368434
  0
LINE
  8
_0-0_0
  6
CONTINUOUS
 62
    7
 10
246.83494703895923
 20
197.25036792368434
 11
246.83494703895923
 21
194.1227221062577
  0
LINE
  8
_0-0_0
  6
CONTINUOUS
 62
    7
 10
246.83494703895923
 20
194.1227221062577
 11
246.83494703895923
 21
190.99507628883111
  0
LINE
  8
_0-0_0
  6
CONTINUOUS
 62
    7
 10
246.83494703895923
 20
190.99507628883111
 11
246.83494703895923
 21
187.86742723022343
  0
LINE
  8
_0-0_0
  6
CONTINUOUS
 62
    7
 10
246.83494703895923
 20
187.86742723022343
 11
246.83494703895923
 21
184.73978141279673
  0
LINE
  8
_0-0_0
  6
CONTINUOUS
 62
    7
 10
246.83494703895923
 20
184.73978141279673
 11
246.83494703895923
 21
181.61213559537021
  0
LINE
  8
_0-0_0
  6
CONTINUOUS
 62
    7
 10
246.83494703895923
 20
181.61213559537021
 11
246.83494703895923
 21
178.48448977794362
  0
LINE
  8
_0-0_0
  6
CONTINUOUS
 62
    7
 10
246.83494703895923
 20
178.48448977794362
 11
246.83494703895923
 21
175.35684071933582
  0
LINE
  8
_0-0_0
  6
CONTINUOUS
 62
    7
 10
247.08674467911464
 20
70.469577077976908
 11
247.08674467911464
 21
82.503366394318348
  0
LINE
  8
_0-0_0
  6
CONTINUOUS
 62
    7
 10
247.08674467911464
 20
82.503366394318348
 11
247.08674467911464
 21
94.536040744343453
  0
LINE
  8
_0-0_0
  6
CONTINUOUS
 62
    7
 10
247.08674467911464
 20
94.536040744343453
 11
247.08674467911464
 21
106.56983330186601
  0
LINE
  8
_0-0_0
  6
CONTINUOUS
 62
    7
 10
247.08674467911464
 20
106.56983330186601
 11
247.08674467911464
 21
118.6036226182075
  0
LINE
  8
_0-0_0
  6
CONTINUOUS
 62
    7
 10
247.08674467911464
 20
118.6036226182075
 11
247.08674467911464
 21
130.63629696823256
  0
LINE
  8
_0-0_0
  6
CONTINUOUS
 62
    7
 10
247.08674467911464
 20
130.63629696823256
 11
247.08674467911464
 21
142.67008628457398
  0
LINE
  8
_0-0_0
  6
CONTINUOUS
 62
    7
 10
247.08674467911464
 20
142.67008628457398
 11
247.08674467911464
 21
154.70387884209651
  0
LINE
  8
_0-0_0
  6
CONTINUOUS
 62
    7
 10
247.08674467911464
 20
154.70387884209651
 11
247.08674467911464
 21
166.73655319212162
  0
LINE
  8
_0-0_0
  6
CONTINUOUS
 62
    7
 10
246.38941751898648
 20
174.2804217704886
 11
246.33023679233207
 21
174.22124104383425
  0
LINE
  8
_0-0_0
  6
CONTINUOUS
 62
    7
 10
246.33023679233207
 20
174.22124104383425
 11
246.27105606567773
 21
174.16206031717985
  0
LINE
  8
_0-0_0
  6
CONTINUOUS
 62
    7
 10
246.27105606567773
 20
174.16206031717985
 11
246.21187533902332
 21
174.10399779802287
  0
LINE
  8
_0-0_0
  6
CONTINUOUS
 62
    7
 10
246.21187533902332
 20
174.10399779802287
 11
246.15269461236898
 21
174.04481707136853
  0
LINE
  8
_0-0_0
  6
CONTINUOUS
 62
    7
 10
246.15269461236898
 20
174.04481707136853
 11
246.09351388571463
 21
173.98563634471412
  0
LINE
  8
_0-0_0
  6
CONTINUOUS
 62
    7
 10
246.09351388571463
 20
173.98563634471412
 11
246.03433315906022
 21
173.9275705843761
  0
LINE
  8
_0-0_0
  6
CONTINUOUS
 62
    7
 10
246.03433315906022
 20
173.9275705843761
 11
245.97515243240588
 21
173.8683898577217
  0
LINE
  8
_0-0_0
  6
CONTINUOUS
 62
    7
 10
245.97515243240588
 20
173.8683898577217
 11
245.91597170575147
 21
173.80920913106735
  0
LINE
  8
_0-0_0
  6
CONTINUOUS
 62
    7
 10
279.49769404492821
 20
174.2804217704886
 11
279.55687477158256
 21
174.22124104383425
  0
LINE
  8
_0-0_0
  6
CONTINUOUS
 62
    7
 10
279.55687477158256
 20
174.22124104383425
 11
279.61494053192064
 21
174.16206031717985
  0
LINE
  8
_0-0_0
  6
CONTINUOUS
 62
    7
 10
279.61494053192064
 20
174.16206031717985
 11
279.67412125857504
 21
174.10399779802287
  0
LINE
  8
_0-0_0
  6
CONTINUOUS
 62
    7
 10
279.67412125857504
 20
174.10399779802287
 11
279.73330198522939
 21
174.04481707136853
  0
LINE
  8
_0-0_0
  6
CONTINUOUS
 62
    7
 10
279.73330198522939
 20
174.04481707136853
 11
279.79248271188374
 21
173.98563634471412
  0
LINE
  8
_0-0_0
  6
CONTINUOUS
 62
    7
 10
279.79248271188374
 20
173.98563634471412
 11
279.85166343853814
 21
173.9275705843761
  0
LINE
  8
_0-0_0
  6
CONTINUOUS
 62
    7
 10
279.85166343853814
 20
173.9275705843761
 11
279.91084416519249
 21
173.8683898577217
  0
LINE
  8
_0-0_0
  6
CONTINUOUS
 62
    7
 10
279.91084416519249
 20
173.8683898577217
 11
279.97002489184689
 21
173.80920913106735
  0
LINE
  8
_0-0_0
  6
CONTINUOUS
 62
    7
 10
279.05104631745797
 20
200.37801374111086
 11
275.02340552364979
 21
200.37801374111086
  0
LINE
  8
_0-0_0
  6
CONTINUOUS
 62
    7
 10
275.02340552364979
 20
200.37801374111086
 11
270.99688293733908
 21
200.37801374111086
  0
LINE
  8
_0-0_0
  6
CONTINUOUS
 62
    7
 10
270.99688293733908
 20
200.37801374111086
 11
266.9703571098471
 21
200.37801374111086
  0
LINE
  8
_0-0_0
  6
CONTINUOUS
 62
    7
 10
266.9703571098471
 20
200.37801374111086
 11
262.94271631603897
 21
200.37801374111086
  0
LINE
  8
_0-0_0
  6
CONTINUOUS
 62
    7
 10
262.94271631603897
 20
200.37801374111086
 11
258.91563624657005
 21
200.37801374111086
  0
LINE
  8
_0-0_0
  6
CONTINUOUS
 62
    7
 10
258.91563624657005
 20
200.37801374111086
 11
254.88855293592002
 21
200.37801374111086
  0
LINE
  8
_0-0_0
  6
CONTINUOUS
 62
    7
 10
254.88855293592002
 20
200.37801374111086
 11
250.86203034960926
 21
200.37801374111086
  0
LINE
  8
_0-0_0
  6
CONTINUOUS
 62
    7
 10
250.86203034960926
 20
200.37801374111086
 11
246.83494703895923
 21
200.37801374111086
  0
LINE
  8
_0-0_0
  6
CONTINUOUS
 62
    7
 10
278.79757622782819
 20
70.469577077976908
 11
278.79757622782819
 21
82.503366394318348
  0
LINE
  8
_0-0_0
  6
CONTINUOUS
 62
    7
 10
278.79757622782819
 20
82.503366394318348
 11
278.79757622782819
 21
94.536040744343453
  0
LINE
  8
_0-0_0
  6
CONTINUOUS
 62
    7
 10
278.79757622782819
 20
94.536040744343453
 11
278.79757622782819
 21
106.56983330186601
  0
LINE
  8
_0-0_0
  6
CONTINUOUS
 62
    7
 10
278.79757622782819
 20
106.56983330186601
 11
278.79757622782819
 21
118.6036226182075
  0
LINE
  8
_0-0_0
  6
CONTINUOUS
 62
    7
 10
278.79757622782819
 20
118.6036226182075
 11
278.79757622782819
 21
130.63629696823256
  0
LINE
  8
_0-0_0
  6
CONTINUOUS
 62
    7
 10
278.79757622782819
 20
130.63629696823256
 11
278.79757622782819
 21
142.67008628457398
  0
LINE
  8
_0-0_0
  6
CONTINUOUS
 62
    7
 10
278.79757622782819
 20
142.67008628457398
 11
278.79757622782819
 21
154.70387884209651
  0
LINE
  8
_0-0_0
  6
CONTINUOUS
 62
    7
 10
278.79757622782819
 20
154.70387884209651
 11
278.79757622782819
 21
166.73655319212162
  0
LINE
  8
_0-0_0
  6
CONTINUOUS
 62
    7
 10
279.05104631745797
 20
200.37801374111086
 11
279.05104631745797
 21
197.25036792368434
  0
LINE
  8
_0-0_0
  6
CONTINUOUS
 62
    7
 10
279.05104631745797
 20
197.25036792368434
 11
279.05104631745797
 21
194.1227221062577
  0
LINE
  8
_0-0_0
  6
CONTINUOUS
 62
    7
 10
279.05104631745797
 20
194.1227221062577
 11
279.05104631745797
 21
190.99507628883111
  0
LINE
  8
_0-0_0
  6
CONTINUOUS
 62
    7
 10
279.05104631745797
 20
190.99507628883111
 11
279.05104631745797
 21
187.86742723022343
  0
LINE
  8
_0-0_0
  6
CONTINUOUS
 62
    7
 10
279.05104631745797
 20
187.86742723022343
 11
279.05104631745797
 21
184.73978141279673
  0
LINE
  8
_0-0_0
  6
CONTINUOUS
 62
    7
 10
279.05104631745797
 20
184.73978141279673
 11
279.05104631745797
 21
181.61213559537021
  0
LINE
  8
_0-0_0
  6
CONTINUOUS
 62
    7
 10
279.05104631745797
 20
181.61213559537021
 11
279.05104631745797
 21
178.48448977794362
  0
LINE
  8
_0-0_0
  6
CONTINUOUS
 62
    7
 10
279.05104631745797
 20
178.48448977794362
 11
279.05104631745797
 21
175.35684071933582
  0
LINE
  8
_0-0_0
  6
CONTINUOUS
 62
    7
 10
280.19334551440079
 20
173.26988306973686
 11
280.19334551440079
 21
172.45363373196068
  0
LINE
  8
_0-0_0
  6
CONTINUOUS
 62
    7
 10
280.19334551440079
 20
172.45363373196068
 11
280.19334551440079
 21
171.63627266904928
  0
LINE
  8
_0-0_0
  6
CONTINUOUS
 62
    7
 10
280.19334551440079
 20
171.63627266904928
 11
280.19334551440079
 21
170.82002333127303
  0
LINE
  8
_0-0_0
  6
CONTINUOUS
 62
    7
 10
280.19334551440079
 20
170.82002333127303
 11
280.19334551440079
 21
170.00377723467795
  0
LINE
  8
_0-0_0
  6
CONTINUOUS
 62
    7
 10
280.19334551440079
 20
170.00377723467795
 11
280.19334551440079
 21
169.18641293058545
  0
LINE
  8
_0-0_0
  6
CONTINUOUS
 62
    7
 10
280.19334551440079
 20
169.18641293058545
 11
280.19334551440079
 21
168.37016359280926
  0
LINE
  8
_0-0_0
  6
CONTINUOUS
 62
    7
 10
280.19334551440079
 20
168.37016359280926
 11
280.19334551440079
 21
167.55391749621424
  0
LINE
  8
_0-0_0
  6
CONTINUOUS
 62
    7
 10
280.19334551440079
 20
167.55391749621424
 11
280.19334551440079
 21
166.73655319212162
  0
LINE
  8
_0-0_0
  6
CONTINUOUS
 62
    7
 10
283.23613072690574
 20
207.83032219311499
 11
280.37089093554505
 21
207.83032219311499
  0
LINE
  8
_0-0_0
  6
CONTINUOUS
 62
    7
 10
280.37089093554505
 20
207.83032219311499
 11
277.50564790300325
 21
207.83032219311499
  0
LINE
  8
_0-0_0
  6
CONTINUOUS
 62
    7
 10
277.50564790300325
 20
207.83032219311499
 11
274.64040811164256
 21
207.83032219311499
  0
LINE
  8
_0-0_0
  6
CONTINUOUS
 62
    7
 10
274.64040811164256
 20
207.83032219311499
 11
271.77516507910076
 21
207.83032219311499
  0
LINE
  8
_0-0_0
  6
CONTINUOUS
 62
    7
 10
271.77516507910076
 20
207.83032219311499
 11
268.90992528774007
 21
207.83032219311499
  0
LINE
  8
_0-0_0
  6
CONTINUOUS
 62
    7
 10
268.90992528774007
 20
207.83032219311499
 11
266.04468225519827
 21
207.83032219311499
  0
LINE
  8
_0-0_0
  6
CONTINUOUS
 62
    7
 10
266.04468225519827
 20
207.83032219311499
 11
263.17944246383757
 21
207.83032219311499
  0
LINE
  8
_0-0_0
  6
CONTINUOUS
 62
    7
 10
263.17944246383757
 20
207.83032219311499
 11
260.31364194813762
 21
207.83032219311499
  0
LINE
  8
_0-0_0
  6
CONTINUOUS
 62
    7
 10
260.3063817023571
 20
207.83032219311499
 11
258.09938690879386
 21
207.83032219311499
  0
LINE
  8
_0-0_0
  6
CONTINUOUS
 62
    7
 10
258.09938690879386
 20
207.83032219311499
 11
255.89239211523051
 21
207.83032219311499
  0
LINE
  8
_0-0_0
  6
CONTINUOUS
 62
    7
 10
255.89239211523051
 20
207.83032219311499
 11
253.68539732166727
 21
207.83032219311499
  0
LINE
  8
_0-0_0
  6
CONTINUOUS
 62
    7
 10
253.68539732166727
 20
207.83032219311499
 11
251.47840252810391
 21
207.83032219311499
  0
LINE
  8
_0-0_0
  6
CONTINUOUS
 62
    7
 10
251.47840252810391
 20
207.83032219311499
 11
249.27140773454067
 21
207.83032219311499
  0
LINE
  8
_0-0_0
  6
CONTINUOUS
 62
    7
 10
249.27140773454067
 20
207.83032219311499
 11
247.06441294097732
 21
207.83032219311499
  0
LINE
  8
_0-0_0
  6
CONTINUOUS
 62
    7
 10
247.06441294097732
 20
207.83032219311499
 11
244.85685742307476
 21
207.83032219311499
  0
LINE
  8
_0-0_0
  6
CONTINUOUS
 62
    7
 10
244.85685742307476
 20
207.83032219311499
 11
242.64986262951146
 21
207.83032219311499
  0
LINE
  8
_0-0_0
  6
CONTINUOUS
 62
    7
 10
283.99654747815759
 20
215.94813264751576
 11
283.99654747815759
 21
215.02804234799174
  0
LINE
  8
_0-0_0
  6
CONTINUOUS
 62
    7
 10
283.99654747815759
 20
215.02804234799174
 11
283.99654747815759
 21
214.10906377360288
  0
LINE
  8
_0-0_0
  6
CONTINUOUS
 62
    7
 10
283.99654747815759
 20
214.10906377360288
 11
283.99654747815759
 21
213.19008844039513
  0
LINE
  8
_0-0_0
  6
CONTINUOUS
 62
    7
 10
283.99654747815759
 20
213.19008844039513
 11
283.99654747815759
 21
212.26999489969
  0
LINE
  8
_0-0_0
  6
CONTINUOUS
 62
    7
 10
283.99654747815759
 20
212.26999489969
 11
283.99654747815759
 21
211.34990135898488
  0
LINE
  8
_0-0_0
  6
CONTINUOUS
 62
    7
 10
283.99654747815759
 20
211.34990135898488
 11
283.99654747815759
 21
210.43092602577713
  0
LINE
  8
_0-0_0
  6
CONTINUOUS
 62
    7
 10
283.99654747815759
 20
210.43092602577713
 11
283.99654747815759
 21
209.51194745138821
  0
LINE
  8
_0-0_0
  6
CONTINUOUS
 62
    7
 10
283.99654747815759
 20
209.51194745138821
 11
283.99654747815759
 21
208.59185715186425
  0
LINE
  8
_0-0_0
  6
CONTINUOUS
 62
    7
 10
230.09237946853563
 20
217.47119932383322
 11
238.30454394745232
 21
217.47119932383322
  0
LINE
  8
_0-0_0
  6
CONTINUOUS
 62
    7
 10
238.30454394745232
 20
217.47119932383322
 11
246.51726915070827
 21
217.47119932383322
  0
LINE
  8
_0-0_0
  6
CONTINUOUS
 62
    7
 10
246.51726915070827
 20
217.47119932383322
 11
254.72999435396417
 21
217.47119932383322
  0
LINE
  8
_0-0_0
  6
CONTINUOUS
 62
    7
 10
254.72999435396417
 20
217.47119932383322
 11
262.94271631603897
 21
217.47119932383322
  0
LINE
  8
_0-0_0
  6
CONTINUOUS
 62
    7
 10
262.94271631603897
 20
217.47119932383322
 11
271.15544151929487
 21
217.47119932383322
  0
LINE
  8
_0-0_0
  6
CONTINUOUS
 62
    7
 10
271.15544151929487
 20
217.47119932383322
 11
279.36816672255082
 21
217.47119932383322
  0
LINE
  8
_0-0_0
  6
CONTINUOUS
 62
    7
 10
279.36816672255082
 20
217.47119932383322
 11
287.58089192580678
 21
217.47119932383322
  0
LINE
  8
_0-0_0
  6
CONTINUOUS
 62
    7
 10
287.58089192580678
 20
217.47119932383322
 11
295.79361388788152
 21
217.47119932383322
  0
LINE
  8
_0-0_0
  6
CONTINUOUS
 62
    7
 10
294.65243289843619
 20
244.10532669881411
 11
294.65243289843619
 21
243.94732560001643
  0
LINE
  8
_0-0_0
  6
CONTINUOUS
 62
    7
 10
294.65243289843619
 20
243.94732560001643
 11
294.65243289843619
 21
243.78876701806058
  0
LINE
  8
_0-0_0
  6
CONTINUOUS
 62
    7
 10
294.65243289843619
 20
243.78876701806058
 11
294.65243289843619
 21
243.63020843610468
  0
LINE
  8
_0-0_0
  6
CONTINUOUS
 62
    7
 10
294.65243289843619
 20
243.63020843610468
 11
294.65243289843619
 21
243.47164661296779
  0
LINE
  8
_0-0_0
  6
CONTINUOUS
 62
    7
 10
294.65243289843619
 20
243.47164661296779
 11
294.65243289843619
 21
243.31308803101192
  0
LINE
  8
_0-0_0
  6
CONTINUOUS
 62
    7
 10
294.65243289843619
 20
243.31308803101192
 11
294.65243289843619
 21
243.15452944905604
  0
LINE
  8
_0-0_0
  6
CONTINUOUS
 62
    7
 10
294.65243289843619
 20
243.15452944905604
 11
294.65243289843619
 21
242.99596762591909
  0
LINE
  8
_0-0_0
  6
CONTINUOUS
 62
    7
 10
294.65243289843619
 20
242.99596762591909
 11
294.65243289843619
 21
242.83740904396325
  0
LINE
  8
_0-0_0
  6
CONTINUOUS
 62
    7
 10
296.17214819344247
 20
217.85085183689154
 11
296.17214819344247
 21
218.05630706893567
  0
LINE
  8
_0-0_0
  6
CONTINUOUS
 62
    7
 10
296.17214819344247
 20
218.05630706893567
 11
296.17214819344247
 21
218.26288374965841
  0
LINE
  8
_0-0_0
  6
CONTINUOUS
 62
    7
 10
296.17214819344247
 20
218.26288374965841
 11
296.17214819344247
 21
218.46945718919994
  0
LINE
  8
_0-0_0
  6
CONTINUOUS
 62
    7
 10
296.17214819344247
 20
218.46945718919994
 11
296.17214819344247
 21
218.67491566242518
  0
LINE
  8
_0-0_0
  6
CONTINUOUS
 62
    7
 10
296.17214819344247
 20
218.67491566242518
 11
296.17214819344247
 21
218.88037413565058
  0
LINE
  8
_0-0_0
  6
CONTINUOUS
 62
    7
 10
296.17214819344247
 20
218.88037413565058
 11
296.17214819344247
 21
219.08694757519208
  0
LINE
  8
_0-0_0
  6
CONTINUOUS
 62
    7
 10
296.17214819344247
 20
219.08694757519208
 11
296.17214819344247
 21
219.2935210147337
  0
LINE
  8
_0-0_0
  6
CONTINUOUS
 62
    7
 10
296.17214819344247
 20
219.2935210147337
 11
296.17214819344247
 21
219.49897948795893
  0
LINE
  8
_0-0_0
  6
CONTINUOUS
 62
    7
 10
296.29944234200616
 20
229.39221174199082
 11
296.29944234200616
 21
229.48712649084592
  0
LINE
  8
_0-0_0
  6
CONTINUOUS
 62
    7
 10
296.29944234200616
 20
229.48712649084592
 11
296.29944234200616
 21
229.58203799851992
  0
LINE
  8
_0-0_0
  6
CONTINUOUS
 62
    7
 10
296.29944234200616
 20
229.58203799851992
 11
296.29944234200616
 21
229.67694950619392
  0
LINE
  8
_0-0_0
  6
CONTINUOUS
 62
    7
 10
296.29944234200616
 20
229.67694950619392
 11
296.29944234200616
 21
229.77186425504914
  0
LINE
  8
_0-0_0
  6
CONTINUOUS
 62
    7
 10
296.29944234200616
 20
229.77186425504914
 11
296.29944234200616
 21
229.86677576272314
  0
LINE
  8
_0-0_0
  6
CONTINUOUS
 62
    7
 10
296.29944234200616
 20
229.86677576272314
 11
296.29944234200616
 21
229.96168727039714
  0
LINE
  8
_0-0_0
  6
CONTINUOUS
 62
    7
 10
296.29944234200616
 20
229.96168727039714
 11
296.29944234200616
 21
230.05771698556856
  0
LINE
  8
_0-0_0
  6
CONTINUOUS
 62
    7
 10
296.29944234200616
 20
230.05771698556856
 11
296.29944234200616
 21
230.15262849324256
  0
LINE
  8
_0-0_0
  6
CONTINUOUS
 62
    7
 10
296.17214819344247
 20
219.49897948795893
 11
287.86451148251251
 21
219.49897948795893
  0
LINE
  8
_0-0_0
  6
CONTINUOUS
 62
    7
 10
287.86451148251251
 20
219.49897948795893
 11
279.55687477158256
 21
219.49897948795893
  0
LINE
  8
_0-0_0
  6
CONTINUOUS
 62
    7
 10
279.55687477158256
 20
219.49897948795893
 11
271.24923806065266
 21
219.49897948795893
  0
LINE
  8
_0-0_0
  6
CONTINUOUS
 62
    7
 10
271.24923806065266
 20
219.49897948795893
 11
262.94160134972265
 21
219.49897948795893
  0
LINE
  8
_0-0_0
  6
CONTINUOUS
 62
    7
 10
262.94160134972265
 20
219.49897948795893
 11
254.63396463879269
 21
219.49897948795893
  0
LINE
  8
_0-0_0
  6
CONTINUOUS
 62
    7
 10
254.63396463879269
 20
219.49897948795893
 11
246.32632792786279
 21
219.49897948795893
  0
LINE
  8
_0-0_0
  6
CONTINUOUS
 62
    7
 10
246.32632792786279
 20
219.49897948795893
 11
238.01869121693284
 21
219.49897948795893
  0
LINE
  8
_0-0_0
  6
CONTINUOUS
 62
    7
 10
238.01869121693284
 20
219.49897948795893
 11
229.71049702284472
 21
219.49897948795893
  0
LINE
  8
_0-0_0
  6
CONTINUOUS
 62
    7
 10
296.29944234200616
 20
229.39221174199082
 11
287.96054119768399
 21
229.39221174199082
  0
LINE
  8
_0-0_0
  6
CONTINUOUS
 62
    7
 10
287.96054119768399
 20
229.39221174199082
 11
279.62164005336183
 21
229.39221174199082
  0
LINE
  8
_0-0_0
  6
CONTINUOUS
 62
    7
 10
279.62164005336183
 20
229.39221174199082
 11
271.28273566785856
 21
229.39221174199082
  0
LINE
  8
_0-0_0
  6
CONTINUOUS
 62
    7
 10
271.28273566785856
 20
229.39221174199082
 11
262.94271631603897
 21
229.39221174199082
  0
LINE
  8
_0-0_0
  6
CONTINUOUS
 62
    7
 10
262.94271631603897
 20
229.39221174199082
 11
254.60381517171683
 21
229.39221174199082
  0
LINE
  8
_0-0_0
  6
CONTINUOUS
 62
    7
 10
254.60381517171683
 20
229.39221174199082
 11
246.26435654423653
 21
229.39221174199082
  0
LINE
  8
_0-0_0
  6
CONTINUOUS
 62
    7
 10
246.26435654423653
 20
229.39221174199082
 11
237.92489467557505
 21
229.39221174199082
  0
LINE
  8
_0-0_0
  6
CONTINUOUS
 62
    7
 10
237.92489467557505
 20
229.39221174199082
 11
229.58599353125294
 21
229.39221174199082
  0
LINE
  8
_0-0_0
  6
CONTINUOUS
 62
    7
 10
296.29944234200616
 20
230.15262849324256
 11
287.96054119768399
 21
230.15262849324256
  0
LINE
  8
_0-0_0
  6
CONTINUOUS
 62
    7
 10
287.96054119768399
 20
230.15262849324256
 11
279.62164005336183
 21
230.15262849324256
  0
LINE
  8
_0-0_0
  6
CONTINUOUS
 62
    7
 10
279.62164005336183
 20
230.15262849324256
 11
271.28273566785856
 21
230.15262849324256
  0
LINE
  8
_0-0_0
  6
CONTINUOUS
 62
    7
 10
271.28273566785856
 20
230.15262849324256
 11
262.94271631603897
 21
230.15262849324256
  0
LINE
  8
_0-0_0
  6
CONTINUOUS
 62
    7
 10
262.94271631603897
 20
230.15262849324256
 11
254.60381517171683
 21
230.15262849324256
  0
LINE
  8
_0-0_0
  6
CONTINUOUS
 62
    7
 10
254.60381517171683
 20
230.15262849324256
 11
246.26435654423653
 21
230.15262849324256
  0
LINE
  8
_0-0_0
  6
CONTINUOUS
 62
    7
 10
246.26435654423653
 20
230.15262849324256
 11
237.92489467557505
 21
230.15262849324256
  0
LINE
  8
_0-0_0
  6
CONTINUOUS
 62
    7
 10
237.92489467557505
 20
230.15262849324256
 11
229.58599353125294
 21
230.15262849324256
  0
LINE
  8
_0-0_0
  6
CONTINUOUS
 62
    7
 10
231.23300297482291
 20
242.83740904396325
 11
239.16043293071749
 21
242.83740904396325
  0
LINE
  8
_0-0_0
  6
CONTINUOUS
 62
    7
 10
239.16043293071749
 20
242.83740904396325
 11
247.08785964543091
 21
242.83740904396325
  0
LINE
  8
_0-0_0
  6
CONTINUOUS
 62
    7
 10
247.08785964543091
 20
242.83740904396325
 11
255.01528960132549
 21
242.83740904396325
  0
LINE
  8
_0-0_0
  6
CONTINUOUS
 62
    7
 10
255.01528960132549
 20
242.83740904396325
 11
262.94271631603897
 21
242.83740904396325
  0
LINE
  8
_0-0_0
  6
CONTINUOUS
 62
    7
 10
262.94271631603897
 20
242.83740904396325
 11
270.86958878877539
 21
242.83740904396325
  0
LINE
  8
_0-0_0
  6
CONTINUOUS
 62
    7
 10
270.86958878877539
 20
242.83740904396325
 11
278.79757622782819
 21
242.83740904396325
  0
LINE
  8
_0-0_0
  6
CONTINUOUS
 62
    7
 10
278.79757622782819
 20
242.83740904396325
 11
286.72556042569977
 21
242.83740904396325
  0
LINE
  8
_0-0_0
  6
CONTINUOUS
 62
    7
 10
286.72556042569977
 20
242.83740904396325
 11
294.65243289843619
 21
242.83740904396325
  0
LINE
  8
_0-0_0
  6
CONTINUOUS
 62
    7
 10
231.23300297482291
 20
244.10532669881411
 11
239.16043293071749
 21
244.10532669881411
  0
LINE
  8
_0-0_0
  6
CONTINUOUS
 62
    7
 10
239.16043293071749
 20
244.10532669881411
 11
247.08785964543091
 21
244.10532669881411
  0
LINE
  8
_0-0_0
  6
CONTINUOUS
 62
    7
 10
247.08785964543091
 20
244.10532669881411
 11
255.01528960132549
 21
244.10532669881411
  0
LINE
  8
_0-0_0
  6
CONTINUOUS
 62
    7
 10
255.01528960132549
 20
244.10532669881411
 11
262.94271631603897
 21
244.10532669881411
  0
LINE
  8
_0-0_0
  6
CONTINUOUS
 62
    7
 10
262.94271631603897
 20
244.10532669881411
 11
270.86958878877539
 21
244.10532669881411
  0
LINE
  8
_0-0_0
  6
CONTINUOUS
 62
    7
 10
270.86958878877539
 20
244.10532669881411
 11
278.79757622782819
 21
244.10532669881411
  0
LINE
  8
_0-0_0
  6
CONTINUOUS
 62
    7
 10
278.79757622782819
 20
244.10532669881411
 11
286.72556042569977
 21
244.10532669881411
  0
LINE
  8
_0-0_0
  6
CONTINUOUS
 62
    7
 10
286.72556042569977
 20
244.10532669881411
 11
294.65243289843619
 21
244.10532669881411
  0
LINE
  8
_0-0_0
  6
CONTINUOUS
 62
    7
 10
235.63694490037824
 20
245.37324759484611
 11
242.46338775429348
 21
245.37324759484611
  0
LINE
  8
_0-0_0
  6
CONTINUOUS
 62
    7
 10
242.46338775429348
 20
245.37324759484611
 11
249.28983060820863
 21
245.37324759484611
  0
LINE
  8
_0-0_0
  6
CONTINUOUS
 62
    7
 10
249.28983060820863
 20
245.37324759484611
 11
256.11627346212379
 21
245.37324759484611
  0
LINE
  8
_0-0_0
  6
CONTINUOUS
 62
    7
 10
256.11627346212379
 20
245.37324759484611
 11
262.94271631603897
 21
245.37324759484611
  0
LINE
  8
_0-0_0
  6
CONTINUOUS
 62
    7
 10
262.94271631603897
 20
245.37324759484611
 11
269.76860168679599
 21
245.37324759484611
  0
LINE
  8
_0-0_0
  6
CONTINUOUS
 62
    7
 10
269.76860168679599
 20
245.37324759484611
 11
276.59560526505044
 21
245.37324759484611
  0
LINE
  8
_0-0_0
  6
CONTINUOUS
 62
    7
 10
276.59560526505044
 20
245.37324759484611
 11
283.42260560212378
 21
245.37324759484611
  0
LINE
  8
_0-0_0
  6
CONTINUOUS
 62
    7
 10
283.42260560212378
 20
245.37324759484611
 11
290.2484909728808
 21
245.37324759484611
  0
LINE
  8
_0-0_0
  6
CONTINUOUS
 62
    7
 10
290.2484909728808
 20
245.37324759484611
 11
290.79898290327992
 21
245.21468901289032
  0
LINE
  8
_0-0_0
  6
CONTINUOUS
 62
    7
 10
290.79898290327992
 20
245.21468901289032
 11
291.34947483367904
 21
245.05612718975328
  0
LINE
  8
_0-0_0
  6
CONTINUOUS
 62
    7
 10
291.34947483367904
 20
245.05612718975328
 11
291.89997000525932
 21
244.89756860779744
  0
LINE
  8
_0-0_0
  6
CONTINUOUS
 62
    7
 10
291.89997000525932
 20
244.89756860779744
 11
292.4504619356585
 21
244.73901002584165
  0
LINE
  8
_0-0_0
  6
CONTINUOUS
 62
    7
 10
292.4504619356585
 20
244.73901002584165
 11
293.00095386605761
 21
244.58044820270464
  0
LINE
  8
_0-0_0
  6
CONTINUOUS
 62
    7
 10
293.00095386605761
 20
244.58044820270464
 11
293.55144579645673
 21
244.4218896207488
  0
LINE
  8
_0-0_0
  6
CONTINUOUS
 62
    7
 10
293.55144579645673
 20
244.4218896207488
 11
294.10193772685591
 21
244.26333103879301
  0
LINE
  8
_0-0_0
  6
CONTINUOUS
 62
    7
 10
294.10193772685591
 20
244.26333103879301
 11
294.65243289843619
 21
244.10532669881411
  0
LINE
  8
_0-0_0
  6
CONTINUOUS
 62
    7
 10
282.60300812421752
 20
255.52051390402829
 11
283.55883244594236
 21
254.25259300799621
  0
LINE
  8
_0-0_0
  6
CONTINUOUS
 62
    7
 10
283.55883244594236
 20
254.25259300799621
 11
284.51465676766713
 21
252.98411462880608
  0
LINE
  8
_0-0_0
  6
CONTINUOUS
 62
    7
 10
284.51465676766713
 20
252.98411462880608
 11
285.47048433057307
 21
251.71563624961584
  0
LINE
  8
_0-0_0
  6
CONTINUOUS
 62
    7
 10
285.47048433057307
 20
251.71563624961584
 11
286.42630865229785
 21
250.44715787042574
  0
LINE
  8
_0-0_0
  6
CONTINUOUS
 62
    7
 10
286.42630865229785
 20
250.44715787042574
 11
287.38213297402262
 21
249.17868273241666
  0
LINE
  8
_0-0_0
  6
CONTINUOUS
 62
    7
 10
287.38213297402262
 20
249.17868273241666
 11
288.33795729574751
 21
247.91020435322656
  0
LINE
  8
_0-0_0
  6
CONTINUOUS
 62
    7
 10
288.33795729574751
 20
247.91020435322656
 11
289.29378161747229
 21
246.64172597403632
  0
LINE
  8
_0-0_0
  6
CONTINUOUS
 62
    7
 10
289.29378161747229
 20
246.64172597403632
 11
290.2484909728808
 21
245.37324759484611
  0
LINE
  8
_0-0_0
  6
CONTINUOUS
 62
    7
 10
243.2835427153579
 20
255.52051390402829
 11
248.19889440898157
 21
255.52051390402829
  0
LINE
  8
_0-0_0
  6
CONTINUOUS
 62
    7
 10
248.19889440898157
 20
255.52051390402829
 11
253.11368861944715
 21
255.52051390402829
  0
LINE
  8
_0-0_0
  6
CONTINUOUS
 62
    7
 10
253.11368861944715
 20
255.52051390402829
 11
258.02848282991266
 21
255.52051390402829
  0
LINE
  8
_0-0_0
  6
CONTINUOUS
 62
    7
 10
258.02848282991266
 20
255.52051390402829
 11
262.9438345235364
 21
255.52051390402829
  0
LINE
  8
_0-0_0
  6
CONTINUOUS
 62
    7
 10
262.9438345235364
 20
255.52051390402829
 11
267.85918621716013
 21
255.52051390402829
  0
LINE
  8
_0-0_0
  6
CONTINUOUS
 62
    7
 10
267.85918621716013
 20
255.52051390402829
 11
272.77342294446754
 21
255.52051390402829
  0
LINE
  8
_0-0_0
  6
CONTINUOUS
 62
    7
 10
272.77342294446754
 20
255.52051390402829
 11
277.68765643059385
 21
255.52051390402829
  0
LINE
  8
_0-0_0
  6
CONTINUOUS
 62
    7
 10
277.68765643059385
 20
255.52051390402829
 11
282.60300812421752
 21
255.52051390402829
  0
LINE
  8
_0-0_0
  6
CONTINUOUS
 62
    7
 10
241.88609773812959
 20
215.94813264751576
 11
241.85539078789554
 21
216.25408718353992
  0
LINE
  8
_0-0_0
  6
CONTINUOUS
 62
    7
 10
241.85539078789554
 20
216.25408718353992
 11
241.76661807732341
 21
216.53993991405946
  0
LINE
  8
_0-0_0
  6
CONTINUOUS
 62
    7
 10
241.76661807732341
 20
216.53993991405946
 11
241.6264823690355
 21
216.79899779999533
  0
LINE
  8
_0-0_0
  6
CONTINUOUS
 62
    7
 10
241.6264823690355
 20
216.79899779999533
 11
241.44112570131495
 21
217.02455483754417
  0
LINE
  8
_0-0_0
  6
CONTINUOUS
 62
    7
 10
241.44112570131495
 20
217.02455483754417
 11
241.21668363008246
 21
217.2110297127621
  0
LINE
  8
_0-0_0
  6
CONTINUOUS
 62
    7
 10
241.21668363008246
 20
217.2110297127621
 11
240.95818646848579
 21
217.35172290420815
  0
LINE
  8
_0-0_0
  6
CONTINUOUS
 62
    7
 10
240.95818646848579
 20
217.35172290420815
 11
240.67289122112447
 21
217.43993489044101
  0
LINE
  8
_0-0_0
  6
CONTINUOUS
 62
    7
 10
240.67289122112447
 20
217.43993489044101
 11
240.3663792019421
 21
217.47119932383322
  0
LINE
  8
_0-0_0
  6
CONTINUOUS
 62
    7
 10
229.71049702284472
 20
217.85085183689154
 11
229.71831151060218
 21
217.77380571972731
  0
LINE
  8
_0-0_0
  6
CONTINUOUS
 62
    7
 10
229.71831151060218
 20
217.77380571972731
 11
229.74064324873945
 21
217.70234091650693
  0
LINE
  8
_0-0_0
  6
CONTINUOUS
 62
    7
 10
229.74064324873945
 20
217.70234091650693
 11
229.77581654660094
 21
217.63757563472765
  0
LINE
  8
_0-0_0
  6
CONTINUOUS
 62
    7
 10
229.77581654660094
 20
217.63757563472765
 11
229.82215895471222
 21
217.58174628938445
  0
LINE
  8
_0-0_0
  6
CONTINUOUS
 62
    7
 10
229.82215895471222
 20
217.58174628938445
 11
229.87854578321361
 21
217.53596460561243
  0
LINE
  8
_0-0_0
  6
CONTINUOUS
 62
    7
 10
229.87854578321361
 20
217.53596460561243
 11
229.94386854815104
 21
217.50134879090908
  0
LINE
  8
_0-0_0
  6
CONTINUOUS
 62
    7
 10
229.94386854815104
 20
217.50134879090908
 11
230.01533335137145
 21
217.47901705277178
  0
LINE
  8
_0-0_0
  6
CONTINUOUS
 62
    7
 10
230.01533335137145
 20
217.47901705277178
 11
230.09237946853563
 21
217.47119932383322
  0
LINE
  8
_0-0_0
  6
CONTINUOUS
 62
    7
 10
295.79361388788152
 20
217.47119932383322
 11
295.87066324622691
 21
217.47901705277178
  0
LINE
  8
_0-0_0
  6
CONTINUOUS
 62
    7
 10
295.87066324622691
 20
217.47901705277178
 11
295.94100984194989
 21
217.50134879090908
  0
LINE
  8
_0-0_0
  6
CONTINUOUS
 62
    7
 10
295.94100984194989
 20
217.50134879090908
 11
296.00577188254806
 21
217.53596460561243
  0
LINE
  8
_0-0_0
  6
CONTINUOUS
 62
    7
 10
296.00577188254806
 20
217.53596460561243
 11
296.06160446907234
 21
217.58174628938445
  0
LINE
  8
_0-0_0
  6
CONTINUOUS
 62
    7
 10
296.06160446907234
 20
217.58174628938445
 11
296.10738615284436
 21
217.63757563472765
  0
LINE
  8
_0-0_0
  6
CONTINUOUS
 62
    7
 10
296.10738615284436
 20
217.63757563472765
 11
296.14199872636658
 21
217.70234091650693
  0
LINE
  8
_0-0_0
  6
CONTINUOUS
 62
    7
 10
296.14199872636658
 20
217.70234091650693
 11
296.16433370568501
 21
217.77380571972731
  0
LINE
  8
_0-0_0
  6
CONTINUOUS
 62
    7
 10
296.16433370568501
 20
217.77380571972731
 11
296.17214819344247
 21
217.85085183689154
  0
LINE
  8
_0-0_0
  6
CONTINUOUS
 62
    7
 10
283.23613072690574
 20
207.83032219311499
 11
283.39022296123414
 21
207.84595440981104
  0
LINE
  8
_0-0_0
  6
CONTINUOUS
 62
    7
 10
283.39022296123414
 20
207.84595440981104
 11
283.53315256767502
 21
207.89062112726674
  0
LINE
  8
_0-0_0
  6
CONTINUOUS
 62
    7
 10
283.53315256767502
 20
207.89062112726674
 11
283.66156168255498
 21
207.95984951549235
  0
LINE
  8
_0-0_0
  6
CONTINUOUS
 62
    7
 10
283.66156168255498
 20
207.95984951549235
 11
283.77434182191996
 21
208.05364605685003
  0
LINE
  8
_0-0_0
  6
CONTINUOUS
 62
    7
 10
283.77434182191996
 20
208.05364605685003
 11
283.86702015578021
 21
208.16642295503385
  0
LINE
  8
_0-0_0
  6
CONTINUOUS
 62
    7
 10
283.86702015578021
 20
208.16642295503385
 11
283.93736675150325
 21
208.29595027741124
  0
LINE
  8
_0-0_0
  6
CONTINUOUS
 62
    7
 10
283.93736675150325
 20
208.29595027741124
 11
283.98091526146152
 21
208.43887988385211
  0
LINE
  8
_0-0_0
  6
CONTINUOUS
 62
    7
 10
283.98091526146152
 20
208.43887988385211
 11
283.99654747815759
 21
208.59185715186425
  0
LINE
  8
_0-0_0
  6
CONTINUOUS
 62
    7
 10
241.88609773812959
 20
208.59185715186425
 11
241.90172995482567
 21
208.43887988385211
  0
LINE
  8
_0-0_0
  6
CONTINUOUS
 62
    7
 10
241.90172995482567
 20
208.43887988385211
 11
241.9458359479421
 21
208.29595027741124
  0
LINE
  8
_0-0_0
  6
CONTINUOUS
 62
    7
 10
241.9458359479421
 20
208.29595027741124
 11
242.01674002682324
 21
208.16642295503385
  0
LINE
  8
_0-0_0
  6
CONTINUOUS
 62
    7
 10
242.01674002682324
 20
208.16642295503385
 11
242.10942160186471
 21
208.05364605685003
  0
LINE
  8
_0-0_0
  6
CONTINUOUS
 62
    7
 10
242.10942160186471
 20
208.05364605685003
 11
242.22219850004853
 21
207.95984951549235
  0
LINE
  8
_0-0_0
  6
CONTINUOUS
 62
    7
 10
242.22219850004853
 20
207.95984951549235
 11
242.35228330558402
 21
207.89062112726674
  0
LINE
  8
_0-0_0
  6
CONTINUOUS
 62
    7
 10
242.35228330558402
 20
207.89062112726674
 11
242.49577039518306
 21
207.84595440981104
  0
LINE
  8
_0-0_0
  6
CONTINUOUS
 62
    7
 10
242.49577039518306
 20
207.84595440981104
 11
242.64986262951146
 21
207.83032219311499
  0
LINE
  8
_0-0_0
  6
CONTINUOUS
 62
    7
 10
285.51961415447511
 20
217.47119932383322
 11
285.21254465213462
 21
217.43993489044101
  0
LINE
  8
_0-0_0
  6
CONTINUOUS
 62
    7
 10
285.21254465213462
 20
217.43993489044101
 11
284.92668868043393
 21
217.35172290420815
  0
LINE
  8
_0-0_0
  6
CONTINUOUS
 62
    7
 10
284.92668868043393
 20
217.35172290420815
 11
284.6687522431767
 21
217.2110297127621
  0
LINE
  8
_0-0_0
  6
CONTINUOUS
 62
    7
 10
284.6687522431767
 20
217.2110297127621
 11
284.44319520562783
 21
217.02455483754417
  0
LINE
  8
_0-0_0
  6
CONTINUOUS
 62
    7
 10
284.44319520562783
 20
217.02455483754417
 11
284.25672033040979
 21
216.79899779999533
  0
LINE
  8
_0-0_0
  6
CONTINUOUS
 62
    7
 10
284.25672033040979
 20
216.79899779999533
 11
284.11602713896377
 21
216.53993991405946
  0
LINE
  8
_0-0_0
  6
CONTINUOUS
 62
    7
 10
284.11602713896377
 20
216.53993991405946
 11
284.0278119115498
 21
216.25408718353992
  0
LINE
  8
_0-0_0
  6
CONTINUOUS
 62
    7
 10
284.0278119115498
 20
216.25408718353992
 11
283.99654747815759
 21
215.94813264751576
  0
LINE
  8
_0-0_0
  6
CONTINUOUS
 62
    7
 10
279.05104631745797
 20
175.35684071933582
 11
279.05886404639665
 21
175.20609986631865
  0
LINE
  8
_0-0_0
  6
CONTINUOUS
 62
    7
 10
279.05886404639665
 20
175.20609986631865
 11
279.08119578453392
 21
175.05870391225028
  0
LINE
  8
_0-0_0
  6
CONTINUOUS
 62
    7
 10
279.08119578453392
 20
175.05870391225028
 11
279.11692656555357
 21
174.91466258067419
  0
LINE
  8
_0-0_0
  6
CONTINUOUS
 62
    7
 10
279.11692656555357
 20
174.91466258067419
 11
279.16717459695303
 21
174.77508435554449
  0
LINE
  8
_0-0_0
  6
CONTINUOUS
 62
    7
 10
279.16717459695303
 20
174.77508435554449
 11
279.22970670491856
 21
174.63997247804224
  0
LINE
  8
_0-0_0
  6
CONTINUOUS
 62
    7
 10
279.22970670491856
 20
174.63997247804224
 11
279.30675282208273
 21
174.5126783294786
  0
LINE
  8
_0-0_0
  6
CONTINUOUS
 62
    7
 10
279.30675282208273
 20
174.5126783294786
 11
279.39608301581296
 21
174.39208370235616
  0
LINE
  8
_0-0_0
  6
CONTINUOUS
 62
    7
 10
279.39608301581296
 20
174.39208370235616
 11
279.49769404492821
 21
174.2804217704886
  0
LINE
  8
_0-0_0
  6
CONTINUOUS
 62
    7
 10
246.38941751898648
 20
174.2804217704886
 11
246.49047106494351
 21
174.39208370235616
  0
LINE
  8
_0-0_0
  6
CONTINUOUS
 62
    7
 10
246.49047106494351
 20
174.39208370235616
 11
246.57924053433447
 21
174.5126783294786
  0
LINE
  8
_0-0_0
  6
CONTINUOUS
 62
    7
 10
246.57924053433447
 20
174.5126783294786
 11
246.65572916834054
 21
174.63997247804224
  0
LINE
  8
_0-0_0
  6
CONTINUOUS
 62
    7
 10
246.65572916834054
 20
174.63997247804224
 11
246.71937624262233
 21
174.77508435554449
  0
LINE
  8
_0-0_0
  6
CONTINUOUS
 62
    7
 10
246.71937624262233
 20
174.77508435554449
 11
246.76906679086363
 21
174.91466258067419
  0
LINE
  8
_0-0_0
  6
CONTINUOUS
 62
    7
 10
246.76906679086363
 20
174.91466258067419
 11
246.80535505504145
 21
175.05870391225028
  0
LINE
  8
_0-0_0
  6
CONTINUOUS
 62
    7
 10
246.80535505504145
 20
175.05870391225028
 11
246.82769003435993
 21
175.20609986631865
  0
LINE
  8
_0-0_0
  6
CONTINUOUS
 62
    7
 10
246.82769003435993
 20
175.20609986631865
 11
246.83494703895923
 21
175.35684071933582
  0
LINE
  8
_0-0_0
  6
CONTINUOUS
 62
    7
 10
280.19334551440079
 20
173.26988306973686
 11
280.18999737427083
 21
173.34469601308734
  0
LINE
  8
_0-0_0
  6
CONTINUOUS
 62
    7
 10
280.18999737427083
 20
173.34469601308734
 11
280.1788315052022
 21
173.41950895643782
  0
LINE
  8
_0-0_0
  6
CONTINUOUS
 62
    7
 10
280.1788315052022
 20
173.41950895643782
 11
280.15984790719489
 21
173.49097375965823
  0
LINE
  8
_0-0_0
  6
CONTINUOUS
 62
    7
 10
280.15984790719489
 20
173.49097375965823
 11
280.13528299524387
 21
173.56132035538127
  0
LINE
  8
_0-0_0
  6
CONTINUOUS
 62
    7
 10
280.13528299524387
 20
173.56132035538127
 11
280.10401856185172
 21
173.62831881097424
  0
LINE
  8
_0-0_0
  6
CONTINUOUS
 62
    7
 10
280.10401856185172
 20
173.62831881097424
 11
280.06493639952089
 21
173.69308085157235
  0
LINE
  8
_0-0_0
  6
CONTINUOUS
 62
    7
 10
280.06493639952089
 20
173.69308085157235
 11
280.0202729232463
 21
173.75337978572418
  0
LINE
  8
_0-0_0
  6
CONTINUOUS
 62
    7
 10
280.0202729232463
 20
173.75337978572418
 11
279.97002489184689
 21
173.80920913106735
  0
LINE
  8
_0-0_0
  6
CONTINUOUS
 62
    7
 10
245.91597170575147
 20
173.80920913106735
 11
245.86516295001275
 21
173.75337978572418
  0
LINE
  8
_0-0_0
  6
CONTINUOUS
 62
    7
 10
245.86516295001275
 20
173.75337978572418
 11
245.82049947373821
 21
173.69308085157235
  0
LINE
  8
_0-0_0
  6
CONTINUOUS
 62
    7
 10
245.82049947373821
 20
173.69308085157235
 11
245.78197479456554
 21
173.62831881097424
  0
LINE
  8
_0-0_0
  6
CONTINUOUS
 62
    7
 10
245.78197479456554
 20
173.62831881097424
 11
245.75015287801523
 21
173.56132035538127
  0
LINE
  8
_0-0_0
  6
CONTINUOUS
 62
    7
 10
245.75015287801523
 20
173.56132035538127
 11
245.72502724172489
 21
173.49097375965823
  0
LINE
  8
_0-0_0
  6
CONTINUOUS
 62
    7
 10
245.72502724172489
 20
173.49097375965823
 11
245.7066043680569
 21
173.41950895643782
  0
LINE
  8
_0-0_0
  6
CONTINUOUS
 62
    7
 10
245.7066043680569
 20
173.41950895643782
 11
245.69599598214643
 21
173.34469601308734
  0
LINE
  8
_0-0_0
  6
CONTINUOUS
 62
    7
 10
245.69599598214643
 20
173.34469601308734
 11
245.69208711767709
 21
173.26988306973686
  0
LINE
  8
_0-0_0
  6
CONTINUOUS
 62
    7
 10
253.43025154138178
 20
271.50098903254434
 11
253.43025154138178
 21
270.48654146732338
  0
LINE
  8
_0-0_0
  6
CONTINUOUS
 62
    7
 10
253.43025154138178
 20
270.48654146732338
 11
253.43025154138178
 21
269.47209390210236
  0
LINE
  8
_0-0_0
  6
CONTINUOUS
 62
    7
 10
253.43025154138178
 20
269.47209390210236
 11
253.43025154138178
 21
268.45708885372312
  0
LINE
  8
_0-0_0
  6
CONTINUOUS
 62
    7
 10
253.43025154138178
 20
268.45708885372312
 11
253.43025154138178
 21
267.44264128850216
  0
LINE
  8
_0-0_0
  6
CONTINUOUS
 62
    7
 10
253.43025154138178
 20
267.44264128850216
 11
253.43025154138178
 21
266.42819372328114
  0
LINE
  8
_0-0_0
  6
CONTINUOUS
 62
    7
 10
253.43025154138178
 20
266.42819372328114
 11
253.43025154138178
 21
265.4131886749019
  0
LINE
  8
_0-0_0
  6
CONTINUOUS
 62
    7
 10
253.43025154138178
 20
265.4131886749019
 11
253.43025154138178
 21
264.39874110968094
  0
LINE
  8
_0-0_0
  6
CONTINUOUS
 62
    7
 10
253.43025154138178
 20
264.39874110968094
 11
253.43025154138178
 21
263.38429354445987
  0
LINE
  8
_0-0_0
  6
CONTINUOUS
 62
    7
 10
244.98917864360516
 20
202.22490034396236
 11
245.21975951193957
 21
201.99376199246979
  0
LINE
  8
_0-0_0
  6
CONTINUOUS
 62
    7
 10
245.21975951193957
 20
201.99376199246979
 11
245.45089786343215
 21
201.76262039979605
  0
LINE
  8
_0-0_0
  6
CONTINUOUS
 62
    7
 10
245.45089786343215
 20
201.76262039979605
 11
245.68148197294778
 21
201.5325970146198
  0
LINE
  8
_0-0_0
  6
CONTINUOUS
 62
    7
 10
245.68148197294778
 20
201.5325970146198
 11
245.91206284128219
 21
201.30145866312722
  0
LINE
  8
_0-0_0
  6
CONTINUOUS
 62
    7
 10
245.91206284128219
 20
201.30145866312722
 11
246.14264370961661
 21
201.07031707045348
  0
LINE
  8
_0-0_0
  6
CONTINUOUS
 62
    7
 10
246.14264370961661
 20
201.07031707045348
 11
246.37322457795102
 21
200.84029368527723
  0
LINE
  8
_0-0_0
  6
CONTINUOUS
 62
    7
 10
246.37322457795102
 20
200.84029368527723
 11
246.60436617062476
 21
200.6091553337846
  0
LINE
  8
_0-0_0
  6
CONTINUOUS
 62
    7
 10
246.60436617062476
 20
200.6091553337846
 11
246.83494703895923
 21
200.37801374111086
  0
LINE
  8
_0-0_0
  6
CONTINUOUS
 62
    7
 10
272.454069365561
 20
263.38429354445987
 11
272.454069365561
 21
264.39874110968094
  0
LINE
  8
_0-0_0
  6
CONTINUOUS
 62
    7
 10
272.454069365561
 20
264.39874110968094
 11
272.454069365561
 21
265.4131886749019
  0
LINE
  8
_0-0_0
  6
CONTINUOUS
 62
    7
 10
272.454069365561
 20
265.4131886749019
 11
272.454069365561
 21
266.42819372328114
  0
LINE
  8
_0-0_0
  6
CONTINUOUS
 62
    7
 10
272.454069365561
 20
266.42819372328114
 11
272.454069365561
 21
267.44264128850216
  0
LINE
  8
_0-0_0
  6
CONTINUOUS
 62
    7
 10
272.454069365561
 20
267.44264128850216
 11
272.454069365561
 21
268.45708885372312
  0
LINE
  8
_0-0_0
  6
CONTINUOUS
 62
    7
 10
272.454069365561
 20
268.45708885372312
 11
272.454069365561
 21
269.47209390210236
  0
LINE
  8
_0-0_0
  6
CONTINUOUS
 62
    7
 10
272.454069365561
 20
269.47209390210236
 11
272.454069365561
 21
270.48654146732338
  0
LINE
  8
_0-0_0
  6
CONTINUOUS
 62
    7
 10
272.454069365561
 20
270.48654146732338
 11
272.454069365561
 21
271.50098903254434
  0
LINE
  8
_0-0_0
  6
CONTINUOUS
 62
    7
 10
265.9754506257915
 20
201.74028866165878
 11
265.97656883328898
 21
201.74252183547247
  0
LINE
  8
_0-0_0
  6
CONTINUOUS
 62
    7
 10
265.97656883328898
 20
201.74252183547247
 11
265.97656883328898
 21
201.74475500928628
  0
LINE
  8
_0-0_0
  6
CONTINUOUS
 62
    7
 10
265.97656883328898
 20
201.74475500928628
 11
265.97768379960524
 21
201.74698818309997
  0
LINE
  8
_0-0_0
  6
CONTINUOUS
 62
    7
 10
265.97768379960524
 20
201.74698818309997
 11
265.97880200710273
 21
201.74922135691372
  0
LINE
  8
_0-0_0
  6
CONTINUOUS
 62
    7
 10
265.97880200710273
 20
201.74922135691372
 11
265.97880200710273
 21
201.75145453072741
  0
LINE
  8
_0-0_0
  6
CONTINUOUS
 62
    7
 10
265.97880200710273
 20
201.75145453072741
 11
265.97991697341899
 21
201.75368770454111
  0
LINE
  8
_0-0_0
  6
CONTINUOUS
 62
    7
 10
265.97991697341899
 20
201.75368770454111
 11
265.98103518091642
 21
201.75592087835491
  0
LINE
  8
_0-0_0
  6
CONTINUOUS
 62
    7
 10
265.98103518091642
 20
201.75592087835491
 11
265.98103518091642
 21
201.75815405216861
  0
LINE
  8
_0-0_0
  6
CONTINUOUS
 62
    7
 10
281.1737379892578
 20
260.82109618347295
 11
281.12348995785834
 21
260.85626948133444
  0
LINE
  8
_0-0_0
  6
CONTINUOUS
 62
    7
 10
281.12348995785834
 20
260.85626948133444
 11
281.07324192645888
 21
260.89088529603782
  0
LINE
  8
_0-0_0
  6
CONTINUOUS
 62
    7
 10
281.07324192645888
 20
260.89088529603782
 11
281.02299389505941
 21
260.92605859389931
  0
LINE
  8
_0-0_0
  6
CONTINUOUS
 62
    7
 10
281.02299389505941
 20
260.92605859389931
 11
280.97274586365995
 21
260.9612318917608
  0
LINE
  8
_0-0_0
  6
CONTINUOUS
 62
    7
 10
280.97274586365995
 20
260.9612318917608
 11
280.92249783226049
 21
260.99640518962235
  0
LINE
  8
_0-0_0
  6
CONTINUOUS
 62
    7
 10
280.92249783226049
 20
260.99640518962235
 11
280.87224980086103
 21
261.03157848748384
  0
LINE
  8
_0-0_0
  6
CONTINUOUS
 62
    7
 10
280.87224980086103
 20
261.03157848748384
 11
280.82311997695905
 21
261.06675502652649
  0
LINE
  8
_0-0_0
  6
CONTINUOUS
 62
    7
 10
280.82311997695905
 20
261.06675502652649
 11
280.77287194555959
 21
261.10192832438798
  0
LINE
  8
_0-0_0
  6
CONTINUOUS
 62
    7
 10
255.71373496895114
 20
261.10192832438798
 11
257.52042120197439
 21
261.10192832438798
  0
LINE
  8
_0-0_0
  6
CONTINUOUS
 62
    7
 10
257.52042120197439
 20
261.10192832438798
 11
259.32766815933695
 21
261.10192832438798
  0
LINE
  8
_0-0_0
  6
CONTINUOUS
 62
    7
 10
259.32766815933695
 20
261.10192832438798
 11
261.1349151166994
 21
261.10192832438798
  0
LINE
  8
_0-0_0
  6
CONTINUOUS
 62
    7
 10
261.1349151166994
 20
261.10192832438798
 11
262.94160134972265
 21
261.10192832438798
  0
LINE
  8
_0-0_0
  6
CONTINUOUS
 62
    7
 10
262.94160134972265
 20
261.10192832438798
 11
264.74828758274589
 21
261.10192832438798
  0
LINE
  8
_0-0_0
  6
CONTINUOUS
 62
    7
 10
264.74828758274589
 20
261.10192832438798
 11
266.55609202326661
 21
261.10192832438798
  0
LINE
  8
_0-0_0
  6
CONTINUOUS
 62
    7
 10
266.55609202326661
 20
261.10192832438798
 11
268.36389646378723
 21
261.10192832438798
  0
LINE
  8
_0-0_0
  6
CONTINUOUS
 62
    7
 10
268.36389646378723
 20
261.10192832438798
 11
270.17058593799163
 21
261.10192832438798
  0
LINE
  8
_0-0_0
  6
CONTINUOUS
 62
    7
 10
270.17058593799163
 20
273.78559066761113
 11
268.36389646378723
 21
273.78559066761113
  0
LINE
  8
_0-0_0
  6
CONTINUOUS
 62
    7
 10
268.36389646378723
 20
273.78559066761113
 11
266.55609202326661
 21
273.78559066761113
  0
LINE
  8
_0-0_0
  6
CONTINUOUS
 62
    7
 10
266.55609202326661
 20
273.78559066761113
 11
264.74828758274589
 21
273.78559066761113
  0
LINE
  8
_0-0_0
  6
CONTINUOUS
 62
    7
 10
264.74828758274589
 20
273.78559066761113
 11
262.94160134972265
 21
273.78559066761113
  0
LINE
  8
_0-0_0
  6
CONTINUOUS
 62
    7
 10
262.94160134972265
 20
273.78559066761113
 11
261.1349151166994
 21
273.78559066761113
  0
LINE
  8
_0-0_0
  6
CONTINUOUS
 62
    7
 10
261.1349151166994
 20
273.78559066761113
 11
259.32766815933695
 21
273.78559066761113
  0
LINE
  8
_0-0_0
  6
CONTINUOUS
 62
    7
 10
259.32766815933695
 20
273.78559066761113
 11
257.52042120197439
 21
273.78559066761113
  0
LINE
  8
_0-0_0
  6
CONTINUOUS
 62
    7
 10
257.52042120197439
 20
273.78559066761113
 11
255.71373496895114
 21
273.78559066761113
  0
LINE
  8
_0-0_0
  6
CONTINUOUS
 62
    7
 10
272.454069365561
 20
271.50098903254434
 11
272.40828768178892
 21
271.96159328605506
  0
LINE
  8
_0-0_0
  6
CONTINUOUS
 62
    7
 10
272.40828768178892
 20
271.96159328605506
 11
272.27429401178415
 21
272.39037562301547
  0
LINE
  8
_0-0_0
  6
CONTINUOUS
 62
    7
 10
272.27429401178415
 20
272.39037562301547
 11
272.06436919093142
 21
272.77840010698941
  0
LINE
  8
_0-0_0
  6
CONTINUOUS
 62
    7
 10
272.06436919093142
 20
272.77840010698941
 11
271.78633094816939
 21
273.1167340427221
  0
LINE
  8
_0-0_0
  6
CONTINUOUS
 62
    7
 10
271.78633094816939
 20
273.1167340427221
 11
271.4479970124367
 21
273.39589049298155
  0
LINE
  8
_0-0_0
  6
CONTINUOUS
 62
    7
 10
271.4479970124367
 20
273.39589049298155
 11
271.06053001162093
 21
273.60581207265318
  0
LINE
  8
_0-0_0
  6
CONTINUOUS
 62
    7
 10
271.06053001162093
 20
273.60581207265318
 11
270.63174767466052
 21
273.73924825949985
  0
LINE
  8
_0-0_0
  6
CONTINUOUS
 62
    7
 10
270.63174767466052
 20
273.73924825949985
 11
270.17058593799163
 21
273.78559066761113
  0
LINE
  8
_0-0_0
  6
CONTINUOUS
 62
    7
 10
255.71373496895114
 20
273.78559066761113
 11
255.25312747425926
 21
273.73924825949985
  0
LINE
  8
_0-0_0
  6
CONTINUOUS
 62
    7
 10
255.25312747425926
 20
273.73924825949985
 11
254.82434837848004
 21
273.60581207265318
  0
LINE
  8
_0-0_0
  6
CONTINUOUS
 62
    7
 10
254.82434837848004
 20
273.60581207265318
 11
254.43632389450607
 21
273.39589049298155
  0
LINE
  8
_0-0_0
  6
CONTINUOUS
 62
    7
 10
254.43632389450607
 20
273.39589049298155
 11
254.09854744193154
 21
273.1167340427221
  0
LINE
  8
_0-0_0
  6
CONTINUOUS
 62
    7
 10
254.09854744193154
 20
273.1167340427221
 11
253.8199484748302
 21
272.77840010698941
  0
LINE
  8
_0-0_0
  6
CONTINUOUS
 62
    7
 10
253.8199484748302
 20
272.77840010698941
 11
253.60946617081936
 21
272.39037562301547
  0
LINE
  8
_0-0_0
  6
CONTINUOUS
 62
    7
 10
253.60946617081936
 20
272.39037562301547
 11
253.47659070831193
 21
271.96159328605506
  0
LINE
  8
_0-0_0
  6
CONTINUOUS
 62
    7
 10
253.47659070831193
 20
271.96159328605506
 11
253.43025154138178
 21
271.50098903254434
  0
LINE
  8
_0-0_0
  6
CONTINUOUS
 62
    7
 10
253.43025154138178
 20
263.38429354445987
 11
253.47659070831193
 21
262.9242467741073
  0
LINE
  8
_0-0_0
  6
CONTINUOUS
 62
    7
 10
253.47659070831193
 20
262.9242467741073
 11
253.60946617081936
 21
262.49546443714689
  0
LINE
  8
_0-0_0
  6
CONTINUOUS
 62
    7
 10
253.60946617081936
 20
262.49546443714689
 11
253.8199484748302
 21
262.10800067751222
  0
LINE
  8
_0-0_0
  6
CONTINUOUS
 62
    7
 10
253.8199484748302
 20
262.10800067751222
 11
254.09854744193154
 21
261.77022422493769
  0
LINE
  8
_0-0_0
  6
CONTINUOUS
 62
    7
 10
254.09854744193154
 20
261.77022422493769
 11
254.43632389450607
 21
261.4916252578364
  0
LINE
  8
_0-0_0
  6
CONTINUOUS
 62
    7
 10
254.43632389450607
 20
261.4916252578364
 11
254.82434837848004
 21
261.28114295382551
  0
LINE
  8
_0-0_0
  6
CONTINUOUS
 62
    7
 10
254.82434837848004
 20
261.28114295382551
 11
255.25312747425926
 21
261.14826749131811
  0
LINE
  8
_0-0_0
  6
CONTINUOUS
 62
    7
 10
255.25312747425926
 20
261.14826749131811
 11
255.71373496895114
 21
261.10192832438798
  0
LINE
  8
_0-0_0
  6
CONTINUOUS
 62
    7
 10
270.17058593799163
 20
261.10192832438798
 11
270.63174767466052
 21
261.14826749131811
  0
LINE
  8
_0-0_0
  6
CONTINUOUS
 62
    7
 10
270.63174767466052
 20
261.14826749131811
 11
271.06053001162093
 21
261.28114295382551
  0
LINE
  8
_0-0_0
  6
CONTINUOUS
 62
    7
 10
271.06053001162093
 20
261.28114295382551
 11
271.4479970124367
 21
261.4916252578364
  0
LINE
  8
_0-0_0
  6
CONTINUOUS
 62
    7
 10
271.4479970124367
 20
261.4916252578364
 11
271.78633094816939
 21
261.77022422493769
  0
LINE
  8
_0-0_0
  6
CONTINUOUS
 62
    7
 10
271.78633094816939
 20
261.77022422493769
 11
272.06436919093142
 21
262.10800067751222
  0
LINE
  8
_0-0_0
  6
CONTINUOUS
 62
    7
 10
272.06436919093142
 20
262.10800067751222
 11
272.27429401178415
 21
262.49546443714689
  0
LINE
  8
_0-0_0
  6
CONTINUOUS
 62
    7
 10
272.27429401178415
 20
262.49546443714689
 11
272.40828768178892
 21
262.9242467741073
  0
LINE
  8
_0-0_0
  6
CONTINUOUS
 62
    7
 10
272.40828768178892
 20
262.9242467741073
 11
272.454069365561
 21
263.38429354445987
  0
LINE
  8
_0-0_0
  6
CONTINUOUS
 62
    7
 10
272.40270312666405
 20
272.04589964899981
 11
272.40158816034779
 21
272.04589964899981
  0
LINE
  8
_0-0_0
  6
CONTINUOUS
 62
    7
 10
272.40158816034779
 20
272.04589964899981
 11
272.39935498653409
 21
272.04589964899981
  0
LINE
  8
_0-0_0
  6
CONTINUOUS
 62
    7
 10
272.39935498653409
 20
272.04589964899981
 11
272.39823677903661
 21
272.04589964899981
  0
LINE
  8
_0-0_0
  6
CONTINUOUS
 62
    7
 10
272.39823677903661
 20
272.04589964899981
 11
272.39712181272034
 21
272.04589964899981
  0
LINE
  8
_0-0_0
  6
CONTINUOUS
 62
    7
 10
272.39712181272034
 20
272.04589964899981
 11
272.39488863890665
 21
272.04589964899981
  0
LINE
  8
_0-0_0
  6
CONTINUOUS
 62
    7
 10
272.39488863890665
 20
272.04589964899981
 11
272.39377043140917
 21
272.04589964899981
  0
LINE
  8
_0-0_0
  6
CONTINUOUS
 62
    7
 10
272.39377043140917
 20
272.04589964899981
 11
272.3926554650929
 21
272.04589964899981
  0
LINE
  8
_0-0_0
  6
CONTINUOUS
 62
    7
 10
272.3926554650929
 20
272.04589964899981
 11
272.39042229127915
 21
272.04589964899981
  0
LINE
  8
_0-0_0
  6
CONTINUOUS
 62
    7
 10
272.39042229127915
 20
262.84720065694307
 11
272.3926554650929
 21
262.84720065694307
  0
LINE
  8
_0-0_0
  6
CONTINUOUS
 62
    7
 10
272.3926554650929
 20
262.84720065694307
 11
272.39488863890665
 21
262.84720065694307
  0
LINE
  8
_0-0_0
  6
CONTINUOUS
 62
    7
 10
272.39488863890665
 20
262.84720065694307
 11
272.39712181272034
 21
262.84720065694307
  0
LINE
  8
_0-0_0
  6
CONTINUOUS
 62
    7
 10
272.39712181272034
 20
262.84720065694307
 11
272.39935498653409
 21
262.84720065694307
  0
LINE
  8
_0-0_0
  6
CONTINUOUS
 62
    7
 10
272.39935498653409
 20
262.84720065694307
 11
272.40158816034779
 21
262.84720065694307
  0
LINE
  8
_0-0_0
  6
CONTINUOUS
 62
    7
 10
272.40158816034779
 20
262.84720065694307
 11
272.40382133416153
 21
262.84720065694307
  0
LINE
  8
_0-0_0
  6
CONTINUOUS
 62
    7
 10
272.40382133416153
 20
262.84720065694307
 11
272.40605450797523
 21
262.84720065694307
  0
LINE
  8
_0-0_0
  6
CONTINUOUS
 62
    7
 10
272.40605450797523
 20
262.84720065694307
 11
272.40828768178892
 21
262.84720065694307
  0
LINE
  8
_0-0_0
  6
CONTINUOUS
 62
    7
 10
271.71039979732149
 20
261.69875942171728
 11
271.71933573375759
 21
261.69875942171728
  0
LINE
  8
_0-0_0
  6
CONTINUOUS
 62
    7
 10
271.71933573375759
 20
261.69875942171728
 11
271.72826842901247
 21
261.69875942171728
  0
LINE
  8
_0-0_0
  6
CONTINUOUS
 62
    7
 10
271.72826842901247
 20
261.69875942171728
 11
271.73720112426736
 21
261.69875942171728
  0
LINE
  8
_0-0_0
  6
CONTINUOUS
 62
    7
 10
271.73720112426736
 20
261.69875942171728
 11
271.7461338195223
 21
261.69875942171728
  0
LINE
  8
_0-0_0
  6
CONTINUOUS
 62
    7
 10
271.7461338195223
 20
261.69875942171728
 11
271.75506651477718
 21
261.69875942171728
  0
LINE
  8
_0-0_0
  6
CONTINUOUS
 62
    7
 10
271.75506651477718
 20
261.69875942171728
 11
271.76399921003213
 21
261.69875942171728
  0
LINE
  8
_0-0_0
  6
CONTINUOUS
 62
    7
 10
271.76399921003213
 20
261.69875942171728
 11
271.77293190528707
 21
261.69875942171728
  0
LINE
  8
_0-0_0
  6
CONTINUOUS
 62
    7
 10
271.77293190528707
 20
261.69875942171728
 11
271.78186460054189
 21
261.69875942171728
  0
LINE
  8
_0-0_0
  6
CONTINUOUS
 62
    7
 10
281.14024038205184
 20
207.83032219311499
 11
281.14024038205184
 21
207.16035060190961
  0
LINE
  8
_0-0_0
  6
CONTINUOUS
 62
    7
 10
281.14024038205184
 20
207.16035060190961
 11
281.14024038205184
 21
206.49038225188542
  0
LINE
  8
_0-0_0
  6
CONTINUOUS
 62
    7
 10
281.14024038205184
 20
206.49038225188542
 11
281.14024038205184
 21
205.82041066068012
  0
LINE
  8
_0-0_0
  6
CONTINUOUS
 62
    7
 10
281.14024038205184
 20
205.82041066068012
 11
281.14024038205184
 21
205.15155727697231
  0
LINE
  8
_0-0_0
  6
CONTINUOUS
 62
    7
 10
281.14024038205184
 20
205.15155727697231
 11
281.14024038205184
 21
204.48270065208322
  0
LINE
  8
_0-0_0
  6
CONTINUOUS
 62
    7
 10
281.14024038205184
 20
204.48270065208322
 11
281.14024038205184
 21
203.81273230205909
  0
LINE
  8
_0-0_0
  6
CONTINUOUS
 62
    7
 10
281.14024038205184
 20
203.81273230205909
 11
281.14024038205184
 21
203.14276071085379
  0
LINE
  8
_0-0_0
  6
CONTINUOUS
 62
    7
 10
281.14024038205184
 20
203.14276071085379
 11
281.14024038205184
 21
202.4727891196485
  0
LINE
  8
_0-0_0
  6
CONTINUOUS
 62
    7
 10
281.14024038205184
 20
202.4727891196485
 11
280.87894932230222
 21
202.21150130108003
  0
LINE
  8
_0-0_0
  6
CONTINUOUS
 62
    7
 10
280.87894932230222
 20
202.21150130108003
 11
280.61766150373376
 21
201.94909527501409
  0
LINE
  8
_0-0_0
  6
CONTINUOUS
 62
    7
 10
280.61766150373376
 20
201.94909527501409
 11
280.35637368516524
 21
201.68668924894814
  0
LINE
  8
_0-0_0
  6
CONTINUOUS
 62
    7
 10
280.35637368516524
 20
201.68668924894814
 11
280.09508586659678
 21
201.42540143037968
  0
LINE
  8
_0-0_0
  6
CONTINUOUS
 62
    7
 10
280.09508586659678
 20
201.42540143037968
 11
279.8337948068471
 21
201.16411361181122
  0
LINE
  8
_0-0_0
  6
CONTINUOUS
 62
    7
 10
279.8337948068471
 20
201.16411361181122
 11
279.57250698827869
 21
200.90170758574527
  0
LINE
  8
_0-0_0
  6
CONTINUOUS
 62
    7
 10
279.57250698827869
 20
200.90170758574527
 11
279.31121916971023
 21
200.63930480086049
  0
LINE
  8
_0-0_0
  6
CONTINUOUS
 62
    7
 10
279.31121916971023
 20
200.63930480086049
 11
279.05104631745797
 21
200.37801374111086
  0
LINE
  8
_0-0_0
  6
CONTINUOUS
 62
    7
 10
281.14024038205184
 20
229.38551222054957
 11
281.14024038205184
 21
228.15723421118764
  0
LINE
  8
_0-0_0
  6
CONTINUOUS
 62
    7
 10
281.14024038205184
 20
228.15723421118764
 11
281.14024038205184
 21
226.92895296064455
  0
LINE
  8
_0-0_0
  6
CONTINUOUS
 62
    7
 10
281.14024038205184
 20
226.92895296064455
 11
281.14024038205184
 21
225.70067495128262
  0
LINE
  8
_0-0_0
  6
CONTINUOUS
 62
    7
 10
281.14024038205184
 20
225.70067495128262
 11
281.14024038205184
 21
224.47127873442327
  0
LINE
  8
_0-0_0
  6
CONTINUOUS
 62
    7
 10
281.14024038205184
 20
224.47127873442327
 11
281.14024038205184
 21
223.24188251756397
  0
LINE
  8
_0-0_0
  6
CONTINUOUS
 62
    7
 10
281.14024038205184
 20
223.24188251756397
 11
281.14024038205184
 21
222.01360126702087
  0
LINE
  8
_0-0_0
  6
CONTINUOUS
 62
    7
 10
281.14024038205184
 20
222.01360126702087
 11
281.14024038205184
 21
220.78532325765894
  0
LINE
  8
_0-0_0
  6
CONTINUOUS
 62
    7
 10
281.14024038205184
 20
220.78532325765894
 11
281.14024038205184
 21
219.55704200711585
  0
LINE
  8
_0-0_0
  6
CONTINUOUS
 62
    7
 10
281.14024038205184
 20
242.83740904396325
 11
281.14024038205184
 21
241.25069529336389
  0
LINE
  8
_0-0_0
  6
CONTINUOUS
 62
    7
 10
281.14024038205184
 20
241.25069529336389
 11
281.14024038205184
 21
239.66453902592275
  0
LINE
  8
_0-0_0
  6
CONTINUOUS
 62
    7
 10
281.14024038205184
 20
239.66453902592275
 11
281.14024038205184
 21
238.07838275848167
  0
LINE
  8
_0-0_0
  6
CONTINUOUS
 62
    7
 10
281.14024038205184
 20
238.07838275848167
 11
281.14024038205184
 21
236.49166900788231
  0
LINE
  8
_0-0_0
  6
CONTINUOUS
 62
    7
 10
281.14024038205184
 20
236.49166900788231
 11
281.14024038205184
 21
234.90607346478055
  0
LINE
  8
_0-0_0
  6
CONTINUOUS
 62
    7
 10
281.14024038205184
 20
234.90607346478055
 11
281.14024038205184
 21
233.31935647300003
  0
LINE
  8
_0-0_0
  6
CONTINUOUS
 62
    7
 10
281.14024038205184
 20
233.31935647300003
 11
281.14024038205184
 21
231.73264272240073
  0
LINE
  8
_0-0_0
  6
CONTINUOUS
 62
    7
 10
281.14024038205184
 20
231.73264272240073
 11
281.14024038205184
 21
230.14704717929891
  0
LINE
  8
_0-0_0
  6
CONTINUOUS
 62
    7
 10
281.14024038205184
 20
260.82109618347295
 11
281.14024038205184
 21
260.15838483804811
  0
LINE
  8
_0-0_0
  6
CONTINUOUS
 62
    7
 10
281.14024038205184
 20
260.15838483804811
 11
281.14024038205184
 21
259.49623097578137
  0
LINE
  8
_0-0_0
  6
CONTINUOUS
 62
    7
 10
281.14024038205184
 20
259.49623097578137
 11
281.14024038205184
 21
258.83351638917543
  0
LINE
  8
_0-0_0
  6
CONTINUOUS
 62
    7
 10
281.14024038205184
 20
258.83351638917543
 11
281.14024038205184
 21
258.17080504375059
  0
LINE
  8
_0-0_0
  6
CONTINUOUS
 62
    7
 10
281.14024038205184
 20
258.17080504375059
 11
281.14024038205184
 21
257.50809369832581
  0
LINE
  8
_0-0_0
  6
CONTINUOUS
 62
    7
 10
281.14024038205184
 20
257.50809369832581
 11
281.14024038205184
 21
256.84537911171981
  0
LINE
  8
_0-0_0
  6
CONTINUOUS
 62
    7
 10
281.14024038205184
 20
256.84537911171981
 11
281.14024038205184
 21
256.18322524945313
  0
LINE
  8
_0-0_0
  6
CONTINUOUS
 62
    7
 10
281.14024038205184
 20
256.18322524945313
 11
281.14024038205184
 21
255.52051390402829
  0
LINE
  8
_0-0_0
  6
CONTINUOUS
 62
    7
 10
244.68601476455279
 20
207.83032219311499
 11
244.68601476455279
 21
207.16035060190961
  0
LINE
  8
_0-0_0
  6
CONTINUOUS
 62
    7
 10
244.68601476455279
 20
207.16035060190961
 11
244.68601476455279
 21
206.49038225188542
  0
LINE
  8
_0-0_0
  6
CONTINUOUS
 62
    7
 10
244.68601476455279
 20
206.49038225188542
 11
244.68601476455279
 21
205.82041066068012
  0
LINE
  8
_0-0_0
  6
CONTINUOUS
 62
    7
 10
244.68601476455279
 20
205.82041066068012
 11
244.68601476455279
 21
205.15155727697231
  0
LINE
  8
_0-0_0
  6
CONTINUOUS
 62
    7
 10
244.68601476455279
 20
205.15155727697231
 11
244.68601476455279
 21
204.48270065208322
  0
LINE
  8
_0-0_0
  6
CONTINUOUS
 62
    7
 10
244.68601476455279
 20
204.48270065208322
 11
244.68601476455279
 21
203.81273230205909
  0
LINE
  8
_0-0_0
  6
CONTINUOUS
 62
    7
 10
244.68601476455279
 20
203.81273230205909
 11
244.68601476455279
 21
203.14276071085379
  0
LINE
  8
_0-0_0
  6
CONTINUOUS
 62
    7
 10
244.68601476455279
 20
203.14276071085379
 11
244.68601476455279
 21
202.4727891196485
  0
LINE
  8
_0-0_0
  6
CONTINUOUS
 62
    7
 10
244.68601476455279
 20
229.3989112634319
 11
244.68601476455279
 21
228.16281552513138
  0
LINE
  8
_0-0_0
  6
CONTINUOUS
 62
    7
 10
244.68601476455279
 20
228.16281552513138
 11
244.68601476455279
 21
226.92671978683086
  0
LINE
  8
_0-0_0
  6
CONTINUOUS
 62
    7
 10
244.68601476455279
 20
226.92671978683086
 11
244.68601476455279
 21
225.68950908221399
  0
LINE
  8
_0-0_0
  6
CONTINUOUS
 62
    7
 10
244.68601476455279
 20
225.68950908221399
 11
244.68601476455279
 21
224.45341334391344
  0
LINE
  8
_0-0_0
  6
CONTINUOUS
 62
    7
 10
244.68601476455279
 20
224.45341334391344
 11
244.68601476455279
 21
223.21731760561289
  0
LINE
  8
_0-0_0
  6
CONTINUOUS
 62
    7
 10
244.68601476455279
 20
223.21731760561289
 11
244.68601476455279
 21
221.98010365981497
  0
LINE
  8
_0-0_0
  6
CONTINUOUS
 62
    7
 10
244.68601476455279
 20
221.98010365981497
 11
244.68601476455279
 21
220.74400792151442
  0
LINE
  8
_0-0_0
  6
CONTINUOUS
 62
    7
 10
244.68601476455279
 20
220.74400792151442
 11
244.68601476455279
 21
219.50791218321388
  0
LINE
  8
_0-0_0
  6
CONTINUOUS
 62
    7
 10
244.68601476455279
 20
242.79441801716314
 11
244.68601476455279
 21
241.21496127116313
  0
LINE
  8
_0-0_0
  6
CONTINUOUS
 62
    7
 10
244.68601476455279
 20
241.21496127116313
 11
244.68601476455279
 21
239.63606524950248
  0
LINE
  8
_0-0_0
  6
CONTINUOUS
 62
    7
 10
244.68601476455279
 20
239.63606524950248
 11
244.68601476455279
 21
238.05716598666061
  0
LINE
  8
_0-0_0
  6
CONTINUOUS
 62
    7
 10
244.68601476455279
 20
238.05716598666061
 11
244.68601476455279
 21
236.47715175750255
  0
LINE
  8
_0-0_0
  6
CONTINUOUS
 62
    7
 10
244.68601476455279
 20
236.47715175750255
 11
244.68601476455279
 21
234.89713752834444
  0
LINE
  8
_0-0_0
  6
CONTINUOUS
 62
    7
 10
244.68601476455279
 20
234.89713752834444
 11
244.68601476455279
 21
233.31824150668371
  0
LINE
  8
_0-0_0
  6
CONTINUOUS
 62
    7
 10
244.68601476455279
 20
233.31824150668371
 11
244.68601476455279
 21
231.73934224384192
  0
LINE
  8
_0-0_0
  6
CONTINUOUS
 62
    7
 10
244.68601476455279
 20
231.73934224384192
 11
244.68601476455279
 21
230.15932801468381
  0
LINE
  8
_0-0_0
  6
CONTINUOUS
 62
    7
 10
247.38209082922833
 20
271.76116188479659
 11
247.38209082922833
 21
270.72940641222385
  0
LINE
  8
_0-0_0
  6
CONTINUOUS
 62
    7
 10
247.38209082922833
 20
270.72940641222385
 11
247.38209082922833
 21
269.69709345649301
  0
LINE
  8
_0-0_0
  6
CONTINUOUS
 62
    7
 10
247.38209082922833
 20
269.69709345649301
 11
247.38209082922833
 21
268.66478050076211
  0
LINE
  8
_0-0_0
  6
CONTINUOUS
 62
    7
 10
247.38209082922833
 20
268.66478050076211
 11
247.38209082922833
 21
267.63302502818948
  0
LINE
  8
_0-0_0
  6
CONTINUOUS
 62
    7
 10
247.38209082922833
 20
267.63302502818948
 11
247.38209082922833
 21
266.60126955561674
  0
LINE
  8
_0-0_0
  6
CONTINUOUS
 62
    7
 10
247.38209082922833
 20
266.60126955561674
 11
247.38209082922833
 21
265.56895659988589
  0
LINE
  8
_0-0_0
  6
CONTINUOUS
 62
    7
 10
247.38209082922833
 20
265.56895659988589
 11
247.38209082922833
 21
264.53664364415499
  0
LINE
  8
_0-0_0
  6
CONTINUOUS
 62
    7
 10
247.38209082922833
 20
264.53664364415499
 11
247.38209082922833
 21
263.50488817158237
  0
LINE
  8
_0-0_0
  6
CONTINUOUS
 62
    7
 10
247.38209082922833
 20
263.50488817158237
 11
247.37036423582043
 21
263.20284250002743
  0
LINE
  8
_0-0_0
  6
CONTINUOUS
 62
    7
 10
247.37036423582043
 20
263.20284250002743
 11
247.33016710717334
 21
262.83714975419082
  0
LINE
  8
_0-0_0
  6
CONTINUOUS
 62
    7
 10
247.33016710717334
 20
262.83714975419082
 11
247.25312099000905
 21
262.44075329930121
  0
LINE
  8
_0-0_0
  6
CONTINUOUS
 62
    7
 10
247.25312099000905
 20
262.44075329930121
 11
247.13085067223108
 21
262.04379287889111
  0
LINE
  8
_0-0_0
  6
CONTINUOUS
 62
    7
 10
247.13085067223108
 20
262.04379287889111
 11
246.95498418292351
 21
261.67977582370997
  0
LINE
  8
_0-0_0
  6
CONTINUOUS
 62
    7
 10
246.95498418292351
 20
261.67977582370997
 11
246.71658558565048
 21
261.37996332596879
  0
LINE
  8
_0-0_0
  6
CONTINUOUS
 62
    7
 10
246.71658558565048
 20
261.37996332596879
 11
246.40784039265441
 21
261.17674126773841
  0
LINE
  8
_0-0_0
  6
CONTINUOUS
 62
    7
 10
246.40784039265441
 20
261.17674126773841
 11
246.02037339183858
 21
261.10192832438798
  0
LINE
  8
_0-0_0
  6
CONTINUOUS
 62
    7
 10
246.02037339183858
 20
261.10192832438798
 11
245.85343959778595
 21
261.10192832438798
  0
LINE
  8
_0-0_0
  6
CONTINUOUS
 62
    7
 10
245.85343959778595
 20
261.10192832438798
 11
245.68650580373338
 21
261.10192832438798
  0
LINE
  8
_0-0_0
  6
CONTINUOUS
 62
    7
 10
245.68650580373338
 20
261.10192832438798
 11
245.52012949283886
 21
261.10192832438798
  0
LINE
  8
_0-0_0
  6
CONTINUOUS
 62
    7
 10
245.52012949283886
 20
261.10192832438798
 11
245.35319569878629
 21
261.10192832438798
  0
LINE
  8
_0-0_0
  6
CONTINUOUS
 62
    7
 10
245.35319569878629
 20
261.10192832438798
 11
245.18626190473367
 21
261.10192832438798
  0
LINE
  8
_0-0_0
  6
CONTINUOUS
 62
    7
 10
245.18626190473367
 20
261.10192832438798
 11
245.01988559383921
 21
261.10192832438798
  0
LINE
  8
_0-0_0
  6
CONTINUOUS
 62
    7
 10
245.01988559383921
 20
261.10192832438798
 11
244.85295179978658
 21
261.10192832438798
  0
LINE
  8
_0-0_0
  6
CONTINUOUS
 62
    7
 10
244.85295179978658
 20
261.10192832438798
 11
244.68601476455279
 21
261.10192832438798
  0
LINE
  8
_0-0_0
  6
CONTINUOUS
 62
    7
 10
244.68601476455279
 20
261.10192832438798
 11
244.68601476455279
 21
260.40404043992049
  0
LINE
  8
_0-0_0
  6
CONTINUOUS
 62
    7
 10
244.68601476455279
 20
260.40404043992049
 11
244.68601476455279
 21
259.70671327979233
  0
LINE
  8
_0-0_0
  6
CONTINUOUS
 62
    7
 10
244.68601476455279
 20
259.70671327979233
 11
244.68601476455279
 21
259.0093861196641
  0
LINE
  8
_0-0_0
  6
CONTINUOUS
 62
    7
 10
244.68601476455279
 20
259.0093861196641
 11
244.68601476455279
 21
258.31149823519661
  0
LINE
  8
_0-0_0
  6
CONTINUOUS
 62
    7
 10
244.68601476455279
 20
258.31149823519661
 11
244.68601476455279
 21
257.61361359191028
  0
LINE
  8
_0-0_0
  6
CONTINUOUS
 62
    7
 10
244.68601476455279
 20
257.61361359191028
 11
244.68601476455279
 21
256.91572570744285
  0
LINE
  8
_0-0_0
  6
CONTINUOUS
 62
    7
 10
244.68601476455279
 20
256.91572570744285
 11
244.68601476455279
 21
256.2178410641564
  0
LINE
  8
_0-0_0
  6
CONTINUOUS
 62
    7
 10
244.68601476455279
 20
256.2178410641564
 11
244.68601476455279
 21
255.52051390402829
  0
LINE
  8
_0-0_0
  6
CONTINUOUS
 62
    7
 10
247.38209082922833
 20
271.38150937173816
 11
247.37036423582043
 21
271.6835550432931
  0
LINE
  8
_0-0_0
  6
CONTINUOUS
 62
    7
 10
247.37036423582043
 20
271.6835550432931
 11
247.33016710717334
 21
272.04924778912971
  0
LINE
  8
_0-0_0
  6
CONTINUOUS
 62
    7
 10
247.33016710717334
 20
272.04924778912971
 11
247.25312099000905
 21
272.44676569269791
  0
LINE
  8
_0-0_0
  6
CONTINUOUS
 62
    7
 10
247.25312099000905
 20
272.44676569269791
 11
247.13085067223108
 21
272.84316214758752
  0
LINE
  8
_0-0_0
  6
CONTINUOUS
 62
    7
 10
247.13085067223108
 20
272.84316214758752
 11
246.95498418292351
 21
273.20773992710804
  0
LINE
  8
_0-0_0
  6
CONTINUOUS
 62
    7
 10
246.95498418292351
 20
273.20773992710804
 11
246.71658558565048
 21
273.50755242484917
  0
LINE
  8
_0-0_0
  6
CONTINUOUS
 62
    7
 10
246.71658558565048
 20
273.50755242484917
 11
246.40784039265441
 21
273.71077448307949
  0
LINE
  8
_0-0_0
  6
CONTINUOUS
 62
    7
 10
246.40784039265441
 20
273.71077448307949
 11
246.02037339183858
 21
273.78559066761113
  0
LINE
  8
_0-0_0
  6
CONTINUOUS
 62
    7
 10
246.02037339183858
 20
273.78559066761113
 11
245.87298067895136
 21
273.78559066761113
  0
LINE
  8
_0-0_0
  6
CONTINUOUS
 62
    7
 10
245.87298067895136
 20
273.78559066761113
 11
245.72558796606415
 21
273.78559066761113
  0
LINE
  8
_0-0_0
  6
CONTINUOUS
 62
    7
 10
245.72558796606415
 20
273.78559066761113
 11
245.57819201199584
 21
273.78559066761113
  0
LINE
  8
_0-0_0
  6
CONTINUOUS
 62
    7
 10
245.57819201199584
 20
273.78559066761113
 11
245.43079929910863
 21
273.78559066761113
  0
LINE
  8
_0-0_0
  6
CONTINUOUS
 62
    7
 10
245.43079929910863
 20
273.78559066761113
 11
245.28340658622142
 21
273.78559066761113
  0
LINE
  8
_0-0_0
  6
CONTINUOUS
 62
    7
 10
245.28340658622142
 20
273.78559066761113
 11
245.13601387333421
 21
273.78559066761113
  0
LINE
  8
_0-0_0
  6
CONTINUOUS
 62
    7
 10
245.13601387333421
 20
273.78559066761113
 11
244.98861791926589
 21
273.78559066761113
  0
LINE
  8
_0-0_0
  6
CONTINUOUS
 62
    7
 10
244.98861791926589
 20
273.78559066761113
 11
244.84178268953679
 21
273.78559066761113
  0
LINE
  8
_0-0_0
  6
CONTINUOUS
 62
    7
 10
244.84178268953679
 20
273.78559066761113
 11
244.82559298968255
 21
273.79675653667982
  0
LINE
  8
_0-0_0
  6
CONTINUOUS
 62
    7
 10
244.82559298968255
 20
273.79675653667982
 11
244.80884256548904
 21
273.80792240574846
  0
LINE
  8
_0-0_0
  6
CONTINUOUS
 62
    7
 10
244.80884256548904
 20
273.80792240574846
 11
244.79265286563481
 21
273.81908827481709
  0
LINE
  8
_0-0_0
  6
CONTINUOUS
 62
    7
 10
244.79265286563481
 20
273.81908827481709
 11
244.77646316578051
 21
273.83025414388572
  0
LINE
  8
_0-0_0
  6
CONTINUOUS
 62
    7
 10
244.77646316578051
 20
273.83025414388572
 11
244.76027022474517
 21
273.84142001295436
  0
LINE
  8
_0-0_0
  6
CONTINUOUS
 62
    7
 10
244.76027022474517
 20
273.84142001295436
 11
244.74408052489093
 21
273.85258588202299
  0
LINE
  8
_0-0_0
  6
CONTINUOUS
 62
    7
 10
244.74408052489093
 20
273.85258588202299
 11
244.72788758385553
 21
273.86375175109163
  0
LINE
  8
_0-0_0
  6
CONTINUOUS
 62
    7
 10
244.72788758385553
 20
273.86375175109163
 11
244.7116978840013
 21
273.87547834449953
  0
LINE
  8
_0-0_0
  6
CONTINUOUS
 62
    7
 10
244.7116978840013
 20
273.87547834449953
 11
244.7116978840013
 21
274.24340102296884
  0
LINE
  8
_0-0_0
  6
CONTINUOUS
 62
    7
 10
244.7116978840013
 20
274.24340102296884
 11
244.7116978840013
 21
274.61188766695852
  0
LINE
  8
_0-0_0
  6
CONTINUOUS
 62
    7
 10
244.7116978840013
 20
274.61188766695852
 11
244.7116978840013
 21
274.97981034542784
  0
LINE
  8
_0-0_0
  6
CONTINUOUS
 62
    7
 10
244.7116978840013
 20
274.97981034542784
 11
244.7116978840013
 21
275.34773626507831
  0
LINE
  8
_0-0_0
  6
CONTINUOUS
 62
    7
 10
244.7116978840013
 20
275.34773626507831
 11
244.7116978840013
 21
275.71622290906799
  0
LINE
  8
_0-0_0
  6
CONTINUOUS
 62
    7
 10
244.7116978840013
 20
275.71622290906799
 11
244.7116978840013
 21
276.08414558753725
  0
LINE
  8
_0-0_0
  6
CONTINUOUS
 62
    7
 10
244.7116978840013
 20
276.08414558753725
 11
244.7116978840013
 21
276.45207150718772
  0
LINE
  8
_0-0_0
  6
CONTINUOUS
 62
    7
 10
244.7116978840013
 20
276.45207150718772
 11
244.7116978840013
 21
276.8205549099963
  0
LINE
  8
_0-0_0
  6
CONTINUOUS
 62
    7
 10
278.43467413896332
 20
271.76116188479659
 11
278.43467413896332
 21
270.72940641222385
  0
LINE
  8
_0-0_0
  6
CONTINUOUS
 62
    7
 10
278.43467413896332
 20
270.72940641222385
 11
278.43467413896332
 21
269.69709345649301
  0
LINE
  8
_0-0_0
  6
CONTINUOUS
 62
    7
 10
278.43467413896332
 20
269.69709345649301
 11
278.43467413896332
 21
268.66478050076211
  0
LINE
  8
_0-0_0
  6
CONTINUOUS
 62
    7
 10
278.43467413896332
 20
268.66478050076211
 11
278.43467413896332
 21
267.63302502818948
  0
LINE
  8
_0-0_0
  6
CONTINUOUS
 62
    7
 10
278.43467413896332
 20
267.63302502818948
 11
278.43467413896332
 21
266.60126955561674
  0
LINE
  8
_0-0_0
  6
CONTINUOUS
 62
    7
 10
278.43467413896332
 20
266.60126955561674
 11
278.43467413896332
 21
265.56895659988589
  0
LINE
  8
_0-0_0
  6
CONTINUOUS
 62
    7
 10
278.43467413896332
 20
265.56895659988589
 11
278.43467413896332
 21
264.53664364415499
  0
LINE
  8
_0-0_0
  6
CONTINUOUS
 62
    7
 10
278.43467413896332
 20
264.53664364415499
 11
278.43467413896332
 21
263.50488817158237
  0
LINE
  8
_0-0_0
  6
CONTINUOUS
 62
    7
 10
278.43467413896332
 20
263.50488817158237
 11
278.44584000803195
 21
263.20284250002743
  0
LINE
  8
_0-0_0
  6
CONTINUOUS
 62
    7
 10
278.44584000803195
 20
263.20284250002743
 11
278.48715534417647
 21
262.83714975419082
  0
LINE
  8
_0-0_0
  6
CONTINUOUS
 62
    7
 10
278.48715534417647
 20
262.83714975419082
 11
278.5642014613407
 21
262.44075329930121
  0
LINE
  8
_0-0_0
  6
CONTINUOUS
 62
    7
 10
278.5642014613407
 20
262.44075329930121
 11
278.68702926227689
 21
262.04379287889111
  0
LINE
  8
_0-0_0
  6
CONTINUOUS
 62
    7
 10
278.68702926227689
 20
262.04379287889111
 11
278.86345647592373
 21
261.67977582370997
  0
LINE
  8
_0-0_0
  6
CONTINUOUS
 62
    7
 10
278.86345647592373
 20
261.67977582370997
 11
279.10129434885744
 21
261.37996332596879
  0
LINE
  8
_0-0_0
  6
CONTINUOUS
 62
    7
 10
279.10129434885744
 20
261.37996332596879
 11
279.41059702501167
 21
261.17674126773841
  0
LINE
  8
_0-0_0
  6
CONTINUOUS
 62
    7
 10
279.41059702501167
 20
261.17674126773841
 11
279.79694905951123
 21
261.10192832438798
  0
LINE
  8
_0-0_0
  6
CONTINUOUS
 62
    7
 10
279.79694905951123
 20
261.10192832438798
 11
279.91865865294994
 21
261.10192832438798
  0
LINE
  8
_0-0_0
  6
CONTINUOUS
 62
    7
 10
279.91865865294994
 20
261.10192832438798
 11
280.04148645388614
 21
261.10192832438798
  0
LINE
  8
_0-0_0
  6
CONTINUOUS
 62
    7
 10
280.04148645388614
 20
261.10192832438798
 11
280.16319928850606
 21
261.10192832438798
  0
LINE
  8
_0-0_0
  6
CONTINUOUS
 62
    7
 10
280.16319928850606
 20
261.10192832438798
 11
280.28490888194483
 21
261.10192832438798
  0
LINE
  8
_0-0_0
  6
CONTINUOUS
 62
    7
 10
280.28490888194483
 20
261.10192832438798
 11
280.4066217165647
 21
261.10192832438798
  0
LINE
  8
_0-0_0
  6
CONTINUOUS
 62
    7
 10
280.4066217165647
 20
261.10192832438798
 11
280.52833131000347
 21
261.10192832438798
  0
LINE
  8
_0-0_0
  6
CONTINUOUS
 62
    7
 10
280.52833131000347
 20
261.10192832438798
 11
280.65115911093966
 21
261.10192832438798
  0
LINE
  8
_0-0_0
  6
CONTINUOUS
 62
    7
 10
280.65115911093966
 20
261.10192832438798
 11
280.77287194555959
 21
261.10192832438798
  0
LINE
  8
_0-0_0
  6
CONTINUOUS
 62
    7
 10
278.43467413896332
 20
271.38150937173816
 11
278.44584000803195
 21
271.6835550432931
  0
LINE
  8
_0-0_0
  6
CONTINUOUS
 62
    7
 10
278.44584000803195
 20
271.6835550432931
 11
278.48715534417647
 21
272.04924778912971
  0
LINE
  8
_0-0_0
  6
CONTINUOUS
 62
    7
 10
278.48715534417647
 20
272.04924778912971
 11
278.5642014613407
 21
272.44676569269791
  0
LINE
  8
_0-0_0
  6
CONTINUOUS
 62
    7
 10
278.5642014613407
 20
272.44676569269791
 11
278.68702926227689
 21
272.84316214758752
  0
LINE
  8
_0-0_0
  6
CONTINUOUS
 62
    7
 10
278.68702926227689
 20
272.84316214758752
 11
278.86345647592373
 21
273.20773992710804
  0
LINE
  8
_0-0_0
  6
CONTINUOUS
 62
    7
 10
278.86345647592373
 20
273.20773992710804
 11
279.10129434885744
 21
273.50755242484917
  0
LINE
  8
_0-0_0
  6
CONTINUOUS
 62
    7
 10
279.10129434885744
 20
273.50755242484917
 11
279.41059702501167
 21
273.71077448307949
  0
LINE
  8
_0-0_0
  6
CONTINUOUS
 62
    7
 10
279.41059702501167
 20
273.71077448307949
 11
279.79694905951123
 21
273.78559066761113
  0
LINE
  8
_0-0_0
  6
CONTINUOUS
 62
    7
 10
279.79694905951123
 20
273.78559066761113
 11
279.94322356490096
 21
273.78559066761113
  0
LINE
  8
_0-0_0
  6
CONTINUOUS
 62
    7
 10
279.94322356490096
 20
273.78559066761113
 11
280.09061951896933
 21
273.78559066761113
  0
LINE
  8
_0-0_0
  6
CONTINUOUS
 62
    7
 10
280.09061951896933
 20
273.78559066761113
 11
280.23801223185649
 21
273.78559066761113
  0
LINE
  8
_0-0_0
  6
CONTINUOUS
 62
    7
 10
280.23801223185649
 20
273.78559066761113
 11
280.38540494474375
 21
273.78559066761113
  0
LINE
  8
_0-0_0
  6
CONTINUOUS
 62
    7
 10
280.38540494474375
 20
273.78559066761113
 11
280.53279765763091
 21
273.78559066761113
  0
LINE
  8
_0-0_0
  6
CONTINUOUS
 62
    7
 10
280.53279765763091
 20
273.78559066761113
 11
280.68019361169922
 21
273.78559066761113
  0
LINE
  8
_0-0_0
  6
CONTINUOUS
 62
    7
 10
280.68019361169922
 20
273.78559066761113
 11
280.82758632458649
 21
273.78559066761113
  0
LINE
  8
_0-0_0
  6
CONTINUOUS
 62
    7
 10
280.82758632458649
 20
273.78559066761113
 11
280.97497903747364
 21
273.78559066761113
  0
LINE
  8
_0-0_0
  6
CONTINUOUS
 62
    7
 10
280.97497903747364
 20
273.78559066761113
 11
280.99061125416978
 21
273.79675653667982
  0
LINE
  8
_0-0_0
  6
CONTINUOUS
 62
    7
 10
280.99061125416978
 20
273.79675653667982
 11
281.00736167836328
 21
273.80792240574846
  0
LINE
  8
_0-0_0
  6
CONTINUOUS
 62
    7
 10
281.00736167836328
 20
273.80792240574846
 11
281.02411210255684
 21
273.81908827481709
  0
LINE
  8
_0-0_0
  6
CONTINUOUS
 62
    7
 10
281.02411210255684
 20
273.81908827481709
 11
281.03974431925292
 21
273.83025414388572
  0
LINE
  8
_0-0_0
  6
CONTINUOUS
 62
    7
 10
281.03974431925292
 20
273.83025414388572
 11
281.05649150226532
 21
273.84142001295436
  0
LINE
  8
_0-0_0
  6
CONTINUOUS
 62
    7
 10
281.05649150226532
 20
273.84142001295436
 11
281.07324192645888
 21
273.85258588202299
  0
LINE
  8
_0-0_0
  6
CONTINUOUS
 62
    7
 10
281.07324192645888
 20
273.85258588202299
 11
281.08887414315495
 21
273.86375175109163
  0
LINE
  8
_0-0_0
  6
CONTINUOUS
 62
    7
 10
281.08887414315495
 20
273.86375175109163
 11
281.10562456734851
 21
273.87547834449953
  0
LINE
  8
_0-0_0
  6
CONTINUOUS
 62
    7
 10
281.10562456734851
 20
273.87547834449953
 11
281.10562456734851
 21
274.24340102296884
  0
LINE
  8
_0-0_0
  6
CONTINUOUS
 62
    7
 10
281.10562456734851
 20
274.24340102296884
 11
281.10562456734851
 21
274.61188766695852
  0
LINE
  8
_0-0_0
  6
CONTINUOUS
 62
    7
 10
281.10562456734851
 20
274.61188766695852
 11
281.10562456734851
 21
274.97981034542784
  0
LINE
  8
_0-0_0
  6
CONTINUOUS
 62
    7
 10
281.10562456734851
 20
274.97981034542784
 11
281.10562456734851
 21
275.34773626507831
  0
LINE
  8
_0-0_0
  6
CONTINUOUS
 62
    7
 10
281.10562456734851
 20
275.34773626507831
 11
281.10562456734851
 21
275.71622290906799
  0
LINE
  8
_0-0_0
  6
CONTINUOUS
 62
    7
 10
281.10562456734851
 20
275.71622290906799
 11
281.10562456734851
 21
276.08414558753725
  0
LINE
  8
_0-0_0
  6
CONTINUOUS
 62
    7
 10
281.10562456734851
 20
276.08414558753725
 11
281.10562456734851
 21
276.45207150718772
  0
LINE
  8
_0-0_0
  6
CONTINUOUS
 62
    7
 10
281.10562456734851
 20
276.45207150718772
 11
281.10562456734851
 21
276.8205549099963
  0
LINE
  8
_0-0_0
  6
CONTINUOUS
 62
    7
 10
247.08172084832904
 20
162.75469408208545
 11
251.03622114826118
 21
162.75469408208545
  0
LINE
  8
_0-0_0
  6
CONTINUOUS
 62
    7
 10
251.03622114826118
 20
162.75469408208545
 11
254.99016396503521
 21
162.75469408208545
  0
LINE
  8
_0-0_0
  6
CONTINUOUS
 62
    7
 10
254.99016396503521
 20
162.75469408208545
 11
258.94466750614856
 21
162.75469408208545
  0
LINE
  8
_0-0_0
  6
CONTINUOUS
 62
    7
 10
258.94466750614856
 20
162.75469408208545
 11
262.89917104726186
 21
162.75469408208545
  0
LINE
  8
_0-0_0
  6
CONTINUOUS
 62
    7
 10
262.89917104726186
 20
162.75469408208545
 11
266.85422883035216
 21
162.75469408208545
  0
LINE
  8
_0-0_0
  6
CONTINUOUS
 62
    7
 10
266.85422883035216
 20
162.75469408208545
 11
270.80817488830735
 21
162.75469408208545
  0
LINE
  8
_0-0_0
  6
CONTINUOUS
 62
    7
 10
270.80817488830735
 20
162.75469408208545
 11
274.76211770508132
 21
162.75469408208545
  0
LINE
  8
_0-0_0
  6
CONTINUOUS
 62
    7
 10
274.76211770508132
 20
162.75469408208545
 11
278.71717872935278
 21
162.75469408208545
  0
LINE
  8
_0-0_0
  6
CONTINUOUS
 62
    7
 10
249.01123488228848
 20
164.30455884416762
 11
252.48112674109819
 21
164.30455884416762
  0
LINE
  8
_0-0_0
  6
CONTINUOUS
 62
    7
 10
252.48112674109819
 20
164.30455884416762
 11
255.95045787556862
 21
164.30455884416762
  0
LINE
  8
_0-0_0
  6
CONTINUOUS
 62
    7
 10
255.95045787556862
 20
164.30455884416762
 11
259.41978901003904
 21
164.30455884416762
  0
LINE
  8
_0-0_0
  6
CONTINUOUS
 62
    7
 10
259.41978901003904
 20
164.30455884416762
 11
262.88912014450949
 21
164.30455884416762
  0
LINE
  8
_0-0_0
  6
CONTINUOUS
 62
    7
 10
262.88912014450949
 20
164.30455884416762
 11
266.35845127897989
 21
164.30455884416762
  0
LINE
  8
_0-0_0
  6
CONTINUOUS
 62
    7
 10
266.35845127897989
 20
164.30455884416762
 11
269.82890062094776
 21
164.30455884416762
  0
LINE
  8
_0-0_0
  6
CONTINUOUS
 62
    7
 10
269.82890062094776
 20
164.30455884416762
 11
273.29823175541821
 21
164.30455884416762
  0
LINE
  8
_0-0_0
  6
CONTINUOUS
 62
    7
 10
273.29823175541821
 20
164.30455884416762
 11
276.76756288988861
 21
164.30455884416762
  0
LINE
  8
_0-0_0
  6
CONTINUOUS
 62
    7
 10
247.08172084832904
 20
165.8544236062499
 11
251.03622114826118
 21
165.8544236062499
  0
LINE
  8
_0-0_0
  6
CONTINUOUS
 62
    7
 10
251.03622114826118
 20
165.8544236062499
 11
254.99016396503521
 21
165.8544236062499
  0
LINE
  8
_0-0_0
  6
CONTINUOUS
 62
    7
 10
254.99016396503521
 20
165.8544236062499
 11
258.94466750614856
 21
165.8544236062499
  0
LINE
  8
_0-0_0
  6
CONTINUOUS
 62
    7
 10
258.94466750614856
 20
165.8544236062499
 11
262.89917104726186
 21
165.8544236062499
  0
LINE
  8
_0-0_0
  6
CONTINUOUS
 62
    7
 10
262.89917104726186
 20
165.8544236062499
 11
266.85422883035216
 21
165.8544236062499
  0
LINE
  8
_0-0_0
  6
CONTINUOUS
 62
    7
 10
266.85422883035216
 20
165.8544236062499
 11
270.80817488830735
 21
165.8544236062499
  0
LINE
  8
_0-0_0
  6
CONTINUOUS
 62
    7
 10
270.80817488830735
 20
165.8544236062499
 11
274.76211770508132
 21
165.8544236062499
  0
LINE
  8
_0-0_0
  6
CONTINUOUS
 62
    7
 10
274.76211770508132
 20
165.8544236062499
 11
278.71717872935278
 21
165.8544236062499
  0
LINE
  8
_0-0_0
  6
CONTINUOUS
 62
    7
 10
244.66591620022928
 20
220.46373650493865
 11
249.23623443667915
 21
220.46373650493865
  0
LINE
  8
_0-0_0
  6
CONTINUOUS
 62
    7
 10
249.23623443667915
 20
220.46373650493865
 11
253.80599194878971
 21
220.46373650493865
  0
LINE
  8
_0-0_0
  6
CONTINUOUS
 62
    7
 10
253.80599194878971
 20
220.46373650493865
 11
258.37574946090029
 21
220.46373650493865
  0
LINE
  8
_0-0_0
  6
CONTINUOUS
 62
    7
 10
258.37574946090029
 20
220.46373650493865
 11
262.94606769735014
 21
220.46373650493865
  0
LINE
  8
_0-0_0
  6
CONTINUOUS
 62
    7
 10
262.94606769735014
 20
220.46373650493865
 11
267.51526772630257
 21
220.46373650493865
  0
LINE
  8
_0-0_0
  6
CONTINUOUS
 62
    7
 10
267.51526772630257
 20
220.46373650493865
 11
272.08558596275242
 21
220.46373650493865
  0
LINE
  8
_0-0_0
  6
CONTINUOUS
 62
    7
 10
272.08558596275242
 20
220.46373650493865
 11
276.65590095802111
 21
220.46373650493865
  0
LINE
  8
_0-0_0
  6
CONTINUOUS
 62
    7
 10
276.65590095802111
 20
220.46373650493865
 11
281.22510098697353
 21
220.46373650493865
  0
LINE
  8
_0-0_0
  6
CONTINUOUS
 62
    7
 10
246.89580345626916
 20
222.6232771652555
 11
250.90557885956753
 21
222.6232771652555
  0
LINE
  8
_0-0_0
  6
CONTINUOUS
 62
    7
 10
250.90557885956753
 20
222.6232771652555
 11
254.91479353852662
 21
222.6232771652555
  0
LINE
  8
_0-0_0
  6
CONTINUOUS
 62
    7
 10
254.91479353852662
 20
222.6232771652555
 11
258.92401145866683
 21
222.6232771652555
  0
LINE
  8
_0-0_0
  6
CONTINUOUS
 62
    7
 10
258.92401145866683
 20
222.6232771652555
 11
262.93378362078403
 21
222.6232771652555
  0
LINE
  8
_0-0_0
  6
CONTINUOUS
 62
    7
 10
262.93378362078403
 20
222.6232771652555
 11
266.94355902408245
 21
222.6232771652555
  0
LINE
  8
_0-0_0
  6
CONTINUOUS
 62
    7
 10
266.94355902408245
 20
222.6232771652555
 11
270.95221621988333
 21
222.6232771652555
  0
LINE
  8
_0-0_0
  6
CONTINUOUS
 62
    7
 10
270.95221621988333
 20
222.6232771652555
 11
274.96199162318175
 21
222.6232771652555
  0
LINE
  8
_0-0_0
  6
CONTINUOUS
 62
    7
 10
274.96199162318175
 20
222.6232771652555
 11
278.97176702648011
 21
222.6232771652555
  0
LINE
  8
_0-0_0
  6
CONTINUOUS
 62
    7
 10
244.66591620022928
 20
224.62202282862171
 11
249.23623443667915
 21
224.62202282862171
  0
LINE
  8
_0-0_0
  6
CONTINUOUS
 62
    7
 10
249.23623443667915
 20
224.62202282862171
 11
253.80599194878971
 21
224.62202282862171
  0
LINE
  8
_0-0_0
  6
CONTINUOUS
 62
    7
 10
253.80599194878971
 20
224.62202282862171
 11
258.37574946090029
 21
224.62202282862171
  0
LINE
  8
_0-0_0
  6
CONTINUOUS
 62
    7
 10
258.37574946090029
 20
224.62202282862171
 11
262.94606769735014
 21
224.62202282862171
  0
LINE
  8
_0-0_0
  6
CONTINUOUS
 62
    7
 10
262.94606769735014
 20
224.62202282862171
 11
267.51526772630257
 21
224.62202282862171
  0
LINE
  8
_0-0_0
  6
CONTINUOUS
 62
    7
 10
267.51526772630257
 20
224.62202282862171
 11
272.08558596275242
 21
224.62202282862171
  0
LINE
  8
_0-0_0
  6
CONTINUOUS
 62
    7
 10
272.08558596275242
 20
224.62202282862171
 11
276.65590095802111
 21
224.62202282862171
  0
LINE
  8
_0-0_0
  6
CONTINUOUS
 62
    7
 10
276.65590095802111
 20
224.62202282862171
 11
281.22510098697353
 21
224.62202282862171
  0
LINE
  8
_0-0_0
  6
CONTINUOUS
 62
    7
 10
246.89580345626916
 20
226.78379342157112
 11
250.90557885956753
 21
226.78379342157112
  0
LINE
  8
_0-0_0
  6
CONTINUOUS
 62
    7
 10
250.90557885956753
 20
226.78379342157112
 11
254.91479353852662
 21
226.78379342157112
  0
LINE
  8
_0-0_0
  6
CONTINUOUS
 62
    7
 10
254.91479353852662
 20
226.78379342157112
 11
258.92401145866683
 21
226.78379342157112
  0
LINE
  8
_0-0_0
  6
CONTINUOUS
 62
    7
 10
258.92401145866683
 20
226.78379342157112
 11
262.93378362078403
 21
226.78379342157112
  0
LINE
  8
_0-0_0
  6
CONTINUOUS
 62
    7
 10
262.93378362078403
 20
226.78379342157112
 11
266.94355902408245
 21
226.78379342157112
  0
LINE
  8
_0-0_0
  6
CONTINUOUS
 62
    7
 10
266.94355902408245
 20
226.78379342157112
 11
270.95221621988333
 21
226.78379342157112
  0
LINE
  8
_0-0_0
  6
CONTINUOUS
 62
    7
 10
270.95221621988333
 20
226.78379342157112
 11
274.96199162318175
 21
226.78379342157112
  0
LINE
  8
_0-0_0
  6
CONTINUOUS
 62
    7
 10
274.96199162318175
 20
226.78379342157112
 11
278.97176702648011
 21
226.78379342157112
  0
LINE
  8
_0-0_0
  6
CONTINUOUS
 62
    7
 10
244.66591620022928
 20
228.78365729243473
 11
249.23623443667915
 21
228.78365729243473
  0
LINE
  8
_0-0_0
  6
CONTINUOUS
 62
    7
 10
249.23623443667915
 20
228.78365729243473
 11
253.80599194878971
 21
228.78365729243473
  0
LINE
  8
_0-0_0
  6
CONTINUOUS
 62
    7
 10
253.80599194878971
 20
228.78365729243473
 11
258.37574946090029
 21
228.78365729243473
  0
LINE
  8
_0-0_0
  6
CONTINUOUS
 62
    7
 10
258.37574946090029
 20
228.78365729243473
 11
262.94606769735014
 21
228.78365729243473
  0
LINE
  8
_0-0_0
  6
CONTINUOUS
 62
    7
 10
262.94606769735014
 20
228.78365729243473
 11
267.51526772630257
 21
228.78365729243473
  0
LINE
  8
_0-0_0
  6
CONTINUOUS
 62
    7
 10
267.51526772630257
 20
228.78365729243473
 11
272.08558596275242
 21
228.78365729243473
  0
LINE
  8
_0-0_0
  6
CONTINUOUS
 62
    7
 10
272.08558596275242
 20
228.78365729243473
 11
276.65590095802111
 21
228.78365729243473
  0
LINE
  8
_0-0_0
  6
CONTINUOUS
 62
    7
 10
276.65590095802111
 20
228.78365729243473
 11
281.22510098697353
 21
228.78365729243473
  0
LINE
  8
_0-0_0
  6
CONTINUOUS
 62
    7
 10
246.89580345626916
 20
201.8218011264504
 11
250.90557885956753
 21
201.8218011264504
  0
LINE
  8
_0-0_0
  6
CONTINUOUS
 62
    7
 10
250.90557885956753
 20
201.8218011264504
 11
254.91479353852662
 21
201.8218011264504
  0
LINE
  8
_0-0_0
  6
CONTINUOUS
 62
    7
 10
254.91479353852662
 20
201.8218011264504
 11
258.92401145866683
 21
201.8218011264504
  0
LINE
  8
_0-0_0
  6
CONTINUOUS
 62
    7
 10
258.92401145866683
 20
201.8218011264504
 11
262.93378362078403
 21
201.8218011264504
  0
LINE
  8
_0-0_0
  6
CONTINUOUS
 62
    7
 10
262.93378362078403
 20
201.8218011264504
 11
266.94355902408245
 21
201.8218011264504
  0
LINE
  8
_0-0_0
  6
CONTINUOUS
 62
    7
 10
266.94355902408245
 20
201.8218011264504
 11
270.95221621988333
 21
201.8218011264504
  0
LINE
  8
_0-0_0
  6
CONTINUOUS
 62
    7
 10
270.95221621988333
 20
201.8218011264504
 11
274.96199162318175
 21
201.8218011264504
  0
LINE
  8
_0-0_0
  6
CONTINUOUS
 62
    7
 10
274.96199162318175
 20
201.8218011264504
 11
278.97176702648011
 21
201.8218011264504
  0
LINE
  8
_0-0_0
  6
CONTINUOUS
 62
    7
 10
244.66591620022928
 20
203.82166499731403
 11
249.23623443667915
 21
203.82166499731403
  0
LINE
  8
_0-0_0
  6
CONTINUOUS
 62
    7
 10
249.23623443667915
 20
203.82166499731403
 11
253.80599194878971
 21
203.82166499731403
  0
LINE
  8
_0-0_0
  6
CONTINUOUS
 62
    7
 10
253.80599194878971
 20
203.82166499731403
 11
258.37574946090029
 21
203.82166499731403
  0
LINE
  8
_0-0_0
  6
CONTINUOUS
 62
    7
 10
258.37574946090029
 20
203.82166499731403
 11
262.94606769735014
 21
203.82166499731403
  0
LINE
  8
_0-0_0
  6
CONTINUOUS
 62
    7
 10
262.94606769735014
 20
203.82166499731403
 11
267.51526772630257
 21
203.82166499731403
  0
LINE
  8
_0-0_0
  6
CONTINUOUS
 62
    7
 10
267.51526772630257
 20
203.82166499731403
 11
272.08558596275242
 21
203.82166499731403
  0
LINE
  8
_0-0_0
  6
CONTINUOUS
 62
    7
 10
272.08558596275242
 20
203.82166499731403
 11
276.65590095802111
 21
203.82166499731403
  0
LINE
  8
_0-0_0
  6
CONTINUOUS
 62
    7
 10
276.65590095802111
 20
203.82166499731403
 11
281.22510098697353
 21
203.82166499731403
  0
LINE
  8
_0-0_0
  6
CONTINUOUS
 62
    7
 10
246.89580345626916
 20
205.98120241644972
 11
250.90557885956753
 21
205.98120241644972
  0
LINE
  8
_0-0_0
  6
CONTINUOUS
 62
    7
 10
250.90557885956753
 20
205.98120241644972
 11
254.91479353852662
 21
205.98120241644972
  0
LINE
  8
_0-0_0
  6
CONTINUOUS
 62
    7
 10
254.91479353852662
 20
205.98120241644972
 11
258.92401145866683
 21
205.98120241644972
  0
LINE
  8
_0-0_0
  6
CONTINUOUS
 62
    7
 10
258.92401145866683
 20
205.98120241644972
 11
262.93378362078403
 21
205.98120241644972
  0
LINE
  8
_0-0_0
  6
CONTINUOUS
 62
    7
 10
262.93378362078403
 20
205.98120241644972
 11
266.94355902408245
 21
205.98120241644972
  0
LINE
  8
_0-0_0
  6
CONTINUOUS
 62
    7
 10
266.94355902408245
 20
205.98120241644972
 11
270.95221621988333
 21
205.98120241644972
  0
LINE
  8
_0-0_0
  6
CONTINUOUS
 62
    7
 10
270.95221621988333
 20
205.98120241644972
 11
274.96199162318175
 21
205.98120241644972
  0
LINE
  8
_0-0_0
  6
CONTINUOUS
 62
    7
 10
274.96199162318175
 20
205.98120241644972
 11
278.97176702648011
 21
205.98120241644972
  0
LINE
  8
_0-0_0
  6
CONTINUOUS
 62
    7
 10
246.89580345626916
 20
230.94431291906778
 11
250.90557885956753
 21
230.94431291906778
  0
LINE
  8
_0-0_0
  6
CONTINUOUS
 62
    7
 10
250.90557885956753
 20
230.94431291906778
 11
254.91479353852662
 21
230.94431291906778
  0
LINE
  8
_0-0_0
  6
CONTINUOUS
 62
    7
 10
254.91479353852662
 20
230.94431291906778
 11
258.92401145866683
 21
230.94431291906778
  0
LINE
  8
_0-0_0
  6
CONTINUOUS
 62
    7
 10
258.92401145866683
 20
230.94431291906778
 11
262.93378362078403
 21
230.94431291906778
  0
LINE
  8
_0-0_0
  6
CONTINUOUS
 62
    7
 10
262.93378362078403
 20
230.94431291906778
 11
266.94355902408245
 21
230.94431291906778
  0
LINE
  8
_0-0_0
  6
CONTINUOUS
 62
    7
 10
266.94355902408245
 20
230.94431291906778
 11
270.95221621988333
 21
230.94431291906778
  0
LINE
  8
_0-0_0
  6
CONTINUOUS
 62
    7
 10
270.95221621988333
 20
230.94431291906778
 11
274.96199162318175
 21
230.94431291906778
  0
LINE
  8
_0-0_0
  6
CONTINUOUS
 62
    7
 10
274.96199162318175
 20
230.94431291906778
 11
278.97176702648011
 21
230.94431291906778
  0
LINE
  8
_0-0_0
  6
CONTINUOUS
 62
    7
 10
244.66591620022928
 20
232.94305858243402
 11
249.23623443667915
 21
232.94305858243402
  0
LINE
  8
_0-0_0
  6
CONTINUOUS
 62
    7
 10
249.23623443667915
 20
232.94305858243402
 11
253.80599194878971
 21
232.94305858243402
  0
LINE
  8
_0-0_0
  6
CONTINUOUS
 62
    7
 10
253.80599194878971
 20
232.94305858243402
 11
258.37574946090029
 21
232.94305858243402
  0
LINE
  8
_0-0_0
  6
CONTINUOUS
 62
    7
 10
258.37574946090029
 20
232.94305858243402
 11
262.94606769735014
 21
232.94305858243402
  0
LINE
  8
_0-0_0
  6
CONTINUOUS
 62
    7
 10
262.94606769735014
 20
232.94305858243402
 11
267.51526772630257
 21
232.94305858243402
  0
LINE
  8
_0-0_0
  6
CONTINUOUS
 62
    7
 10
267.51526772630257
 20
232.94305858243402
 11
272.08558596275242
 21
232.94305858243402
  0
LINE
  8
_0-0_0
  6
CONTINUOUS
 62
    7
 10
272.08558596275242
 20
232.94305858243402
 11
276.65590095802111
 21
232.94305858243402
  0
LINE
  8
_0-0_0
  6
CONTINUOUS
 62
    7
 10
276.65590095802111
 20
232.94305858243402
 11
281.22510098697353
 21
232.94305858243402
  0
LINE
  8
_0-0_0
  6
CONTINUOUS
 62
    7
 10
246.89580345626916
 20
235.10482917538343
 11
250.90557885956753
 21
235.10482917538343
  0
LINE
  8
_0-0_0
  6
CONTINUOUS
 62
    7
 10
250.90557885956753
 20
235.10482917538343
 11
254.91479353852662
 21
235.10482917538343
  0
LINE
  8
_0-0_0
  6
CONTINUOUS
 62
    7
 10
254.91479353852662
 20
235.10482917538343
 11
258.92401145866683
 21
235.10482917538343
  0
LINE
  8
_0-0_0
  6
CONTINUOUS
 62
    7
 10
258.92401145866683
 20
235.10482917538343
 11
262.93378362078403
 21
235.10482917538343
  0
LINE
  8
_0-0_0
  6
CONTINUOUS
 62
    7
 10
262.93378362078403
 20
235.10482917538343
 11
266.94355902408245
 21
235.10482917538343
  0
LINE
  8
_0-0_0
  6
CONTINUOUS
 62
    7
 10
266.94355902408245
 20
235.10482917538343
 11
270.95221621988333
 21
235.10482917538343
  0
LINE
  8
_0-0_0
  6
CONTINUOUS
 62
    7
 10
270.95221621988333
 20
235.10482917538343
 11
274.96199162318175
 21
235.10482917538343
  0
LINE
  8
_0-0_0
  6
CONTINUOUS
 62
    7
 10
274.96199162318175
 20
235.10482917538343
 11
278.97176702648011
 21
235.10482917538343
  0
LINE
  8
_0-0_0
  6
CONTINUOUS
 62
    7
 10
244.66591620022928
 20
237.10357483874958
 11
249.23623443667915
 21
237.10357483874958
  0
LINE
  8
_0-0_0
  6
CONTINUOUS
 62
    7
 10
249.23623443667915
 20
237.10357483874958
 11
253.80599194878971
 21
237.10357483874958
  0
LINE
  8
_0-0_0
  6
CONTINUOUS
 62
    7
 10
253.80599194878971
 20
237.10357483874958
 11
258.37574946090029
 21
237.10357483874958
  0
LINE
  8
_0-0_0
  6
CONTINUOUS
 62
    7
 10
258.37574946090029
 20
237.10357483874958
 11
262.94606769735014
 21
237.10357483874958
  0
LINE
  8
_0-0_0
  6
CONTINUOUS
 62
    7
 10
262.94606769735014
 20
237.10357483874958
 11
267.51526772630257
 21
237.10357483874958
  0
LINE
  8
_0-0_0
  6
CONTINUOUS
 62
    7
 10
267.51526772630257
 20
237.10357483874958
 11
272.08558596275242
 21
237.10357483874958
  0
LINE
  8
_0-0_0
  6
CONTINUOUS
 62
    7
 10
272.08558596275242
 20
237.10357483874958
 11
276.65590095802111
 21
237.10357483874958
  0
LINE
  8
_0-0_0
  6
CONTINUOUS
 62
    7
 10
276.65590095802111
 20
237.10357483874958
 11
281.22510098697353
 21
237.10357483874958
  0
LINE
  8
_0-0_0
  6
CONTINUOUS
 62
    7
 10
246.89580345626916
 20
239.26367298222465
 11
250.90557885956753
 21
239.26367298222465
  0
LINE
  8
_0-0_0
  6
CONTINUOUS
 62
    7
 10
250.90557885956753
 20
239.26367298222465
 11
254.91479353852662
 21
239.26367298222465
  0
LINE
  8
_0-0_0
  6
CONTINUOUS
 62
    7
 10
254.91479353852662
 20
239.26367298222465
 11
258.92401145866683
 21
239.26367298222465
  0
LINE
  8
_0-0_0
  6
CONTINUOUS
 62
    7
 10
258.92401145866683
 20
239.26367298222465
 11
262.93378362078403
 21
239.26367298222465
  0
LINE
  8
_0-0_0
  6
CONTINUOUS
 62
    7
 10
262.93378362078403
 20
239.26367298222465
 11
266.94355902408245
 21
239.26367298222465
  0
LINE
  8
_0-0_0
  6
CONTINUOUS
 62
    7
 10
266.94355902408245
 20
239.26367298222465
 11
270.95221621988333
 21
239.26367298222465
  0
LINE
  8
_0-0_0
  6
CONTINUOUS
 62
    7
 10
270.95221621988333
 20
239.26367298222465
 11
274.96199162318175
 21
239.26367298222465
  0
LINE
  8
_0-0_0
  6
CONTINUOUS
 62
    7
 10
274.96199162318175
 20
239.26367298222465
 11
278.97176702648011
 21
239.26367298222465
  0
LINE
  8
_0-0_0
  6
CONTINUOUS
 62
    7
 10
244.66591620022928
 20
241.26297612874885
 11
249.23623443667915
 21
241.26297612874885
  0
LINE
  8
_0-0_0
  6
CONTINUOUS
 62
    7
 10
249.23623443667915
 20
241.26297612874885
 11
253.80599194878971
 21
241.26297612874885
  0
LINE
  8
_0-0_0
  6
CONTINUOUS
 62
    7
 10
253.80599194878971
 20
241.26297612874885
 11
258.37574946090029
 21
241.26297612874885
  0
LINE
  8
_0-0_0
  6
CONTINUOUS
 62
    7
 10
258.37574946090029
 20
241.26297612874885
 11
262.94606769735014
 21
241.26297612874885
  0
LINE
  8
_0-0_0
  6
CONTINUOUS
 62
    7
 10
262.94606769735014
 20
241.26297612874885
 11
267.51526772630257
 21
241.26297612874885
  0
LINE
  8
_0-0_0
  6
CONTINUOUS
 62
    7
 10
267.51526772630257
 20
241.26297612874885
 11
272.08558596275242
 21
241.26297612874885
  0
LINE
  8
_0-0_0
  6
CONTINUOUS
 62
    7
 10
272.08558596275242
 20
241.26297612874885
 11
276.65590095802111
 21
241.26297612874885
  0
LINE
  8
_0-0_0
  6
CONTINUOUS
 62
    7
 10
276.65590095802111
 20
241.26297612874885
 11
281.22510098697353
 21
241.26297612874885
  0
LINE
  8
_0-0_0
  6
CONTINUOUS
 62
    7
 10
246.89580345626916
 20
255.90351131603546
 11
250.90557885956753
 21
255.90351131603546
  0
LINE
  8
_0-0_0
  6
CONTINUOUS
 62
    7
 10
250.90557885956753
 20
255.90351131603546
 11
254.91479353852662
 21
255.90351131603546
  0
LINE
  8
_0-0_0
  6
CONTINUOUS
 62
    7
 10
254.91479353852662
 20
255.90351131603546
 11
258.92401145866683
 21
255.90351131603546
  0
LINE
  8
_0-0_0
  6
CONTINUOUS
 62
    7
 10
258.92401145866683
 20
255.90351131603546
 11
262.93378362078403
 21
255.90351131603546
  0
LINE
  8
_0-0_0
  6
CONTINUOUS
 62
    7
 10
262.93378362078403
 20
255.90351131603546
 11
266.94355902408245
 21
255.90351131603546
  0
LINE
  8
_0-0_0
  6
CONTINUOUS
 62
    7
 10
266.94355902408245
 20
255.90351131603546
 11
270.95221621988333
 21
255.90351131603546
  0
LINE
  8
_0-0_0
  6
CONTINUOUS
 62
    7
 10
270.95221621988333
 20
255.90351131603546
 11
274.96199162318175
 21
255.90351131603546
  0
LINE
  8
_0-0_0
  6
CONTINUOUS
 62
    7
 10
274.96199162318175
 20
255.90351131603546
 11
278.97176702648011
 21
255.90351131603546
  0
LINE
  8
_0-0_0
  6
CONTINUOUS
 62
    7
 10
244.66591620022928
 20
257.90281770374094
 11
249.23623443667915
 21
257.90281770374094
  0
LINE
  8
_0-0_0
  6
CONTINUOUS
 62
    7
 10
249.23623443667915
 20
257.90281770374094
 11
253.80599194878971
 21
257.90281770374094
  0
LINE
  8
_0-0_0
  6
CONTINUOUS
 62
    7
 10
253.80599194878971
 20
257.90281770374094
 11
258.37574946090029
 21
257.90281770374094
  0
LINE
  8
_0-0_0
  6
CONTINUOUS
 62
    7
 10
258.37574946090029
 20
257.90281770374094
 11
262.94606769735014
 21
257.90281770374094
  0
LINE
  8
_0-0_0
  6
CONTINUOUS
 62
    7
 10
262.94606769735014
 20
257.90281770374094
 11
267.51526772630257
 21
257.90281770374094
  0
LINE
  8
_0-0_0
  6
CONTINUOUS
 62
    7
 10
267.51526772630257
 20
257.90281770374094
 11
272.08558596275242
 21
257.90281770374094
  0
LINE
  8
_0-0_0
  6
CONTINUOUS
 62
    7
 10
272.08558596275242
 20
257.90281770374094
 11
276.65590095802111
 21
257.90281770374094
  0
LINE
  8
_0-0_0
  6
CONTINUOUS
 62
    7
 10
276.65590095802111
 20
257.90281770374094
 11
281.22510098697353
 21
257.90281770374094
  0
LINE
  8
_0-0_0
  6
CONTINUOUS
 62
    7
 10
246.89580345626916
 20
260.06458829669032
 11
250.90557885956753
 21
260.06458829669032
  0
LINE
  8
_0-0_0
  6
CONTINUOUS
 62
    7
 10
250.90557885956753
 20
260.06458829669032
 11
254.91479353852662
 21
260.06458829669032
  0
LINE
  8
_0-0_0
  6
CONTINUOUS
 62
    7
 10
254.91479353852662
 20
260.06458829669032
 11
258.92401145866683
 21
260.06458829669032
  0
LINE
  8
_0-0_0
  6
CONTINUOUS
 62
    7
 10
258.92401145866683
 20
260.06458829669032
 11
262.93378362078403
 21
260.06458829669032
  0
LINE
  8
_0-0_0
  6
CONTINUOUS
 62
    7
 10
262.93378362078403
 20
260.06458829669032
 11
266.94355902408245
 21
260.06458829669032
  0
LINE
  8
_0-0_0
  6
CONTINUOUS
 62
    7
 10
266.94355902408245
 20
260.06458829669032
 11
270.95221621988333
 21
260.06458829669032
  0
LINE
  8
_0-0_0
  6
CONTINUOUS
 62
    7
 10
270.95221621988333
 20
260.06458829669032
 11
274.96199162318175
 21
260.06458829669032
  0
LINE
  8
_0-0_0
  6
CONTINUOUS
 62
    7
 10
274.96199162318175
 20
260.06458829669032
 11
278.97176702648011
 21
260.06458829669032
  0
LINE
  8
_0-0_0
  6
CONTINUOUS
 62
    7
 10
272.03645289766922
 20
262.06389468439579
 11
272.85493540925916
 21
262.06389468439579
  0
LINE
  8
_0-0_0
  6
CONTINUOUS
 62
    7
 10
272.85493540925916
 20
262.06389468439579
 11
273.67453288716541
 21
262.06389468439579
  0
LINE
  8
_0-0_0
  6
CONTINUOUS
 62
    7
 10
273.67453288716541
 20
262.06389468439579
 11
274.49413036507167
 21
262.06389468439579
  0
LINE
  8
_0-0_0
  6
CONTINUOUS
 62
    7
 10
274.49413036507167
 20
262.06389468439579
 11
275.31372784297793
 21
262.06389468439579
  0
LINE
  8
_0-0_0
  6
CONTINUOUS
 62
    7
 10
275.31372784297793
 20
262.06389468439579
 11
276.13332532088418
 21
262.06389468439579
  0
LINE
  8
_0-0_0
  6
CONTINUOUS
 62
    7
 10
276.13332532088418
 20
262.06389468439579
 11
276.95292279879038
 21
262.06389468439579
  0
LINE
  8
_0-0_0
  6
CONTINUOUS
 62
    7
 10
276.95292279879038
 20
262.06389468439579
 11
277.77252027669664
 21
262.06389468439579
  0
LINE
  8
_0-0_0
  6
CONTINUOUS
 62
    7
 10
277.77252027669664
 20
262.06389468439579
 11
278.59099954710541
 21
262.06389468439579
  0
LINE
  8
_0-0_0
  6
CONTINUOUS
 62
    7
 10
247.29834194944181
 20
262.06389468439579
 11
248.10844924893502
 21
262.06389468439579
  0
LINE
  8
_0-0_0
  6
CONTINUOUS
 62
    7
 10
248.10844924893502
 20
262.06389468439579
 11
248.9185565484282
 21
262.06389468439579
  0
LINE
  8
_0-0_0
  6
CONTINUOUS
 62
    7
 10
248.9185565484282
 20
262.06389468439579
 11
249.72866060674022
 21
262.06389468439579
  0
LINE
  8
_0-0_0
  6
CONTINUOUS
 62
    7
 10
249.72866060674022
 20
262.06389468439579
 11
250.5387679062334
 21
262.06389468439579
  0
LINE
  8
_0-0_0
  6
CONTINUOUS
 62
    7
 10
250.5387679062334
 20
262.06389468439579
 11
251.34887520572656
 21
262.06389468439579
  0
LINE
  8
_0-0_0
  6
CONTINUOUS
 62
    7
 10
251.34887520572656
 20
262.06389468439579
 11
252.15898250521974
 21
262.06389468439579
  0
LINE
  8
_0-0_0
  6
CONTINUOUS
 62
    7
 10
252.15898250521974
 20
262.06389468439579
 11
252.96908656353179
 21
262.06389468439579
  0
LINE
  8
_0-0_0
  6
CONTINUOUS
 62
    7
 10
252.96908656353179
 20
262.06389468439579
 11
253.77919386302494
 21
262.06389468439579
  0
LINE
  8
_0-0_0
  6
CONTINUOUS
 62
    7
 10
272.50208422314671
 20
264.22455031102902
 11
273.24128420257762
 21
264.22455031102902
  0
LINE
  8
_0-0_0
  6
CONTINUOUS
 62
    7
 10
273.24128420257762
 20
264.22455031102902
 11
273.9793692156922
 21
264.22455031102902
  0
LINE
  8
_0-0_0
  6
CONTINUOUS
 62
    7
 10
273.9793692156922
 20
264.22455031102902
 11
274.71745422880673
 21
264.22455031102902
  0
LINE
  8
_0-0_0
  6
CONTINUOUS
 62
    7
 10
274.71745422880673
 20
264.22455031102902
 11
275.45665420823764
 21
264.22455031102902
  0
LINE
  8
_0-0_0
  6
CONTINUOUS
 62
    7
 10
275.45665420823764
 20
264.22455031102902
 11
276.19473922135222
 21
264.22455031102902
  0
LINE
  8
_0-0_0
  6
CONTINUOUS
 62
    7
 10
276.19473922135222
 20
264.22455031102902
 11
276.93282423446681
 21
264.22455031102902
  0
LINE
  8
_0-0_0
  6
CONTINUOUS
 62
    7
 10
276.93282423446681
 20
264.22455031102902
 11
277.67202421389771
 21
264.22455031102902
  0
LINE
  8
_0-0_0
  6
CONTINUOUS
 62
    7
 10
277.67202421389771
 20
264.22455031102902
 11
278.4101092270123
 21
264.22455031102902
  0
LINE
  8
_0-0_0
  6
CONTINUOUS
 62
    7
 10
247.45857946323434
 20
264.22455031102902
 11
248.20503644726458
 21
264.22455031102902
  0
LINE
  8
_0-0_0
  6
CONTINUOUS
 62
    7
 10
248.20503644726458
 20
264.22455031102902
 11
248.95149667247594
 21
264.22455031102902
  0
LINE
  8
_0-0_0
  6
CONTINUOUS
 62
    7
 10
248.95149667247594
 20
264.22455031102902
 11
249.69795365650617
 21
264.22455031102902
  0
LINE
  8
_0-0_0
  6
CONTINUOUS
 62
    7
 10
249.69795365650617
 20
264.22455031102902
 11
250.44441388171754
 21
264.22455031102902
  0
LINE
  8
_0-0_0
  6
CONTINUOUS
 62
    7
 10
250.44441388171754
 20
264.22455031102902
 11
251.1908741069289
 21
264.22455031102902
  0
LINE
  8
_0-0_0
  6
CONTINUOUS
 62
    7
 10
251.1908741069289
 20
264.22455031102902
 11
251.93733109095908
 21
264.22455031102902
  0
LINE
  8
_0-0_0
  6
CONTINUOUS
 62
    7
 10
251.93733109095908
 20
264.22455031102902
 11
252.68379131617044
 21
264.22455031102902
  0
LINE
  8
_0-0_0
  6
CONTINUOUS
 62
    7
 10
252.68379131617044
 20
264.22455031102902
 11
253.43025154138178
 21
264.22455031102902
  0
LINE
  8
_0-0_0
  6
CONTINUOUS
 62
    7
 10
272.4663502009459
 20
266.22385345755322
 11
273.21448611681285
 21
266.22385345755322
  0
LINE
  8
_0-0_0
  6
CONTINUOUS
 62
    7
 10
273.21448611681285
 20
266.22385345755322
 11
273.96261879149858
 21
266.22385345755322
  0
LINE
  8
_0-0_0
  6
CONTINUOUS
 62
    7
 10
273.96261879149858
 20
266.22385345755322
 11
274.7107547073656
 21
266.22385345755322
  0
LINE
  8
_0-0_0
  6
CONTINUOUS
 62
    7
 10
274.7107547073656
 20
266.22385345755322
 11
275.46000558954881
 21
266.22385345755322
  0
LINE
  8
_0-0_0
  6
CONTINUOUS
 62
    7
 10
275.46000558954881
 20
266.22385345755322
 11
276.20925323055087
 21
266.22385345755322
  0
LINE
  8
_0-0_0
  6
CONTINUOUS
 62
    7
 10
276.20925323055087
 20
266.22385345755322
 11
276.95738914641782
 21
266.22385345755322
  0
LINE
  8
_0-0_0
  6
CONTINUOUS
 62
    7
 10
276.95738914641782
 20
266.22385345755322
 11
277.70552182110362
 21
266.22385345755322
  0
LINE
  8
_0-0_0
  6
CONTINUOUS
 62
    7
 10
277.70552182110362
 20
266.22385345755322
 11
278.45365773697057
 21
266.22385345755322
  0
LINE
  8
_0-0_0
  6
CONTINUOUS
 62
    7
 10
247.43568700075781
 20
266.22385345755322
 11
248.18549536609919
 21
266.22385345755322
  0
LINE
  8
_0-0_0
  6
CONTINUOUS
 62
    7
 10
248.18549536609919
 20
266.22385345755322
 11
248.93474624828241
 21
266.22385345755322
  0
LINE
  8
_0-0_0
  6
CONTINUOUS
 62
    7
 10
248.93474624828241
 20
266.22385345755322
 11
249.68399713046566
 21
266.22385345755322
  0
LINE
  8
_0-0_0
  6
CONTINUOUS
 62
    7
 10
249.68399713046566
 20
266.22385345755322
 11
250.4332480126489
 21
266.22385345755322
  0
LINE
  8
_0-0_0
  6
CONTINUOUS
 62
    7
 10
250.4332480126489
 20
266.22385345755322
 11
251.18249889483212
 21
266.22385345755322
  0
LINE
  8
_0-0_0
  6
CONTINUOUS
 62
    7
 10
251.18249889483212
 20
266.22385345755322
 11
251.93174977701531
 21
266.22385345755322
  0
LINE
  8
_0-0_0
  6
CONTINUOUS
 62
    7
 10
251.93174977701531
 20
266.22385345755322
 11
252.68100065919856
 21
266.22385345755322
  0
LINE
  8
_0-0_0
  6
CONTINUOUS
 62
    7
 10
252.68100065919856
 20
266.22385345755322
 11
253.43025154138178
 21
266.22385345755322
  0
LINE
  8
_0-0_0
  6
CONTINUOUS
 62
    7
 10
272.50208422314671
 20
268.38450908418645
 11
273.24128420257762
 21
268.38450908418645
  0
LINE
  8
_0-0_0
  6
CONTINUOUS
 62
    7
 10
273.24128420257762
 20
268.38450908418645
 11
273.9793692156922
 21
268.38450908418645
  0
LINE
  8
_0-0_0
  6
CONTINUOUS
 62
    7
 10
273.9793692156922
 20
268.38450908418645
 11
274.71745422880673
 21
268.38450908418645
  0
LINE
  8
_0-0_0
  6
CONTINUOUS
 62
    7
 10
274.71745422880673
 20
268.38450908418645
 11
275.45665420823764
 21
268.38450908418645
  0
LINE
  8
_0-0_0
  6
CONTINUOUS
 62
    7
 10
275.45665420823764
 20
268.38450908418645
 11
276.19473922135222
 21
268.38450908418645
  0
LINE
  8
_0-0_0
  6
CONTINUOUS
 62
    7
 10
276.19473922135222
 20
268.38450908418645
 11
276.93282423446681
 21
268.38450908418645
  0
LINE
  8
_0-0_0
  6
CONTINUOUS
 62
    7
 10
276.93282423446681
 20
268.38450908418645
 11
277.67202421389771
 21
268.38450908418645
  0
LINE
  8
_0-0_0
  6
CONTINUOUS
 62
    7
 10
277.67202421389771
 20
268.38450908418645
 11
278.4101092270123
 21
268.38450908418645
  0
LINE
  8
_0-0_0
  6
CONTINUOUS
 62
    7
 10
247.45857946323434
 20
268.38450908418645
 11
248.20503644726458
 21
268.38450908418645
  0
LINE
  8
_0-0_0
  6
CONTINUOUS
 62
    7
 10
248.20503644726458
 20
268.38450908418645
 11
248.95149667247594
 21
268.38450908418645
  0
LINE
  8
_0-0_0
  6
CONTINUOUS
 62
    7
 10
248.95149667247594
 20
268.38450908418645
 11
249.69795365650617
 21
268.38450908418645
  0
LINE
  8
_0-0_0
  6
CONTINUOUS
 62
    7
 10
249.69795365650617
 20
268.38450908418645
 11
250.44441388171754
 21
268.38450908418645
  0
LINE
  8
_0-0_0
  6
CONTINUOUS
 62
    7
 10
250.44441388171754
 20
268.38450908418645
 11
251.1908741069289
 21
268.38450908418645
  0
LINE
  8
_0-0_0
  6
CONTINUOUS
 62
    7
 10
251.1908741069289
 20
268.38450908418645
 11
251.93733109095908
 21
268.38450908418645
  0
LINE
  8
_0-0_0
  6
CONTINUOUS
 62
    7
 10
251.93733109095908
 20
268.38450908418645
 11
252.68379131617044
 21
268.38450908418645
  0
LINE
  8
_0-0_0
  6
CONTINUOUS
 62
    7
 10
252.68379131617044
 20
268.38450908418645
 11
253.43025154138178
 21
268.38450908418645
  0
LINE
  8
_0-0_0
  6
CONTINUOUS
 62
    7
 10
272.4663502009459
 20
270.38436971386886
 11
273.21448611681285
 21
270.38436971386886
  0
LINE
  8
_0-0_0
  6
CONTINUOUS
 62
    7
 10
273.21448611681285
 20
270.38436971386886
 11
273.96261879149858
 21
270.38436971386886
  0
LINE
  8
_0-0_0
  6
CONTINUOUS
 62
    7
 10
273.96261879149858
 20
270.38436971386886
 11
274.7107547073656
 21
270.38436971386886
  0
LINE
  8
_0-0_0
  6
CONTINUOUS
 62
    7
 10
274.7107547073656
 20
270.38436971386886
 11
275.46000558954881
 21
270.38436971386886
  0
LINE
  8
_0-0_0
  6
CONTINUOUS
 62
    7
 10
275.46000558954881
 20
270.38436971386886
 11
276.20925323055087
 21
270.38436971386886
  0
LINE
  8
_0-0_0
  6
CONTINUOUS
 62
    7
 10
276.20925323055087
 20
270.38436971386886
 11
276.95738914641782
 21
270.38436971386886
  0
LINE
  8
_0-0_0
  6
CONTINUOUS
 62
    7
 10
276.95738914641782
 20
270.38436971386886
 11
277.70552182110362
 21
270.38436971386886
  0
LINE
  8
_0-0_0
  6
CONTINUOUS
 62
    7
 10
277.70552182110362
 20
270.38436971386886
 11
278.45365773697057
 21
270.38436971386886
  0
LINE
  8
_0-0_0
  6
CONTINUOUS
 62
    7
 10
247.43568700075781
 20
270.38436971386886
 11
248.18549536609919
 21
270.38436971386886
  0
LINE
  8
_0-0_0
  6
CONTINUOUS
 62
    7
 10
248.18549536609919
 20
270.38436971386886
 11
248.93474624828241
 21
270.38436971386886
  0
LINE
  8
_0-0_0
  6
CONTINUOUS
 62
    7
 10
248.93474624828241
 20
270.38436971386886
 11
249.68399713046566
 21
270.38436971386886
  0
LINE
  8
_0-0_0
  6
CONTINUOUS
 62
    7
 10
249.68399713046566
 20
270.38436971386886
 11
250.4332480126489
 21
270.38436971386886
  0
LINE
  8
_0-0_0
  6
CONTINUOUS
 62
    7
 10
250.4332480126489
 20
270.38436971386886
 11
251.18249889483212
 21
270.38436971386886
  0
LINE
  8
_0-0_0
  6
CONTINUOUS
 62
    7
 10
251.18249889483212
 20
270.38436971386886
 11
251.93174977701531
 21
270.38436971386886
  0
LINE
  8
_0-0_0
  6
CONTINUOUS
 62
    7
 10
251.93174977701531
 20
270.38436971386886
 11
252.68100065919856
 21
270.38436971386886
  0
LINE
  8
_0-0_0
  6
CONTINUOUS
 62
    7
 10
252.68100065919856
 20
270.38436971386886
 11
253.43025154138178
 21
270.38436971386886
  0
LINE
  8
_0-0_0
  6
CONTINUOUS
 62
    7
 10
272.24972909983313
 20
272.5455860648413
 11
273.02801124159481
 21
272.5455860648413
  0
LINE
  8
_0-0_0
  6
CONTINUOUS
 62
    7
 10
273.02801124159481
 20
272.5455860648413
 11
273.80629338335649
 21
272.5455860648413
  0
LINE
  8
_0-0_0
  6
CONTINUOUS
 62
    7
 10
273.80629338335649
 20
272.5455860648413
 11
274.58569373261565
 21
272.5455860648413
  0
LINE
  8
_0-0_0
  6
CONTINUOUS
 62
    7
 10
274.58569373261565
 20
272.5455860648413
 11
275.36397587437733
 21
272.5455860648413
  0
LINE
  8
_0-0_0
  6
CONTINUOUS
 62
    7
 10
275.36397587437733
 20
272.5455860648413
 11
276.14225801613907
 21
272.5455860648413
  0
LINE
  8
_0-0_0
  6
CONTINUOUS
 62
    7
 10
276.14225801613907
 20
272.5455860648413
 11
276.92165836539823
 21
272.5455860648413
  0
LINE
  8
_0-0_0
  6
CONTINUOUS
 62
    7
 10
276.92165836539823
 20
272.5455860648413
 11
277.69994050715991
 21
272.5455860648413
  0
LINE
  8
_0-0_0
  6
CONTINUOUS
 62
    7
 10
277.69994050715991
 20
272.5455860648413
 11
278.47822264892159
 21
272.5455860648413
  0
LINE
  8
_0-0_0
  6
CONTINUOUS
 62
    7
 10
247.38990531698579
 20
272.5455860648413
 11
248.16595428493378
 21
272.5455860648413
  0
LINE
  8
_0-0_0
  6
CONTINUOUS
 62
    7
 10
248.16595428493378
 20
272.5455860648413
 11
248.94200649406292
 21
272.5455860648413
  0
LINE
  8
_0-0_0
  6
CONTINUOUS
 62
    7
 10
248.94200649406292
 20
272.5455860648413
 11
249.71805546201088
 21
272.5455860648413
  0
LINE
  8
_0-0_0
  6
CONTINUOUS
 62
    7
 10
249.71805546201088
 20
272.5455860648413
 11
250.49410442995884
 21
272.5455860648413
  0
LINE
  8
_0-0_0
  6
CONTINUOUS
 62
    7
 10
250.49410442995884
 20
272.5455860648413
 11
251.27015339790677
 21
272.5455860648413
  0
LINE
  8
_0-0_0
  6
CONTINUOUS
 62
    7
 10
251.27015339790677
 20
272.5455860648413
 11
252.04620236585475
 21
272.5455860648413
  0
LINE
  8
_0-0_0
  6
CONTINUOUS
 62
    7
 10
252.04620236585475
 20
272.5455860648413
 11
252.82225133380274
 21
272.5455860648413
  0
LINE
  8
_0-0_0
  6
CONTINUOUS
 62
    7
 10
252.82225133380274
 20
272.5455860648413
 11
253.59830030175073
 21
272.5455860648413
  0
LINE
  8
_0-0_0
  6
CONTINUOUS
 62
    7
 10
244.7116978840013
 20
274.54433172820745
 11
249.26079934863014
 21
274.54433172820745
  0
LINE
  8
_0-0_0
  6
CONTINUOUS
 62
    7
 10
249.26079934863014
 20
274.54433172820745
 11
253.80990081325905
 21
274.54433172820745
  0
LINE
  8
_0-0_0
  6
CONTINUOUS
 62
    7
 10
253.80990081325905
 20
274.54433172820745
 11
258.3590022778879
 21
274.54433172820745
  0
LINE
  8
_0-0_0
  6
CONTINUOUS
 62
    7
 10
258.3590022778879
 20
274.54433172820745
 11
262.90810374251674
 21
274.54433172820745
  0
LINE
  8
_0-0_0
  6
CONTINUOUS
 62
    7
 10
262.90810374251674
 20
274.54433172820745
 11
267.45720520714565
 21
274.54433172820745
  0
LINE
  8
_0-0_0
  6
CONTINUOUS
 62
    7
 10
267.45720520714565
 20
274.54433172820745
 11
272.00630343059333
 21
274.54433172820745
  0
LINE
  8
_0-0_0
  6
CONTINUOUS
 62
    7
 10
272.00630343059333
 20
274.54433172820745
 11
276.55540489522218
 21
274.54433172820745
  0
LINE
  8
_0-0_0
  6
CONTINUOUS
 62
    7
 10
276.55540489522218
 20
274.54433172820745
 11
281.10562456734851
 21
274.54433172820745
  0
LINE
  8
_0-0_0
  6
CONTINUOUS
 62
    7
 10
246.89580345626916
 20
276.70554483799873
 11
250.90557885956753
 21
276.70554483799873
  0
LINE
  8
_0-0_0
  6
CONTINUOUS
 62
    7
 10
250.90557885956753
 20
276.70554483799873
 11
254.91479353852662
 21
276.70554483799873
  0
LINE
  8
_0-0_0
  6
CONTINUOUS
 62
    7
 10
254.91479353852662
 20
276.70554483799873
 11
258.92401145866683
 21
276.70554483799873
  0
LINE
  8
_0-0_0
  6
CONTINUOUS
 62
    7
 10
258.92401145866683
 20
276.70554483799873
 11
262.93378362078403
 21
276.70554483799873
  0
LINE
  8
_0-0_0
  6
CONTINUOUS
 62
    7
 10
262.93378362078403
 20
276.70554483799873
 11
266.94355902408245
 21
276.70554483799873
  0
LINE
  8
_0-0_0
  6
CONTINUOUS
 62
    7
 10
266.94355902408245
 20
276.70554483799873
 11
270.95221621988333
 21
276.70554483799873
  0
LINE
  8
_0-0_0
  6
CONTINUOUS
 62
    7
 10
270.95221621988333
 20
276.70554483799873
 11
274.96199162318175
 21
276.70554483799873
  0
LINE
  8
_0-0_0
  6
CONTINUOUS
 62
    7
 10
274.96199162318175
 20
276.70554483799873
 11
278.97176702648011
 21
276.70554483799873
  0
LINE
  8
_0-0_0
  6
CONTINUOUS
 62
    7
 10
289.4244271473471
 20
294.99183837340263
 11
288.8114031089824
 21
294.75678791625961
  0
LINE
  8
_0-0_0
  6
CONTINUOUS
 62
    7
 10
288.8114031089824
 20
294.75678791625961
 11
288.19949727811519
 21
294.52118321713954
  0
LINE
  8
_0-0_0
  6
CONTINUOUS
 62
    7
 10
288.19949727811519
 20
294.52118321713954
 11
287.58647323975049
 21
294.28613600117762
  0
LINE
  8
_0-0_0
  6
CONTINUOUS
 62
    7
 10
287.58647323975049
 20
294.28613600117762
 11
286.97344920138585
 21
294.05108554403461
  0
LINE
  8
_0-0_0
  6
CONTINUOUS
 62
    7
 10
286.97344920138585
 20
294.05108554403461
 11
286.36154337051858
 21
293.81603832807269
  0
LINE
  8
_0-0_0
  6
CONTINUOUS
 62
    7
 10
286.36154337051858
 20
293.81603832807269
 11
285.74852257333509
 21
293.58099111211084
  0
LINE
  8
_0-0_0
  6
CONTINUOUS
 62
    7
 10
285.74852257333509
 20
293.58099111211084
 11
285.1354985349704
 21
293.34594389614892
  0
LINE
  8
_0-0_0
  6
CONTINUOUS
 62
    7
 10
285.1354985349704
 20
293.34594389614892
 11
284.52359270410318
 21
293.11089343900591
  0
LINE
  8
_0-0_0
  6
CONTINUOUS
 62
    7
 10
283.54878478437109
 20
291.76760211646524
 11
283.45387003551593
 21
289.94081731911848
  0
LINE
  8
_0-0_0
  6
CONTINUOUS
 62
    7
 10
283.45387003551593
 20
289.94081731911848
 11
283.35784356152567
 21
288.11458676374866
  0
LINE
  8
_0-0_0
  6
CONTINUOUS
 62
    7
 10
283.35784356152567
 20
288.11458676374866
 11
283.26181384635419
 21
286.28835944956006
  0
LINE
  8
_0-0_0
  6
CONTINUOUS
 62
    7
 10
283.26181384635419
 20
286.28835944956006
 11
283.1657841311827
 21
284.46157141103214
  0
LINE
  8
_0-0_0
  6
CONTINUOUS
 62
    7
 10
283.1657841311827
 20
284.46157141103214
 11
283.06975441601128
 21
282.63534409684348
  0
LINE
  8
_0-0_0
  6
CONTINUOUS
 62
    7
 10
283.06975441601128
 20
282.63534409684348
 11
282.9737247008398
 21
280.80911678265488
  0
LINE
  8
_0-0_0
  6
CONTINUOUS
 62
    7
 10
282.9737247008398
 20
280.80911678265488
 11
282.87769498566837
 21
278.98232874412685
  0
LINE
  8
_0-0_0
  6
CONTINUOUS
 62
    7
 10
282.87769498566837
 20
278.98232874412685
 11
282.78278347799437
 21
277.15610142993819
  0
LINE
  8
_0-0_0
  6
CONTINUOUS
 62
    7
 10
282.78278347799437
 20
277.15610142993819
 11
277.81718375297118
 21
277.15610142993819
  0
LINE
  8
_0-0_0
  6
CONTINUOUS
 62
    7
 10
277.81718375297118
 20
277.15610142993819
 11
272.85046906163171
 21
277.15610142993819
  0
LINE
  8
_0-0_0
  6
CONTINUOUS
 62
    7
 10
272.85046906163171
 20
277.15610142993819
 11
267.88375112911115
 21
277.15610142993819
  0
LINE
  8
_0-0_0
  6
CONTINUOUS
 62
    7
 10
267.88375112911115
 20
277.15610142993819
 11
262.91703643777163
 21
277.15610142993819
  0
LINE
  8
_0-0_0
  6
CONTINUOUS
 62
    7
 10
262.91703643777163
 20
277.15610142993819
 11
257.95087922959038
 21
277.15610142993819
  0
LINE
  8
_0-0_0
  6
CONTINUOUS
 62
    7
 10
257.95087922959038
 20
277.15610142993819
 11
252.98471878022792
 21
277.15610142993819
  0
LINE
  8
_0-0_0
  6
CONTINUOUS
 62
    7
 10
252.98471878022792
 20
277.15610142993819
 11
248.01856157204659
 21
277.15610142993819
  0
LINE
  8
_0-0_0
  6
CONTINUOUS
 62
    7
 10
248.01856157204659
 20
277.15610142993819
 11
243.05240436386526
 21
277.15610142993819
  0
LINE
  8
_0-0_0
  6
CONTINUOUS
 62
    7
 10
243.05240436386526
 20
277.15610142993819
 11
242.956932131852
 21
278.98232874412685
  0
LINE
  8
_0-0_0
  6
CONTINUOUS
 62
    7
 10
242.956932131852
 20
278.98232874412685
 11
242.86146314101978
 21
280.80911678265488
  0
LINE
  8
_0-0_0
  6
CONTINUOUS
 62
    7
 10
242.86146314101978
 20
280.80911678265488
 11
242.76599090900646
 21
282.63534409684348
  0
LINE
  8
_0-0_0
  6
CONTINUOUS
 62
    7
 10
242.76599090900646
 20
282.63534409684348
 11
242.6705219181743
 21
284.46157141103214
  0
LINE
  8
_0-0_0
  6
CONTINUOUS
 62
    7
 10
242.6705219181743
 20
284.46157141103214
 11
242.57504968616104
 21
286.28835944956006
  0
LINE
  8
_0-0_0
  6
CONTINUOUS
 62
    7
 10
242.57504968616104
 20
286.28835944956006
 11
242.47957745414772
 21
288.11458676374866
  0
LINE
  8
_0-0_0
  6
CONTINUOUS
 62
    7
 10
242.47957745414772
 20
288.11458676374866
 11
242.3841084633155
 21
289.94081731911848
  0
LINE
  8
_0-0_0
  6
CONTINUOUS
 62
    7
 10
242.3841084633155
 20
289.94081731911848
 11
242.28863623130223
 21
291.76760211646524
  0
LINE
  8
_0-0_0
  6
CONTINUOUS
 62
    7
 10
236.41076069451253
 20
294.99183837340263
 11
237.02322724971907
 21
294.75678791625961
  0
LINE
  8
_0-0_0
  6
CONTINUOUS
 62
    7
 10
237.02322724971907
 20
294.75678791625961
 11
237.63569056374445
 21
294.52118321713954
  0
LINE
  8
_0-0_0
  6
CONTINUOUS
 62
    7
 10
237.63569056374445
 20
294.52118321713954
 11
238.24815711895093
 21
294.28613600117762
  0
LINE
  8
_0-0_0
  6
CONTINUOUS
 62
    7
 10
238.24815711895093
 20
294.28613600117762
 11
238.8606204329763
 21
294.05108554403461
  0
LINE
  8
_0-0_0
  6
CONTINUOUS
 62
    7
 10
238.8606204329763
 20
294.05108554403461
 11
239.47308698818284
 21
293.81603832807269
  0
LINE
  8
_0-0_0
  6
CONTINUOUS
 62
    7
 10
239.47308698818284
 20
293.81603832807269
 11
240.08555030220822
 21
293.58099111211084
  0
LINE
  8
_0-0_0
  6
CONTINUOUS
 62
    7
 10
240.08555030220822
 20
293.58099111211084
 11
240.69857434057292
 21
293.34594389614892
  0
LINE
  8
_0-0_0
  6
CONTINUOUS
 62
    7
 10
240.69857434057292
 20
293.34594389614892
 11
241.31103765459829
 21
293.11089343900591
  0
LINE
  8
_0-0_0
  6
CONTINUOUS
 62
    7
 10
289.05259236322735
 20
296.46577198463689
 11
282.50697840904604
 21
296.46577198463689
  0
LINE
  8
_0-0_0
  6
CONTINUOUS
 62
    7
 10
282.50697840904604
 20
296.46577198463689
 11
275.96136445486479
 21
296.46577198463689
  0
LINE
  8
_0-0_0
  6
CONTINUOUS
 62
    7
 10
275.96136445486479
 20
296.46577198463689
 11
269.41575050068354
 21
296.46577198463689
  0
LINE
  8
_0-0_0
  6
CONTINUOUS
 62
    7
 10
269.41575050068354
 20
296.46577198463689
 11
262.86902158018592
 21
296.46577198463689
  0
LINE
  8
_0-0_0
  6
CONTINUOUS
 62
    7
 10
262.86902158018592
 20
296.46577198463689
 11
256.32340762600461
 21
296.46577198463689
  0
LINE
  8
_0-0_0
  6
CONTINUOUS
 62
    7
 10
256.32340762600461
 20
296.46577198463689
 11
249.77723618866526
 21
296.46577198463689
  0
LINE
  8
_0-0_0
  6
CONTINUOUS
 62
    7
 10
249.77723618866526
 20
296.46577198463689
 11
243.23106151014468
 21
296.46577198463689
  0
LINE
  8
_0-0_0
  6
CONTINUOUS
 62
    7
 10
243.23106151014468
 20
296.46577198463689
 11
236.68544755596338
 21
296.46577198463689
  0
LINE
  8
_0-0_0
  6
CONTINUOUS
 62
    7
 10
284.52359270410318
 20
293.11089343900591
 11
284.3214823710079
 21
293.01598193133191
  0
LINE
  8
_0-0_0
  6
CONTINUOUS
 62
    7
 10
284.3214823710079
 20
293.01598193133191
 11
284.13947384341736
 21
292.89482982105125
  0
LINE
  8
_0-0_0
  6
CONTINUOUS
 62
    7
 10
284.13947384341736
 20
292.89482982105125
 11
283.97644891383402
 21
292.74966704079668
  0
LINE
  8
_0-0_0
  6
CONTINUOUS
 62
    7
 10
283.97644891383402
 20
292.74966704079668
 11
283.83687068870432
 21
292.58385145424143
  0
LINE
  8
_0-0_0
  6
CONTINUOUS
 62
    7
 10
283.83687068870432
 20
292.58385145424143
 11
283.72186061670675
 21
292.40016723599535
  0
LINE
  8
_0-0_0
  6
CONTINUOUS
 62
    7
 10
283.72186061670675
 20
292.40016723599535
 11
283.63476359679021
 21
292.20085080105309
  0
LINE
  8
_0-0_0
  6
CONTINUOUS
 62
    7
 10
283.63476359679021
 20
292.20085080105309
 11
283.57669783645213
 21
291.98925028954477
  0
LINE
  8
_0-0_0
  6
CONTINUOUS
 62
    7
 10
283.57669783645213
 20
291.98925028954477
 11
283.54878478437109
 21
291.76760211646524
  0
LINE
  8
_0-0_0
  6
CONTINUOUS
 62
    7
 10
242.28863623130223
 20
291.76760211646524
 11
242.26016245488188
 21
291.98925028954477
  0
LINE
  8
_0-0_0
  6
CONTINUOUS
 62
    7
 10
242.26016245488188
 20
291.98925028954477
 11
242.20098172822753
 21
292.20085080105309
  0
LINE
  8
_0-0_0
  6
CONTINUOUS
 62
    7
 10
242.20098172822753
 20
292.20085080105309
 11
242.11276974199467
 21
292.40016723599535
  0
LINE
  8
_0-0_0
  6
CONTINUOUS
 62
    7
 10
242.11276974199467
 20
292.40016723599535
 11
241.99831715315526
 21
292.58385145424143
  0
LINE
  8
_0-0_0
  6
CONTINUOUS
 62
    7
 10
241.99831715315526
 20
292.58385145424143
 11
241.85873892802556
 21
292.74966704079668
  0
LINE
  8
_0-0_0
  6
CONTINUOUS
 62
    7
 10
241.85873892802556
 20
292.74966704079668
 11
241.69627148160038
 21
292.89482982105125
  0
LINE
  8
_0-0_0
  6
CONTINUOUS
 62
    7
 10
241.69627148160038
 20
292.89482982105125
 11
241.51258726335425
 21
293.01598193133191
  0
LINE
  8
_0-0_0
  6
CONTINUOUS
 62
    7
 10
241.51258726335425
 20
293.01598193133191
 11
241.31103765459829
 21
293.11089343900591
  0
LINE
  8
_0-0_0
  6
CONTINUOUS
 62
    7
 10
236.68544755596338
 20
296.46577198463689
 11
236.53135532163498
 21
296.45013976794081
  0
LINE
  8
_0-0_0
  6
CONTINUOUS
 62
    7
 10
236.53135532163498
 20
296.45013976794081
 11
236.3878714732171
 21
296.40603377482444
  0
LINE
  8
_0-0_0
  6
CONTINUOUS
 62
    7
 10
236.3878714732171
 20
296.40603377482444
 11
236.25834415083972
 21
296.33512969594324
  0
LINE
  8
_0-0_0
  6
CONTINUOUS
 62
    7
 10
236.25834415083972
 20
296.33512969594324
 11
236.14500652831663
 21
296.24244812090183
  0
LINE
  8
_0-0_0
  6
CONTINUOUS
 62
    7
 10
236.14500652831663
 20
296.24244812090183
 11
236.051767470117
 21
296.129671222718
  0
LINE
  8
_0-0_0
  6
CONTINUOUS
 62
    7
 10
236.051767470117
 20
296.129671222718
 11
235.98142087439402
 21
296.00014390034062
  0
LINE
  8
_0-0_0
  6
CONTINUOUS
 62
    7
 10
235.98142087439402
 20
296.00014390034062
 11
235.93731488127759
 21
295.85721753508079
  0
LINE
  8
_0-0_0
  6
CONTINUOUS
 62
    7
 10
235.93731488127759
 20
295.85721753508079
 11
235.92168266458145
 21
295.70367954272945
  0
LINE
  8
_0-0_0
  6
CONTINUOUS
 62
    7
 10
235.92168266458145
 20
295.70367954272945
 11
235.93061535983639
 21
295.58699378007623
  0
LINE
  8
_0-0_0
  6
CONTINUOUS
 62
    7
 10
235.93061535983639
 20
295.58699378007623
 11
235.956855962443
 21
295.47477436505062
  0
LINE
  8
_0-0_0
  6
CONTINUOUS
 62
    7
 10
235.956855962443
 20
295.47477436505062
 11
235.99872878174568
 21
295.36925447146615
  0
LINE
  8
_0-0_0
  6
CONTINUOUS
 62
    7
 10
235.99872878174568
 20
295.36925447146615
 11
236.05567633458628
 21
295.27154906563908
  0
LINE
  8
_0-0_0
  6
CONTINUOUS
 62
    7
 10
236.05567633458628
 20
295.27154906563908
 11
236.12602293030932
 21
295.18333707940621
  0
LINE
  8
_0-0_0
  6
CONTINUOUS
 62
    7
 10
236.12602293030932
 20
295.18333707940621
 11
236.20976856891474
 21
295.10629096224204
  0
LINE
  8
_0-0_0
  6
CONTINUOUS
 62
    7
 10
236.20976856891474
 20
295.10629096224204
 11
236.305240800928
 21
295.04208640480203
  0
LINE
  8
_0-0_0
  6
CONTINUOUS
 62
    7
 10
236.305240800928
 20
295.04208640480203
 11
236.41076069451253
 21
294.99183837340263
  0
LINE
  8
_0-0_0
  6
CONTINUOUS
 62
    7
 10
289.4244271473471
 20
294.99183837340263
 11
289.56177219866311
 21
295.06106676162813
  0
LINE
  8
_0-0_0
  6
CONTINUOUS
 62
    7
 10
289.56177219866311
 20
295.06106676162813
 11
289.6801336519718
 21
295.15374509548843
  0
LINE
  8
_0-0_0
  6
CONTINUOUS
 62
    7
 10
289.6801336519718
 20
295.15374509548843
 11
289.77616012596212
 21
295.26596775169531
  0
LINE
  8
_0-0_0
  6
CONTINUOUS
 62
    7
 10
289.77616012596212
 20
295.26596775169531
 11
289.84762492918253
 21
295.39326190025895
  0
LINE
  8
_0-0_0
  6
CONTINUOUS
 62
    7
 10
289.84762492918253
 20
295.39326190025895
 11
289.89452157927087
 21
295.53172191789122
  0
LINE
  8
_0-0_0
  6
CONTINUOUS
 62
    7
 10
289.89452157927087
 20
295.53172191789122
 11
289.91350517727813
 21
295.67799966446222
  0
LINE
  8
_0-0_0
  6
CONTINUOUS
 62
    7
 10
289.91350517727813
 20
295.67799966446222
 11
289.90345751570692
 21
295.82706806800491
  0
LINE
  8
_0-0_0
  6
CONTINUOUS
 62
    7
 10
289.90345751570692
 20
295.82706806800491
 11
289.86325714587866
 21
295.97613647154776
  0
LINE
  8
_0-0_0
  6
CONTINUOUS
 62
    7
 10
289.86325714587866
 20
295.97613647154776
 11
289.8130091144792
 21
296.08165636513229
  0
LINE
  8
_0-0_0
  6
CONTINUOUS
 62
    7
 10
289.8130091144792
 20
296.08165636513229
 11
289.74936204019735
 21
296.17712535596439
  0
LINE
  8
_0-0_0
  6
CONTINUOUS
 62
    7
 10
289.74936204019735
 20
296.17712535596439
 11
289.67120095671692
 21
296.2603135114116
  0
LINE
  8
_0-0_0
  6
CONTINUOUS
 62
    7
 10
289.67120095671692
 20
296.2603135114116
 11
289.58298572930289
 21
296.33122083147396
  0
LINE
  8
_0-0_0
  6
CONTINUOUS
 62
    7
 10
289.58298572930289
 20
296.33122083147396
 11
289.48584104781514
 21
296.38816838431455
  0
LINE
  8
_0-0_0
  6
CONTINUOUS
 62
    7
 10
289.48584104781514
 20
296.38816838431455
 11
289.37976367107251
 21
296.4305986867754
  0
LINE
  8
_0-0_0
  6
CONTINUOUS
 62
    7
 10
289.37976367107251
 20
296.4305986867754
 11
289.26810173920495
 21
296.45683928938195
  0
LINE
  8
_0-0_0
  6
CONTINUOUS
 62
    7
 10
289.26810173920495
 20
296.45683928938195
 11
289.15085525221252
 21
296.46577198463689
  0
LINE
  8
_0-0_0
  6
CONTINUOUS
 62
    7
 10
244.83675885875118
 20
215.94813264751576
 11
244.83675885875118
 21
215.02804234799174
  0
LINE
  8
_0-0_0
  6
CONTINUOUS
 62
    7
 10
244.83675885875118
 20
215.02804234799174
 11
244.83675885875118
 21
214.10906377360288
  0
LINE
  8
_0-0_0
  6
CONTINUOUS
 62
    7
 10
244.83675885875118
 20
214.10906377360288
 11
244.83675885875118
 21
213.19008844039513
  0
LINE
  8
_0-0_0
  6
CONTINUOUS
 62
    7
 10
244.83675885875118
 20
213.19008844039513
 11
244.83675885875118
 21
212.26999489969
  0
LINE
  8
_0-0_0
  6
CONTINUOUS
 62
    7
 10
244.83675885875118
 20
212.26999489969
 11
244.83675885875118
 21
211.34990135898488
  0
LINE
  8
_0-0_0
  6
CONTINUOUS
 62
    7
 10
244.83675885875118
 20
211.34990135898488
 11
244.83675885875118
 21
210.43092602577713
  0
LINE
  8
_0-0_0
  6
CONTINUOUS
 62
    7
 10
244.83675885875118
 20
210.43092602577713
 11
244.83675885875118
 21
209.51194745138821
  0
LINE
  8
_0-0_0
  6
CONTINUOUS
 62
    7
 10
244.83675885875118
 20
209.51194745138821
 11
244.83675885875118
 21
208.59185715186425
  0
LINE
  8
_0-0_0
  6
CONTINUOUS
 62
    7
 10
245.69208711767709
 20
173.26988306973686
 11
250.00446567568849
 21
173.26988306973686
  0
LINE
  8
_0-0_0
  6
CONTINUOUS
 62
    7
 10
250.00446567568849
 20
173.26988306973686
 11
254.31740171685803
 21
173.26988306973686
  0
LINE
  8
_0-0_0
  6
CONTINUOUS
 62
    7
 10
254.31740171685803
 20
173.26988306973686
 11
258.63034099920873
 21
173.26988306973686
  0
LINE
  8
_0-0_0
  6
CONTINUOUS
 62
    7
 10
258.63034099920873
 20
173.26988306973686
 11
262.94271631603897
 21
173.26988306973686
  0
LINE
  8
_0-0_0
  6
CONTINUOUS
 62
    7
 10
262.94271631603897
 20
173.26988306973686
 11
267.2562130815478
 21
173.26988306973686
  0
LINE
  8
_0-0_0
  6
CONTINUOUS
 62
    7
 10
267.2562130815478
 20
173.26988306973686
 11
271.5685916395592
 21
173.26988306973686
  0
LINE
  8
_0-0_0
  6
CONTINUOUS
 62
    7
 10
271.5685916395592
 20
173.26988306973686
 11
275.8809701975706
 21
173.26988306973686
  0
LINE
  8
_0-0_0
  6
CONTINUOUS
 62
    7
 10
275.8809701975706
 20
173.26988306973686
 11
280.19334551440079
 21
173.26988306973686
  0
LINE
  8
_0-0_0
  6
CONTINUOUS
 62
    7
 10
279.05104631745797
 20
175.35684071933582
 11
275.02340552364979
 21
175.35684071933582
  0
LINE
  8
_0-0_0
  6
CONTINUOUS
 62
    7
 10
275.02340552364979
 20
175.35684071933582
 11
270.99688293733908
 21
175.35684071933582
  0
LINE
  8
_0-0_0
  6
CONTINUOUS
 62
    7
 10
270.99688293733908
 20
175.35684071933582
 11
266.9703571098471
 21
175.35684071933582
  0
LINE
  8
_0-0_0
  6
CONTINUOUS
 62
    7
 10
266.9703571098471
 20
175.35684071933582
 11
262.94271631603897
 21
175.35684071933582
  0
LINE
  8
_0-0_0
  6
CONTINUOUS
 62
    7
 10
262.94271631603897
 20
175.35684071933582
 11
258.91563624657005
 21
175.35684071933582
  0
LINE
  8
_0-0_0
  6
CONTINUOUS
 62
    7
 10
258.91563624657005
 20
175.35684071933582
 11
254.88855293592002
 21
175.35684071933582
  0
LINE
  8
_0-0_0
  6
CONTINUOUS
 62
    7
 10
254.88855293592002
 20
175.35684071933582
 11
250.86203034960926
 21
175.35684071933582
  0
LINE
  8
_0-0_0
  6
CONTINUOUS
 62
    7
 10
250.86203034960926
 20
175.35684071933582
 11
246.83494703895923
 21
175.35684071933582
  0
LINE
  8
_0-0_0
  6
CONTINUOUS
 62
    7
 10
259.99317340291475
 20
208.59185715186425
 11
259.99317340291475
 21
209.51194745138821
  0
LINE
  8
_0-0_0
  6
CONTINUOUS
 62
    7
 10
259.99317340291475
 20
209.51194745138821
 11
259.99317340291475
 21
210.43092602577713
  0
LINE
  8
_0-0_0
  6
CONTINUOUS
 62
    7
 10
259.99317340291475
 20
210.43092602577713
 11
259.99317340291475
 21
211.34990135898488
  0
LINE
  8
_0-0_0
  6
CONTINUOUS
 62
    7
 10
259.99317340291475
 20
211.34990135898488
 11
259.99317340291475
 21
212.26999489969
  0
LINE
  8
_0-0_0
  6
CONTINUOUS
 62
    7
 10
259.99317340291475
 20
212.26999489969
 11
259.99317340291475
 21
213.19008844039513
  0
LINE
  8
_0-0_0
  6
CONTINUOUS
 62
    7
 10
259.99317340291475
 20
213.19008844039513
 11
259.99317340291475
 21
214.10906377360288
  0
LINE
  8
_0-0_0
  6
CONTINUOUS
 62
    7
 10
259.99317340291475
 20
214.10906377360288
 11
259.99317340291475
 21
215.02804234799174
  0
LINE
  8
_0-0_0
  6
CONTINUOUS
 62
    7
 10
259.99317340291475
 20
215.02804234799174
 11
259.99317340291475
 21
215.94813264751576
  0
LINE
  8
_0-0_0
  6
CONTINUOUS
 62
    7
 10
265.89170498718619
 20
215.94813264751576
 11
265.89170498718619
 21
215.02804234799174
  0
LINE
  8
_0-0_0
  6
CONTINUOUS
 62
    7
 10
265.89170498718619
 20
215.02804234799174
 11
265.89170498718619
 21
214.10906377360288
  0
LINE
  8
_0-0_0
  6
CONTINUOUS
 62
    7
 10
265.89170498718619
 20
214.10906377360288
 11
265.89170498718619
 21
213.19008844039513
  0
LINE
  8
_0-0_0
  6
CONTINUOUS
 62
    7
 10
265.89170498718619
 20
213.19008844039513
 11
265.89170498718619
 21
212.26999489969
  0
LINE
  8
_0-0_0
  6
CONTINUOUS
 62
    7
 10
265.89170498718619
 20
212.26999489969
 11
265.89170498718619
 21
211.34990135898488
  0
LINE
  8
_0-0_0
  6
CONTINUOUS
 62
    7
 10
265.89170498718619
 20
211.34990135898488
 11
265.89170498718619
 21
210.43092602577713
  0
LINE
  8
_0-0_0
  6
CONTINUOUS
 62
    7
 10
265.89170498718619
 20
210.43092602577713
 11
265.89170498718619
 21
209.51194745138821
  0
LINE
  8
_0-0_0
  6
CONTINUOUS
 62
    7
 10
265.89170498718619
 20
209.51194745138821
 11
265.89170498718619
 21
208.59185715186425
  0
LINE
  8
_0-0_0
  6
CONTINUOUS
 62
    7
 10
281.16257212018911
 20
208.59185715186425
 11
281.16257212018911
 21
209.51194745138821
  0
LINE
  8
_0-0_0
  6
CONTINUOUS
 62
    7
 10
281.16257212018911
 20
209.51194745138821
 11
281.16257212018911
 21
210.43092602577713
  0
LINE
  8
_0-0_0
  6
CONTINUOUS
 62
    7
 10
281.16257212018911
 20
210.43092602577713
 11
281.16257212018911
 21
211.34990135898488
  0
LINE
  8
_0-0_0
  6
CONTINUOUS
 62
    7
 10
281.16257212018911
 20
211.34990135898488
 11
281.16257212018911
 21
212.26999489969
  0
LINE
  8
_0-0_0
  6
CONTINUOUS
 62
    7
 10
281.16257212018911
 20
212.26999489969
 11
281.16257212018911
 21
213.19008844039513
  0
LINE
  8
_0-0_0
  6
CONTINUOUS
 62
    7
 10
281.16257212018911
 20
213.19008844039513
 11
281.16257212018911
 21
214.10906377360288
  0
LINE
  8
_0-0_0
  6
CONTINUOUS
 62
    7
 10
281.16257212018911
 20
214.10906377360288
 11
281.16257212018911
 21
215.02804234799174
  0
LINE
  8
_0-0_0
  6
CONTINUOUS
 62
    7
 10
281.16257212018911
 20
215.02804234799174
 11
281.16257212018911
 21
215.94813264751576
  0
LINE
  8
_0-0_0
  6
CONTINUOUS
 62
    7
 10
260.3063817023571
 20
207.83032219311499
 11
260.29633404078595
 21
207.83367357442609
  0
LINE
  8
_0-0_0
  6
CONTINUOUS
 62
    7
 10
260.29633404078595
 20
207.83367357442609
 11
260.28684386237285
 21
207.83702171455613
  0
LINE
  8
_0-0_0
  6
CONTINUOUS
 62
    7
 10
260.28684386237285
 20
207.83702171455613
 11
260.2773504427787
 21
207.84037309586728
  0
LINE
  8
_0-0_0
  6
CONTINUOUS
 62
    7
 10
260.2773504427787
 20
207.84037309586728
 11
260.26730278120743
 21
207.84372123599735
  0
LINE
  8
_0-0_0
  6
CONTINUOUS
 62
    7
 10
260.26730278120743
 20
207.84372123599735
 11
260.25725187845512
 21
207.84707261730853
  0
LINE
  8
_0-0_0
  6
CONTINUOUS
 62
    7
 10
260.25725187845512
 20
207.84707261730853
 11
260.24720097570275
 21
207.85042075743846
  0
LINE
  8
_0-0_0
  6
CONTINUOUS
 62
    7
 10
260.24720097570275
 20
207.85042075743846
 11
260.23715331413155
 21
207.85265393125229
  0
LINE
  8
_0-0_0
  6
CONTINUOUS
 62
    7
 10
260.23715331413155
 20
207.85265393125229
 11
260.2276631357185
 21
207.85600531256335
  0
LINE
  8
_0-0_0
  6
CONTINUOUS
 62
    7
 10
260.2276631357185
 20
207.85600531256335
 11
260.21816971612429
 21
207.86605297413462
  0
LINE
  8
_0-0_0
  6
CONTINUOUS
 62
    7
 10
260.21816971612429
 20
207.86605297413462
 11
260.20812205455309
 21
207.87498566938956
  0
LINE
  8
_0-0_0
  6
CONTINUOUS
 62
    7
 10
260.20812205455309
 20
207.87498566938956
 11
260.19862863495888
 21
207.88391836464439
  0
LINE
  8
_0-0_0
  6
CONTINUOUS
 62
    7
 10
260.19862863495888
 20
207.88391836464439
 11
260.18913845654583
 21
207.89285430108043
  0
LINE
  8
_0-0_0
  6
CONTINUOUS
 62
    7
 10
260.18913845654583
 20
207.89285430108043
 11
260.17964827813279
 21
207.90178699633537
  0
LINE
  8
_0-0_0
  6
CONTINUOUS
 62
    7
 10
260.17964827813279
 20
207.90178699633537
 11
260.17015485853858
 21
207.91071969159032
  0
LINE
  8
_0-0_0
  6
CONTINUOUS
 62
    7
 10
260.17015485853858
 20
207.91071969159032
 11
260.16066468012554
 21
207.91965238684526
  0
LINE
  8
_0-0_0
  6
CONTINUOUS
 62
    7
 10
260.16066468012554
 20
207.91965238684526
 11
260.15117450171249
 21
207.92970004841641
  0
LINE
  8
_0-0_0
  6
CONTINUOUS
 62
    7
 10
260.15117450171249
 20
207.92970004841641
 11
260.14391425593197
 21
207.94421729879622
  0
LINE
  8
_0-0_0
  6
CONTINUOUS
 62
    7
 10
260.14391425593197
 20
207.94421729879622
 11
260.13665725133262
 21
207.95761634167857
  0
LINE
  8
_0-0_0
  6
CONTINUOUS
 62
    7
 10
260.13665725133262
 20
207.95761634167857
 11
260.12940024673333
 21
207.97101538456101
  0
LINE
  8
_0-0_0
  6
CONTINUOUS
 62
    7
 10
260.12940024673333
 20
207.97101538456101
 11
260.12214000095287
 21
207.98441442744337
  0
LINE
  8
_0-0_0
  6
CONTINUOUS
 62
    7
 10
260.12214000095287
 20
207.98441442744337
 11
260.11488299635357
 21
207.9978134703257
  0
LINE
  8
_0-0_0
  6
CONTINUOUS
 62
    7
 10
260.11488299635357
 20
207.9978134703257
 11
260.10762599175422
 21
208.01121575438918
  0
LINE
  8
_0-0_0
  6
CONTINUOUS
 62
    7
 10
260.10762599175422
 20
208.01121575438918
 11
260.09980826281554
 21
208.02461479727162
  0
LINE
  8
_0-0_0
  6
CONTINUOUS
 62
    7
 10
260.09980826281554
 20
208.02461479727162
 11
260.09255125821619
 21
208.03801384015398
  0
LINE
  8
_0-0_0
  6
CONTINUOUS
 62
    7
 10
260.09255125821619
 20
208.03801384015398
 11
260.08585173677506
 21
208.05364605685003
  0
LINE
  8
_0-0_0
  6
CONTINUOUS
 62
    7
 10
260.08585173677506
 20
208.05364605685003
 11
260.07970969849197
 21
208.06816330722984
  0
LINE
  8
_0-0_0
  6
CONTINUOUS
 62
    7
 10
260.07970969849197
 20
208.06816330722984
 11
260.07356766020899
 21
208.083795523926
  0
LINE
  8
_0-0_0
  6
CONTINUOUS
 62
    7
 10
260.07356766020899
 20
208.083795523926
 11
260.06742562192591
 21
208.10054270693837
  0
LINE
  8
_0-0_0
  6
CONTINUOUS
 62
    7
 10
260.06742562192591
 20
208.10054270693837
 11
260.0618443079822
 21
208.11617492363445
  0
LINE
  8
_0-0_0
  6
CONTINUOUS
 62
    7
 10
260.0618443079822
 20
208.11617492363445
 11
260.05625975285727
 21
208.13181038151163
  0
LINE
  8
_0-0_0
  6
CONTINUOUS
 62
    7
 10
260.05625975285727
 20
208.13181038151163
 11
260.05123592207173
 21
208.14855756452403
  0
LINE
  8
_0-0_0
  6
CONTINUOUS
 62
    7
 10
260.05123592207173
 20
208.14855756452403
 11
260.04676957444423
 21
208.16530798871764
  0
LINE
  8
_0-0_0
  6
CONTINUOUS
 62
    7
 10
260.04676957444423
 20
208.16530798871764
 11
260.04230322681678
 21
208.18094020541366
  0
LINE
  8
_0-0_0
  6
CONTINUOUS
 62
    7
 10
260.04230322681678
 20
208.18094020541366
 11
260.03783687918929
 21
208.19769062960722
  0
LINE
  8
_0-0_0
  6
CONTINUOUS
 62
    7
 10
260.03783687918929
 20
208.19769062960722
 11
260.03392801472
 21
208.21332284630336
  0
LINE
  8
_0-0_0
  6
CONTINUOUS
 62
    7
 10
260.03392801472
 20
208.21332284630336
 11
260.03057987458999
 21
208.23007002931575
  0
LINE
  8
_0-0_0
  6
CONTINUOUS
 62
    7
 10
260.03057987458999
 20
208.23007002931575
 11
260.02722849327887
 21
208.24682045350926
  0
LINE
  8
_0-0_0
  6
CONTINUOUS
 62
    7
 10
260.02722849327887
 20
208.24682045350926
 11
260.02443783630696
 21
208.26357087770282
  0
LINE
  8
_0-0_0
  6
CONTINUOUS
 62
    7
 10
260.02443783630696
 20
208.26357087770282
 11
260.0216471793351
 21
208.28031806071522
  0
LINE
  8
_0-0_0
  6
CONTINUOUS
 62
    7
 10
260.0216471793351
 20
208.28031806071522
 11
260.01885328118209
 21
208.29706848490872
  0
LINE
  8
_0-0_0
  6
CONTINUOUS
 62
    7
 10
260.01885328118209
 20
208.29706848490872
 11
260.01606262421024
 21
208.31493387541849
  0
LINE
  8
_0-0_0
  6
CONTINUOUS
 62
    7
 10
260.01606262421024
 20
208.31493387541849
 11
260.01327196723832
 21
208.33168429961202
  0
LINE
  8
_0-0_0
  6
CONTINUOUS
 62
    7
 10
260.01327196723832
 20
208.33168429961202
 11
260.01047806908531
 21
208.34954969012188
  0
LINE
  8
_0-0_0
  6
CONTINUOUS
 62
    7
 10
260.01047806908531
 20
208.34954969012188
 11
260.00768741211346
 21
208.36630011431538
  0
LINE
  8
_0-0_0
  6
CONTINUOUS
 62
    7
 10
260.00768741211346
 20
208.36630011431538
 11
260.00545423829971
 21
208.38304729732781
  0
LINE
  8
_0-0_0
  6
CONTINUOUS
 62
    7
 10
260.00545423829971
 20
208.38304729732781
 11
260.00322106448596
 21
208.40091268783766
  0
LINE
  8
_0-0_0
  6
CONTINUOUS
 62
    7
 10
260.00322106448596
 20
208.40091268783766
 11
260.00154537383037
 21
208.41766311203116
  0
LINE
  8
_0-0_0
  6
CONTINUOUS
 62
    7
 10
260.00154537383037
 20
208.41766311203116
 11
260.0004304075141
 21
208.43552850254105
  0
LINE
  8
_0-0_0
  6
CONTINUOUS
 62
    7
 10
260.0004304075141
 20
208.43552850254105
 11
259.99875471685851
 21
208.45451210054824
  0
LINE
  8
_0-0_0
  6
CONTINUOUS
 62
    7
 10
259.99875471685851
 20
208.45451210054824
 11
259.99707902620293
 21
208.4734956985555
  0
LINE
  8
_0-0_0
  6
CONTINUOUS
 62
    7
 10
259.99707902620293
 20
208.4734956985555
 11
259.99596405988666
 21
208.49359426287907
  0
LINE
  8
_0-0_0
  6
CONTINUOUS
 62
    7
 10
259.99596405988666
 20
208.49359426287907
 11
259.99484585238923
 21
208.51257461970516
  0
LINE
  8
_0-0_0
  6
CONTINUOUS
 62
    7
 10
259.99484585238923
 20
208.51257461970516
 11
259.99428836923107
 21
208.53267642520987
  0
LINE
  8
_0-0_0
  6
CONTINUOUS
 62
    7
 10
259.99428836923107
 20
208.53267642520987
 11
259.99373088607291
 21
208.55165678203596
  0
LINE
  8
_0-0_0
  6
CONTINUOUS
 62
    7
 10
259.99373088607291
 20
208.55165678203596
 11
259.99317340291475
 21
208.57175534635954
  0
LINE
  8
_0-0_0
  6
CONTINUOUS
 62
    7
 10
259.99317340291475
 20
208.57175534635954
 11
259.99317340291475
 21
208.59185715186425
  0
LINE
  8
_0-0_0
  6
CONTINUOUS
 62
    7
 10
281.16257212018911
 20
208.59185715186425
 11
281.16257212018911
 21
208.57175534635954
  0
LINE
  8
_0-0_0
  6
CONTINUOUS
 62
    7
 10
281.16257212018911
 20
208.57175534635954
 11
281.16145391269174
 21
208.55165678203596
  0
LINE
  8
_0-0_0
  6
CONTINUOUS
 62
    7
 10
281.16145391269174
 20
208.55165678203596
 11
281.16033894637542
 21
208.53267642520987
  0
LINE
  8
_0-0_0
  6
CONTINUOUS
 62
    7
 10
281.16033894637542
 20
208.53267642520987
 11
281.15922073887793
 21
208.51257461970516
  0
LINE
  8
_0-0_0
  6
CONTINUOUS
 62
    7
 10
281.15922073887793
 20
208.51257461970516
 11
281.15810577256167
 21
208.49359426287907
  0
LINE
  8
_0-0_0
  6
CONTINUOUS
 62
    7
 10
281.15810577256167
 20
208.49359426287907
 11
281.15587259874798
 21
208.4734956985555
  0
LINE
  8
_0-0_0
  6
CONTINUOUS
 62
    7
 10
281.15587259874798
 20
208.4734956985555
 11
281.15363942493423
 21
208.45451210054824
  0
LINE
  8
_0-0_0
  6
CONTINUOUS
 62
    7
 10
281.15363942493423
 20
208.45451210054824
 11
281.15140625112053
 21
208.43552850254105
  0
LINE
  8
_0-0_0
  6
CONTINUOUS
 62
    7
 10
281.15140625112053
 20
208.43552850254105
 11
281.14805486980936
 21
208.41766311203116
  0
LINE
  8
_0-0_0
  6
CONTINUOUS
 62
    7
 10
281.14805486980936
 20
208.41766311203116
 11
281.14470672967934
 21
208.39979772152134
  0
LINE
  8
_0-0_0
  6
CONTINUOUS
 62
    7
 10
281.14470672967934
 20
208.39979772152134
 11
281.14135534836817
 21
208.38304729732781
  0
LINE
  8
_0-0_0
  6
CONTINUOUS
 62
    7
 10
281.14135534836817
 20
208.38304729732781
 11
281.13688900074067
 21
208.36518190681801
  0
LINE
  8
_0-0_0
  6
CONTINUOUS
 62
    7
 10
281.13688900074067
 20
208.36518190681801
 11
281.13242265311322
 21
208.34731651630818
  0
LINE
  8
_0-0_0
  6
CONTINUOUS
 62
    7
 10
281.13242265311322
 20
208.34731651630818
 11
281.12795630548578
 21
208.33056609211465
  0
LINE
  8
_0-0_0
  6
CONTINUOUS
 62
    7
 10
281.12795630548578
 20
208.33056609211465
 11
281.12237175036086
 21
208.31381890910228
  0
LINE
  8
_0-0_0
  6
CONTINUOUS
 62
    7
 10
281.12237175036086
 20
208.31381890910228
 11
281.11790540273341
 21
208.29706848490872
  0
LINE
  8
_0-0_0
  6
CONTINUOUS
 62
    7
 10
281.11790540273341
 20
208.29706848490872
 11
281.11343905510597
 21
208.28031806071522
  0
LINE
  8
_0-0_0
  6
CONTINUOUS
 62
    7
 10
281.11343905510597
 20
208.28031806071522
 11
281.10785774116221
 21
208.26357087770282
  0
LINE
  8
_0-0_0
  6
CONTINUOUS
 62
    7
 10
281.10785774116221
 20
208.26357087770282
 11
281.10227318603734
 21
208.24682045350926
  0
LINE
  8
_0-0_0
  6
CONTINUOUS
 62
    7
 10
281.10227318603734
 20
208.24682045350926
 11
281.09557366459615
 21
208.23007002931575
  0
LINE
  8
_0-0_0
  6
CONTINUOUS
 62
    7
 10
281.09557366459615
 20
208.23007002931575
 11
281.08887414315495
 21
208.21332284630336
  0
LINE
  8
_0-0_0
  6
CONTINUOUS
 62
    7
 10
281.08887414315495
 20
208.21332284630336
 11
281.0810596553975
 21
208.19769062960722
  0
LINE
  8
_0-0_0
  6
CONTINUOUS
 62
    7
 10
281.0810596553975
 20
208.19769062960722
 11
281.07324192645888
 21
208.18094020541366
  0
LINE
  8
_0-0_0
  6
CONTINUOUS
 62
    7
 10
281.07324192645888
 20
208.18094020541366
 11
281.06430923120399
 21
208.16530798871764
  0
LINE
  8
_0-0_0
  6
CONTINUOUS
 62
    7
 10
281.06430923120399
 20
208.16530798871764
 11
281.05649150226532
 21
208.14855756452403
  0
LINE
  8
_0-0_0
  6
CONTINUOUS
 62
    7
 10
281.05649150226532
 20
208.14855756452403
 11
281.04755880701043
 21
208.13181038151163
  0
LINE
  8
_0-0_0
  6
CONTINUOUS
 62
    7
 10
281.04755880701043
 20
208.13181038151163
 11
281.03862611175549
 21
208.11505995731812
  0
LINE
  8
_0-0_0
  6
CONTINUOUS
 62
    7
 10
281.03862611175549
 20
208.11505995731812
 11
281.02857845018428
 21
208.09942774062205
  0
LINE
  8
_0-0_0
  6
CONTINUOUS
 62
    7
 10
281.02857845018428
 20
208.09942774062205
 11
281.01852754743197
 21
208.083795523926
  0
LINE
  8
_0-0_0
  6
CONTINUOUS
 62
    7
 10
281.01852754743197
 20
208.083795523926
 11
281.0084766446796
 21
208.06816330722984
  0
LINE
  8
_0-0_0
  6
CONTINUOUS
 62
    7
 10
281.0084766446796
 20
208.06816330722984
 11
280.9984289831084
 21
208.05364605685003
  0
LINE
  8
_0-0_0
  6
CONTINUOUS
 62
    7
 10
280.9984289831084
 20
208.05364605685003
 11
280.98726311403971
 21
208.03801384015398
  0
LINE
  8
_0-0_0
  6
CONTINUOUS
 62
    7
 10
280.98726311403971
 20
208.03801384015398
 11
280.97497903747364
 21
208.02349658977414
  0
LINE
  8
_0-0_0
  6
CONTINUOUS
 62
    7
 10
280.97497903747364
 20
208.02349658977414
 11
280.96157999459132
 21
208.00898258057549
  0
LINE
  8
_0-0_0
  6
CONTINUOUS
 62
    7
 10
280.96157999459132
 20
208.00898258057549
 11
280.9492959180252
 21
207.99446533019562
  0
LINE
  8
_0-0_0
  6
CONTINUOUS
 62
    7
 10
280.9492959180252
 20
207.99446533019562
 11
280.93589687514287
 21
207.9810662873133
  0
LINE
  8
_0-0_0
  6
CONTINUOUS
 62
    7
 10
280.93589687514287
 20
207.9810662873133
 11
280.92249783226049
 21
207.96766724443097
  0
LINE
  8
_0-0_0
  6
CONTINUOUS
 62
    7
 10
280.92249783226049
 20
207.96766724443097
 11
280.90798382306184
 21
207.95538316786485
  0
LINE
  8
_0-0_0
  6
CONTINUOUS
 62
    7
 10
280.90798382306184
 20
207.95538316786485
 11
280.89346657268203
 21
207.94198412498253
  0
LINE
  8
_0-0_0
  6
CONTINUOUS
 62
    7
 10
280.89346657268203
 20
207.94198412498253
 11
280.87894932230222
 21
207.92970004841641
  0
LINE
  8
_0-0_0
  6
CONTINUOUS
 62
    7
 10
280.87894932230222
 20
207.92970004841641
 11
280.86331710560609
 21
207.91853417934774
  0
LINE
  8
_0-0_0
  6
CONTINUOUS
 62
    7
 10
280.86331710560609
 20
207.91853417934774
 11
280.84768488891001
 21
207.90848651777657
  0
LINE
  8
_0-0_0
  6
CONTINUOUS
 62
    7
 10
280.84768488891001
 20
207.90848651777657
 11
280.83093446471651
 21
207.8984356150242
  0
LINE
  8
_0-0_0
  6
CONTINUOUS
 62
    7
 10
280.83093446471651
 20
207.8984356150242
 11
280.81418728170411
 21
207.88838795345305
  0
LINE
  8
_0-0_0
  6
CONTINUOUS
 62
    7
 10
280.81418728170411
 20
207.88838795345305
 11
280.79743685751055
 21
207.87833705070062
  0
LINE
  8
_0-0_0
  6
CONTINUOUS
 62
    7
 10
280.79743685751055
 20
207.87833705070062
 11
280.77957146700078
 21
207.87051932176203
  0
LINE
  8
_0-0_0
  6
CONTINUOUS
 62
    7
 10
280.77957146700078
 20
207.87051932176203
 11
280.76170607649095
 21
207.86270483400455
  0
LINE
  8
_0-0_0
  6
CONTINUOUS
 62
    7
 10
280.76170607649095
 20
207.86270483400455
 11
280.74384068598107
 21
207.85600531256335
  0
LINE
  8
_0-0_0
  6
CONTINUOUS
 62
    7
 10
280.74384068598107
 20
207.85600531256335
 11
280.7259752954713
 21
207.85042075743846
  0
LINE
  8
_0-0_0
  6
CONTINUOUS
 62
    7
 10
280.7259752954713
 20
207.85042075743846
 11
280.70922487127774
 21
207.84483944349472
  0
LINE
  8
_0-0_0
  6
CONTINUOUS
 62
    7
 10
280.70922487127774
 20
207.84483944349472
 11
280.69135948076797
 21
207.84037309586728
  0
LINE
  8
_0-0_0
  6
CONTINUOUS
 62
    7
 10
280.69135948076797
 20
207.84037309586728
 11
280.67349409025809
 21
207.83702171455613
  0
LINE
  8
_0-0_0
  6
CONTINUOUS
 62
    7
 10
280.67349409025809
 20
207.83702171455613
 11
280.6556254585671
 21
207.83367357442609
  0
LINE
  8
_0-0_0
  6
CONTINUOUS
 62
    7
 10
280.6556254585671
 20
207.83367357442609
 11
280.63664510174101
 21
207.83255536692869
  0
LINE
  8
_0-0_0
  6
CONTINUOUS
 62
    7
 10
280.63664510174101
 20
207.83255536692869
 11
280.61877971123118
 21
207.83032219311499
  0
LINE
  8
_0-0_0
  6
CONTINUOUS
 62
    7
 10
280.61877971123118
 20
207.83032219311499
 11
280.6009110795402
 21
207.83032219311499
  0
LINE
  8
_0-0_0
  6
CONTINUOUS
 62
    7
 10
265.89170498718619
 20
208.59185715186425
 11
265.89170498718619
 21
208.57287355385699
  0
LINE
  8
_0-0_0
  6
CONTINUOUS
 62
    7
 10
265.89170498718619
 20
208.57287355385699
 11
265.89170498718619
 21
208.5538899558498
  0
LINE
  8
_0-0_0
  6
CONTINUOUS
 62
    7
 10
265.89170498718619
 20
208.5538899558498
 11
265.89170498718619
 21
208.53490959902359
  0
LINE
  8
_0-0_0
  6
CONTINUOUS
 62
    7
 10
265.89170498718619
 20
208.53490959902359
 11
265.89059002086987
 21
208.51592600101634
  0
LINE
  8
_0-0_0
  6
CONTINUOUS
 62
    7
 10
265.89059002086987
 20
208.51592600101634
 11
265.88947181337244
 21
208.49582743669276
  0
LINE
  8
_0-0_0
  6
CONTINUOUS
 62
    7
 10
265.88947181337244
 20
208.49582743669276
 11
265.88835684705612
 21
208.47684383868554
  0
LINE
  8
_0-0_0
  6
CONTINUOUS
 62
    7
 10
265.88835684705612
 20
208.47684383868554
 11
265.88723863955875
 21
208.45786024067831
  0
LINE
  8
_0-0_0
  6
CONTINUOUS
 62
    7
 10
265.88723863955875
 20
208.45786024067831
 11
265.88612367324242
 21
208.43776167635474
  0
LINE
  8
_0-0_0
  6
CONTINUOUS
 62
    7
 10
265.88612367324242
 20
208.43776167635474
 11
265.88389049942867
 21
208.42101449334234
  0
LINE
  8
_0-0_0
  6
CONTINUOUS
 62
    7
 10
265.88389049942867
 20
208.42101449334234
 11
265.88165732561498
 21
208.40426406914884
  0
LINE
  8
_0-0_0
  6
CONTINUOUS
 62
    7
 10
265.88165732561498
 20
208.40426406914884
 11
265.88053911811755
 21
208.38751364495528
  0
LINE
  8
_0-0_0
  6
CONTINUOUS
 62
    7
 10
265.88053911811755
 20
208.38751364495528
 11
265.8783059443038
 21
208.37076646194291
  0
LINE
  8
_0-0_0
  6
CONTINUOUS
 62
    7
 10
265.8783059443038
 20
208.37076646194291
 11
265.87607277049005
 21
208.35401603774937
  0
LINE
  8
_0-0_0
  6
CONTINUOUS
 62
    7
 10
265.87607277049005
 20
208.35401603774937
 11
265.87383959667631
 21
208.33726561355576
  0
LINE
  8
_0-0_0
  6
CONTINUOUS
 62
    7
 10
265.87383959667631
 20
208.33726561355576
 11
265.87049145654635
 21
208.32051843054336
  0
LINE
  8
_0-0_0
  6
CONTINUOUS
 62
    7
 10
265.87049145654635
 20
208.32051843054336
 11
265.86825504155144
 21
208.30265304003362
  0
LINE
  8
_0-0_0
  6
CONTINUOUS
 62
    7
 10
265.86825504155144
 20
208.30265304003362
 11
265.86602186773774
 21
208.2870175821563
  0
LINE
  8
_0-0_0
  6
CONTINUOUS
 62
    7
 10
265.86602186773774
 20
208.2870175821563
 11
265.86267372760767
 21
208.27027039914395
  0
LINE
  8
_0-0_0
  6
CONTINUOUS
 62
    7
 10
265.86267372760767
 20
208.27027039914395
 11
265.85932234629655
 21
208.25351997495039
  0
LINE
  8
_0-0_0
  6
CONTINUOUS
 62
    7
 10
265.85932234629655
 20
208.25351997495039
 11
265.85485599866911
 21
208.23788775825437
  0
LINE
  8
_0-0_0
  6
CONTINUOUS
 62
    7
 10
265.85485599866911
 20
208.23788775825437
 11
265.85038965104161
 21
208.22225554155821
  0
LINE
  8
_0-0_0
  6
CONTINUOUS
 62
    7
 10
265.85038965104161
 20
208.22225554155821
 11
265.84704151091159
 21
208.20550511736468
  0
LINE
  8
_0-0_0
  6
CONTINUOUS
 62
    7
 10
265.84704151091159
 20
208.20550511736468
 11
265.84257516328415
 21
208.18987290066863
  0
LINE
  8
_0-0_0
  6
CONTINUOUS
 62
    7
 10
265.84257516328415
 20
208.18987290066863
 11
265.83810881565671
 21
208.17424068397247
  0
LINE
  8
_0-0_0
  6
CONTINUOUS
 62
    7
 10
265.83810881565671
 20
208.17424068397247
 11
265.83364246802921
 21
208.15860846727642
  0
LINE
  8
_0-0_0
  6
CONTINUOUS
 62
    7
 10
265.83364246802921
 20
208.15860846727642
 11
265.82917612040177
 21
208.14297625058038
  0
LINE
  8
_0-0_0
  6
CONTINUOUS
 62
    7
 10
265.82917612040177
 20
208.14297625058038
 11
265.82470977277433
 21
208.12734403388424
  0
LINE
  8
_0-0_0
  6
CONTINUOUS
 62
    7
 10
265.82470977277433
 20
208.12734403388424
 11
265.82024342514683
 21
208.111708576007
  0
LINE
  8
_0-0_0
  6
CONTINUOUS
 62
    7
 10
265.82024342514683
 20
208.111708576007
 11
265.81465887002196
 21
208.09607635931087
  0
LINE
  8
_0-0_0
  6
CONTINUOUS
 62
    7
 10
265.81465887002196
 20
208.09607635931087
 11
265.80907431489709
 21
208.08156235011222
  0
LINE
  8
_0-0_0
  6
CONTINUOUS
 62
    7
 10
265.80907431489709
 20
208.08156235011222
 11
265.80349300095332
 21
208.06704509973235
  0
LINE
  8
_0-0_0
  6
CONTINUOUS
 62
    7
 10
265.80349300095332
 20
208.06704509973235
 11
265.79679347951213
 21
208.05141288303633
  0
LINE
  8
_0-0_0
  6
CONTINUOUS
 62
    7
 10
265.79679347951213
 20
208.05141288303633
 11
265.790093958071
 21
208.03578066634026
  0
LINE
  8
_0-0_0
  6
CONTINUOUS
 62
    7
 10
265.790093958071
 20
208.03578066634026
 11
265.78227622913232
 21
208.0179152758304
  0
LINE
  8
_0-0_0
  6
CONTINUOUS
 62
    7
 10
265.78227622913232
 20
208.0179152758304
 11
265.77222856756117
 21
208.00004664413939
  0
LINE
  8
_0-0_0
  6
CONTINUOUS
 62
    7
 10
265.77222856756117
 20
208.00004664413939
 11
265.76329587230623
 21
207.98218125362962
  0
LINE
  8
_0-0_0
  6
CONTINUOUS
 62
    7
 10
265.76329587230623
 20
207.98218125362962
 11
265.75436317705129
 21
207.96654903693349
  0
LINE
  8
_0-0_0
  6
CONTINUOUS
 62
    7
 10
265.75436317705129
 20
207.96654903693349
 11
265.74766041442899
 21
207.95314999405116
  0
LINE
  8
_0-0_0
  6
CONTINUOUS
 62
    7
 10
265.74766041442899
 20
207.95314999405116
 11
265.74207910048523
 21
207.94533226511254
  0
LINE
  8
_0-0_0
  6
CONTINUOUS
 62
    7
 10
265.74207910048523
 20
207.94533226511254
 11
265.7409608929878
 21
207.94198412498253
  0
LINE
  8
_0-0_0
  6
CONTINUOUS
 62
    7
 10
265.7409608929878
 20
207.94198412498253
 11
265.73091323141659
 21
207.9319332222301
  0
LINE
  8
_0-0_0
  6
CONTINUOUS
 62
    7
 10
265.73091323141659
 20
207.9319332222301
 11
265.72198053616165
 21
207.92188556065895
  0
LINE
  8
_0-0_0
  6
CONTINUOUS
 62
    7
 10
265.72198053616165
 20
207.92188556065895
 11
265.71304784090677
 21
207.91295286540401
  0
LINE
  8
_0-0_0
  6
CONTINUOUS
 62
    7
 10
265.71304784090677
 20
207.91295286540401
 11
265.70411514565183
 21
207.9029019626517
  0
LINE
  8
_0-0_0
  6
CONTINUOUS
 62
    7
 10
265.70411514565183
 20
207.9029019626517
 11
265.69518245039694
 21
207.89285430108043
  0
LINE
  8
_0-0_0
  6
CONTINUOUS
 62
    7
 10
265.69518245039694
 20
207.89285430108043
 11
265.68624651396084
 21
207.88391836464439
  0
LINE
  8
_0-0_0
  6
CONTINUOUS
 62
    7
 10
265.68624651396084
 20
207.88391836464439
 11
265.67731381870595
 21
207.87387070307324
  0
LINE
  8
_0-0_0
  6
CONTINUOUS
 62
    7
 10
265.67731381870595
 20
207.87387070307324
 11
265.66726615713475
 21
207.8638198003209
  0
LINE
  8
_0-0_0
  6
CONTINUOUS
 62
    7
 10
265.66726615713475
 20
207.8638198003209
 11
265.65610028806611
 21
207.85935345269337
  0
LINE
  8
_0-0_0
  6
CONTINUOUS
 62
    7
 10
265.65610028806611
 20
207.85935345269337
 11
265.64493441899748
 21
207.85488710506598
  0
LINE
  8
_0-0_0
  6
CONTINUOUS
 62
    7
 10
265.64493441899748
 20
207.85488710506598
 11
265.63376530874768
 21
207.85042075743846
  0
LINE
  8
_0-0_0
  6
CONTINUOUS
 62
    7
 10
265.63376530874768
 20
207.85042075743846
 11
265.62259943967911
 21
207.84707261730853
  0
LINE
  8
_0-0_0
  6
CONTINUOUS
 62
    7
 10
265.62259943967911
 20
207.84707261730853
 11
265.61143357061042
 21
207.84372123599735
  0
LINE
  8
_0-0_0
  6
CONTINUOUS
 62
    7
 10
265.61143357061042
 20
207.84372123599735
 11
265.60026770154178
 21
207.83925488836982
  0
LINE
  8
_0-0_0
  6
CONTINUOUS
 62
    7
 10
265.60026770154178
 20
207.83925488836982
 11
265.58910183247315
 21
207.83478854074241
  0
LINE
  8
_0-0_0
  6
CONTINUOUS
 62
    7
 10
265.58910183247315
 20
207.83478854074241
 11
265.57793596340446
 21
207.83032219311499
  0
LINE
  8
_0-0_0
  6
CONTINUOUS
 62
    7
 10
244.83675885875118
 20
208.59185715186425
 11
244.83675885875118
 21
208.57287355385699
  0
LINE
  8
_0-0_0
  6
CONTINUOUS
 62
    7
 10
244.83675885875118
 20
208.57287355385699
 11
244.83731634190934
 21
208.5538899558498
  0
LINE
  8
_0-0_0
  6
CONTINUOUS
 62
    7
 10
244.83731634190934
 20
208.5538899558498
 11
244.83787706624867
 21
208.53490959902359
  0
LINE
  8
_0-0_0
  6
CONTINUOUS
 62
    7
 10
244.83787706624867
 20
208.53490959902359
 11
244.83899203256493
 21
208.51592600101634
  0
LINE
  8
_0-0_0
  6
CONTINUOUS
 62
    7
 10
244.83899203256493
 20
208.51592600101634
 11
244.84011024006236
 21
208.49582743669276
  0
LINE
  8
_0-0_0
  6
CONTINUOUS
 62
    7
 10
244.84011024006236
 20
208.49582743669276
 11
244.84178268953679
 21
208.47684383868554
  0
LINE
  8
_0-0_0
  6
CONTINUOUS
 62
    7
 10
244.84178268953679
 20
208.47684383868554
 11
244.84401586335053
 21
208.45786024067831
  0
LINE
  8
_0-0_0
  6
CONTINUOUS
 62
    7
 10
244.84401586335053
 20
208.45786024067831
 11
244.84680976150355
 21
208.43776167635474
  0
LINE
  8
_0-0_0
  6
CONTINUOUS
 62
    7
 10
244.84680976150355
 20
208.43776167635474
 11
244.84848545215914
 21
208.42101449334234
  0
LINE
  8
_0-0_0
  6
CONTINUOUS
 62
    7
 10
244.84848545215914
 20
208.42101449334234
 11
244.85071862597289
 21
208.40426406914884
  0
LINE
  8
_0-0_0
  6
CONTINUOUS
 62
    7
 10
244.85071862597289
 20
208.40426406914884
 11
244.85350928294474
 21
208.38751364495528
  0
LINE
  8
_0-0_0
  6
CONTINUOUS
 62
    7
 10
244.85350928294474
 20
208.38751364495528
 11
244.85629993991665
 21
208.37076646194291
  0
LINE
  8
_0-0_0
  6
CONTINUOUS
 62
    7
 10
244.85629993991665
 20
208.37076646194291
 11
244.85909059688851
 21
208.35401603774937
  0
LINE
  8
_0-0_0
  6
CONTINUOUS
 62
    7
 10
244.85909059688851
 20
208.35401603774937
 11
244.86244197819963
 21
208.33726561355576
  0
LINE
  8
_0-0_0
  6
CONTINUOUS
 62
    7
 10
244.86244197819963
 20
208.33726561355576
 11
244.8657901183297
 21
208.32051843054336
  0
LINE
  8
_0-0_0
  6
CONTINUOUS
 62
    7
 10
244.8657901183297
 20
208.32051843054336
 11
244.86969898279898
 21
208.30265304003362
  0
LINE
  8
_0-0_0
  6
CONTINUOUS
 62
    7
 10
244.86969898279898
 20
208.30265304003362
 11
244.87360784726826
 21
208.2870175821563
  0
LINE
  8
_0-0_0
  6
CONTINUOUS
 62
    7
 10
244.87360784726826
 20
208.2870175821563
 11
244.87807419489576
 21
208.27027039914395
  0
LINE
  8
_0-0_0
  6
CONTINUOUS
 62
    7
 10
244.87807419489576
 20
208.27027039914395
 11
244.88309802568136
 21
208.25351997495039
  0
LINE
  8
_0-0_0
  6
CONTINUOUS
 62
    7
 10
244.88309802568136
 20
208.25351997495039
 11
244.88812509764807
 21
208.23788775825437
  0
LINE
  8
_0-0_0
  6
CONTINUOUS
 62
    7
 10
244.88812509764807
 20
208.23788775825437
 11
244.89314892843367
 21
208.22225554155821
  0
LINE
  8
_0-0_0
  6
CONTINUOUS
 62
    7
 10
244.89314892843367
 20
208.22225554155821
 11
244.89873024237744
 21
208.20550511736468
  0
LINE
  8
_0-0_0
  6
CONTINUOUS
 62
    7
 10
244.89873024237744
 20
208.20550511736468
 11
244.90487228066047
 21
208.18987290066863
  0
LINE
  8
_0-0_0
  6
CONTINUOUS
 62
    7
 10
244.90487228066047
 20
208.18987290066863
 11
244.9104568357854
 21
208.17424068397247
  0
LINE
  8
_0-0_0
  6
CONTINUOUS
 62
    7
 10
244.9104568357854
 20
208.17424068397247
 11
244.91715635722659
 21
208.15749025977894
  0
LINE
  8
_0-0_0
  6
CONTINUOUS
 62
    7
 10
244.91715635722659
 20
208.15749025977894
 11
244.92385587866778
 21
208.14185804308289
  0
LINE
  8
_0-0_0
  6
CONTINUOUS
 62
    7
 10
244.92385587866778
 20
208.14185804308289
 11
244.93055540010897
 21
208.12734403388424
  0
LINE
  8
_0-0_0
  6
CONTINUOUS
 62
    7
 10
244.93055540010897
 20
208.12734403388424
 11
244.93781240470827
 21
208.111708576007
  0
LINE
  8
_0-0_0
  6
CONTINUOUS
 62
    7
 10
244.93781240470827
 20
208.111708576007
 11
244.94507265048878
 21
208.09607635931087
  0
LINE
  8
_0-0_0
  6
CONTINUOUS
 62
    7
 10
244.94507265048878
 20
208.09607635931087
 11
244.95288713824624
 21
208.08156235011222
  0
LINE
  8
_0-0_0
  6
CONTINUOUS
 62
    7
 10
244.95288713824624
 20
208.08156235011222
 11
244.96070486718486
 21
208.06704509973235
  0
LINE
  8
_0-0_0
  6
CONTINUOUS
 62
    7
 10
244.96070486718486
 20
208.06704509973235
 11
244.96908007928164
 21
208.05141288303633
  0
LINE
  8
_0-0_0
  6
CONTINUOUS
 62
    7
 10
244.96908007928164
 20
208.05141288303633
 11
244.97968522401095
 21
208.03466245884277
  0
LINE
  8
_0-0_0
  6
CONTINUOUS
 62
    7
 10
244.97968522401095
 20
208.03466245884277
 11
244.99141181741891
 21
208.0179152758304
  0
LINE
  8
_0-0_0
  6
CONTINUOUS
 62
    7
 10
244.99141181741891
 20
208.0179152758304
 11
245.00481086030123
 21
208.00004664413939
  0
LINE
  8
_0-0_0
  6
CONTINUOUS
 62
    7
 10
245.00481086030123
 20
208.00004664413939
 11
245.01820990318367
 21
207.98218125362962
  0
LINE
  8
_0-0_0
  6
CONTINUOUS
 62
    7
 10
245.01820990318367
 20
207.98218125362962
 11
245.0310514629079
 21
207.96654903693349
  0
LINE
  8
_0-0_0
  6
CONTINUOUS
 62
    7
 10
245.0310514629079
 20
207.96654903693349
 11
245.04109912447905
 21
207.95314999405116
  0
LINE
  8
_0-0_0
  6
CONTINUOUS
 62
    7
 10
245.04109912447905
 20
207.95314999405116
 11
245.04779864592024
 21
207.94533226511254
  0
LINE
  8
_0-0_0
  6
CONTINUOUS
 62
    7
 10
245.04779864592024
 20
207.94533226511254
 11
245.05059254407331
 21
207.94198412498253
  0
LINE
  8
_0-0_0
  6
CONTINUOUS
 62
    7
 10
245.05059254407331
 20
207.94198412498253
 11
245.05338320104516
 21
207.93975095116878
  0
LINE
  8
_0-0_0
  6
CONTINUOUS
 62
    7
 10
245.05338320104516
 20
207.93975095116878
 11
245.06120092998373
 21
207.93305142972758
  0
LINE
  8
_0-0_0
  6
CONTINUOUS
 62
    7
 10
245.06120092998373
 20
207.93305142972758
 11
245.07348176536868
 21
207.92188556065895
  0
LINE
  8
_0-0_0
  6
CONTINUOUS
 62
    7
 10
245.07348176536868
 20
207.92188556065895
 11
245.08855649890666
 21
207.90960148409283
  0
LINE
  8
_0-0_0
  6
CONTINUOUS
 62
    7
 10
245.08855649890666
 20
207.90960148409283
 11
245.10530692310016
 21
207.89732064870796
  0
LINE
  8
_0-0_0
  6
CONTINUOUS
 62
    7
 10
245.10530692310016
 20
207.89732064870796
 11
245.12261483045188
 21
207.88391836464439
  0
LINE
  8
_0-0_0
  6
CONTINUOUS
 62
    7
 10
245.12261483045188
 20
207.88391836464439
 11
245.13936201346428
 21
207.87275249557572
  0
LINE
  8
_0-0_0
  6
CONTINUOUS
 62
    7
 10
245.13936201346428
 20
207.87275249557572
 11
245.1549942301603
 21
207.8638198003209
  0
LINE
  8
_0-0_0
  6
CONTINUOUS
 62
    7
 10
245.1549942301603
 20
207.8638198003209
 11
245.17006896369833
 21
207.85712027887968
  0
LINE
  8
_0-0_0
  6
CONTINUOUS
 62
    7
 10
245.17006896369833
 20
207.85712027887968
 11
245.1857011803944
 21
207.85042075743846
  0
LINE
  8
_0-0_0
  6
CONTINUOUS
 62
    7
 10
245.1857011803944
 20
207.85042075743846
 11
245.20189412142975
 21
207.84483944349472
  0
LINE
  8
_0-0_0
  6
CONTINUOUS
 62
    7
 10
245.20189412142975
 20
207.84483944349472
 11
245.21808382128404
 21
207.83925488836982
  0
LINE
  8
_0-0_0
  6
CONTINUOUS
 62
    7
 10
245.21808382128404
 20
207.83925488836982
 11
245.23427676231938
 21
207.83590674823989
  0
LINE
  8
_0-0_0
  6
CONTINUOUS
 62
    7
 10
245.23427676231938
 20
207.83590674823989
 11
245.25046646217368
 21
207.83255536692869
  0
LINE
  8
_0-0_0
  6
CONTINUOUS
 62
    7
 10
245.25046646217368
 20
207.83255536692869
 11
245.26777436952528
 21
207.83144040061237
  0
LINE
  8
_0-0_0
  6
CONTINUOUS
 62
    7
 10
245.26777436952528
 20
207.83144040061237
 11
245.28452155253768
 21
207.83032219311499
  0
LINE
  8
_0-0_0
  6
CONTINUOUS
 62
    7
 10
281.16257212018911
 20
215.94813264751576
 11
281.16480529400286
 21
216.04528057018456
  0
LINE
  8
_0-0_0
  6
CONTINUOUS
 62
    7
 10
281.16480529400286
 20
216.04528057018456
 11
281.17261978176037
 21
216.14242525167236
  0
LINE
  8
_0-0_0
  6
CONTINUOUS
 62
    7
 10
281.17261978176037
 20
216.14242525167236
 11
281.18490385832644
 21
216.23956993316006
  0
LINE
  8
_0-0_0
  6
CONTINUOUS
 62
    7
 10
281.18490385832644
 20
216.23956993316006
 11
281.20165428251994
 21
216.33671785582902
  0
LINE
  8
_0-0_0
  6
CONTINUOUS
 62
    7
 10
281.20165428251994
 20
216.33671785582902
 11
281.22398602065721
 21
216.43162936350302
  0
LINE
  8
_0-0_0
  6
CONTINUOUS
 62
    7
 10
281.22398602065721
 20
216.43162936350302
 11
281.25301728023572
 21
216.52654087117696
  0
LINE
  8
_0-0_0
  6
CONTINUOUS
 62
    7
 10
281.25301728023572
 20
216.52654087117696
 11
281.28539992112536
 21
216.61922244621843
  0
LINE
  8
_0-0_0
  6
CONTINUOUS
 62
    7
 10
281.28539992112536
 20
216.61922244621843
 11
281.32448208345613
 21
216.70966760626499
  0
LINE
  8
_0-0_0
  6
CONTINUOUS
 62
    7
 10
281.32448208345613
 20
216.70966760626499
 11
281.36467921210323
 21
216.79118007105666
  0
LINE
  8
_0-0_0
  6
CONTINUOUS
 62
    7
 10
281.36467921210323
 20
216.79118007105666
 11
281.40934268837776
 21
216.86934439571834
  0
LINE
  8
_0-0_0
  6
CONTINUOUS
 62
    7
 10
281.40934268837776
 20
216.86934439571834
 11
281.45847575346102
 21
216.94527230538509
  0
LINE
  8
_0-0_0
  6
CONTINUOUS
 62
    7
 10
281.45847575346102
 20
216.94527230538509
 11
281.51207192499049
 21
217.01785531610295
  0
LINE
  8
_0-0_0
  6
CONTINUOUS
 62
    7
 10
281.51207192499049
 20
217.01785531610295
 11
281.57013768532852
 21
217.08708370432851
  0
LINE
  8
_0-0_0
  6
CONTINUOUS
 62
    7
 10
281.57013768532852
 20
217.08708370432851
 11
281.63155158579661
 21
217.15184898610772
  0
LINE
  8
_0-0_0
  6
CONTINUOUS
 62
    7
 10
281.63155158579661
 20
217.15184898610772
 11
281.69854680020848
 21
217.21214467907845
  0
LINE
  8
_0-0_0
  6
CONTINUOUS
 62
    7
 10
281.69854680020848
 20
217.21214467907845
 11
281.77001160342888
 21
217.2668590581053
  0
LINE
  8
_0-0_0
  6
CONTINUOUS
 62
    7
 10
281.77001160342888
 20
217.2668590581053
 11
281.79234334156615
 21
217.28249127480143
  0
LINE
  8
_0-0_0
  6
CONTINUOUS
 62
    7
 10
281.79234334156615
 20
217.28249127480143
 11
281.81467507970348
 21
217.29812349149751
  0
LINE
  8
_0-0_0
  6
CONTINUOUS
 62
    7
 10
281.81467507970348
 20
217.29812349149751
 11
281.83812502533817
 21
217.31264074187732
  0
LINE
  8
_0-0_0
  6
CONTINUOUS
 62
    7
 10
281.83812502533817
 20
217.31264074187732
 11
281.86268993728925
 21
217.32603978475964
  0
LINE
  8
_0-0_0
  6
CONTINUOUS
 62
    7
 10
281.86268993728925
 20
217.32603978475964
 11
281.88725484924021
 21
217.33943882764214
  0
LINE
  8
_0-0_0
  6
CONTINUOUS
 62
    7
 10
281.88725484924021
 20
217.33943882764214
 11
281.91182300237239
 21
217.35283787052447
  0
LINE
  8
_0-0_0
  6
CONTINUOUS
 62
    7
 10
281.91182300237239
 20
217.35283787052447
 11
281.93750288063967
 21
217.36512194709059
  0
LINE
  8
_0-0_0
  6
CONTINUOUS
 62
    7
 10
281.93750288063967
 20
217.36512194709059
 11
281.96207103377185
 21
217.37740602365659
  0
LINE
  8
_0-0_0
  6
CONTINUOUS
 62
    7
 10
281.96207103377185
 20
217.37740602365659
 11
282.01120085767383
 21
217.39861955429649
  0
LINE
  8
_0-0_0
  6
CONTINUOUS
 62
    7
 10
282.01120085767383
 20
217.39861955429649
 11
282.06256385538961
 21
217.41760315230371
  0
LINE
  8
_0-0_0
  6
CONTINUOUS
 62
    7
 10
282.06256385538961
 20
217.41760315230371
 11
282.1139300942865
 21
217.43323536899976
  0
LINE
  8
_0-0_0
  6
CONTINUOUS
 62
    7
 10
282.1139300942865
 20
217.43323536899976
 11
282.16529309200223
 21
217.4466344118822
  0
LINE
  8
_0-0_0
  6
CONTINUOUS
 62
    7
 10
282.16529309200223
 20
217.4466344118822
 11
282.21777429721539
 21
217.45668531463451
  0
LINE
  8
_0-0_0
  6
CONTINUOUS
 62
    7
 10
282.21777429721539
 20
217.45668531463451
 11
282.2702555024286
 21
217.46449980239197
  0
LINE
  8
_0-0_0
  6
CONTINUOUS
 62
    7
 10
282.2702555024286
 20
217.46449980239197
 11
282.32385491513924
 21
217.46896615001947
  0
LINE
  8
_0-0_0
  6
CONTINUOUS
 62
    7
 10
282.32385491513924
 20
217.46896615001947
 11
282.37633612035239
 21
217.47119932383322
  0
LINE
  8
_0-0_0
  6
CONTINUOUS
 62
    7
 10
265.89170498718619
 20
215.94813264751576
 11
265.89393816099988
 21
216.04416236268719
  0
LINE
  8
_0-0_0
  6
CONTINUOUS
 62
    7
 10
265.89393816099988
 20
216.04416236268719
 11
265.89840450862732
 21
216.14019207785867
  0
LINE
  8
_0-0_0
  6
CONTINUOUS
 62
    7
 10
265.89840450862732
 20
216.14019207785867
 11
265.90622223756594
 21
216.23622179303004
  0
LINE
  8
_0-0_0
  6
CONTINUOUS
 62
    7
 10
265.90622223756594
 20
216.23622179303004
 11
265.91738810663458
 21
216.33225150820149
  0
LINE
  8
_0-0_0
  6
CONTINUOUS
 62
    7
 10
265.91738810663458
 20
216.33225150820149
 11
265.93190535701439
 21
216.42716301587558
  0
LINE
  8
_0-0_0
  6
CONTINUOUS
 62
    7
 10
265.93190535701439
 20
216.42716301587558
 11
265.94977074752421
 21
216.52207452354958
  0
LINE
  8
_0-0_0
  6
CONTINUOUS
 62
    7
 10
265.94977074752421
 20
216.52207452354958
 11
265.96986931184779
 21
216.61587106490734
  0
LINE
  8
_0-0_0
  6
CONTINUOUS
 62
    7
 10
265.96986931184779
 20
216.61587106490734
 11
265.99331925748254
 21
216.70966760626499
  0
LINE
  8
_0-0_0
  6
CONTINUOUS
 62
    7
 10
265.99331925748254
 20
216.70966760626499
 11
266.01341782180606
 21
216.78113240948548
  0
LINE
  8
_0-0_0
  6
CONTINUOUS
 62
    7
 10
266.01341782180606
 20
216.78113240948548
 11
266.03686452625959
 21
216.85147900520849
  0
LINE
  8
_0-0_0
  6
CONTINUOUS
 62
    7
 10
266.03686452625959
 20
216.85147900520849
 11
266.06254764570804
 21
216.92070739343399
  0
LINE
  8
_0-0_0
  6
CONTINUOUS
 62
    7
 10
266.06254764570804
 20
216.92070739343399
 11
266.09157890528655
 21
216.98993902284079
  0
LINE
  8
_0-0_0
  6
CONTINUOUS
 62
    7
 10
266.09157890528655
 20
216.98993902284079
 11
266.12507975367362
 21
217.05693423725262
  0
LINE
  8
_0-0_0
  6
CONTINUOUS
 62
    7
 10
266.12507975367362
 20
217.05693423725262
 11
266.1619287421907
 21
217.12169951903189
  0
LINE
  8
_0-0_0
  6
CONTINUOUS
 62
    7
 10
266.1619287421907
 20
217.12169951903189
 11
266.20547401096781
 21
217.18311341949996
  0
LINE
  8
_0-0_0
  6
CONTINUOUS
 62
    7
 10
266.20547401096781
 20
217.18311341949996
 11
266.25348886855357
 21
217.24341235365179
  0
LINE
  8
_0-0_0
  6
CONTINUOUS
 62
    7
 10
266.25348886855357
 20
217.24341235365179
 11
266.25572204236727
 21
217.24564552746551
  0
LINE
  8
_0-0_0
  6
CONTINUOUS
 62
    7
 10
266.25572204236727
 20
217.24564552746551
 11
266.25795521618096
 21
217.24899366759553
  0
LINE
  8
_0-0_0
  6
CONTINUOUS
 62
    7
 10
266.25795521618096
 20
217.24899366759553
 11
266.26018838999477
 21
217.2523450489067
  0
LINE
  8
_0-0_0
  6
CONTINUOUS
 62
    7
 10
266.26018838999477
 20
217.2523450489067
 11
266.26242156380846
 21
217.25457822272045
  0
LINE
  8
_0-0_0
  6
CONTINUOUS
 62
    7
 10
266.26242156380846
 20
217.25457822272045
 11
266.26465473762221
 21
217.25792636285047
  0
LINE
  8
_0-0_0
  6
CONTINUOUS
 62
    7
 10
266.26465473762221
 20
217.25792636285047
 11
266.2668879114359
 21
217.26127774416156
  0
LINE
  8
_0-0_0
  6
CONTINUOUS
 62
    7
 10
266.2668879114359
 20
217.26127774416156
 11
266.26912108524971
 21
217.26351091797537
  0
LINE
  8
_0-0_0
  6
CONTINUOUS
 62
    7
 10
266.26912108524971
 20
217.26351091797537
 11
266.2713542590634
 21
217.2668590581053
  0
LINE
  8
_0-0_0
  6
CONTINUOUS
 62
    7
 10
266.2713542590634
 20
217.2668590581053
 11
266.31043642139417
 21
217.30705942793361
  0
LINE
  8
_0-0_0
  6
CONTINUOUS
 62
    7
 10
266.31043642139417
 20
217.30705942793361
 11
266.35286996503618
 21
217.34502338276701
  0
LINE
  8
_0-0_0
  6
CONTINUOUS
 62
    7
 10
266.35286996503618
 20
217.34502338276701
 11
266.39753344131071
 21
217.37963919747028
  0
LINE
  8
_0-0_0
  6
CONTINUOUS
 62
    7
 10
266.39753344131071
 20
217.37963919747028
 11
266.44554829889643
 21
217.41090363086249
  0
LINE
  8
_0-0_0
  6
CONTINUOUS
 62
    7
 10
266.44554829889643
 20
217.41090363086249
 11
266.49467812279846
 21
217.43546854281357
  0
LINE
  8
_0-0_0
  6
CONTINUOUS
 62
    7
 10
266.49467812279846
 20
217.43546854281357
 11
266.54604436169541
 21
217.45445214082082
  0
LINE
  8
_0-0_0
  6
CONTINUOUS
 62
    7
 10
266.54604436169541
 20
217.45445214082082
 11
266.59852556690856
 21
217.46673297620566
  0
LINE
  8
_0-0_0
  6
CONTINUOUS
 62
    7
 10
266.59852556690856
 20
217.46673297620566
 11
266.65323994593547
 21
217.47119932383322
  0
LINE
  8
_0-0_0
  6
CONTINUOUS
 62
    7
 10
244.83675885875118
 20
215.94813264751576
 11
244.83508316809565
 21
216.04416236268719
  0
LINE
  8
_0-0_0
  6
CONTINUOUS
 62
    7
 10
244.83508316809565
 20
216.04416236268719
 11
244.83061682046821
 21
216.14019207785867
  0
LINE
  8
_0-0_0
  6
CONTINUOUS
 62
    7
 10
244.83061682046821
 20
216.14019207785867
 11
244.82280233271069
 21
216.23622179303004
  0
LINE
  8
_0-0_0
  6
CONTINUOUS
 62
    7
 10
244.82280233271069
 20
216.23622179303004
 11
244.81163646364206
 21
216.33225150820149
  0
LINE
  8
_0-0_0
  6
CONTINUOUS
 62
    7
 10
244.81163646364206
 20
216.33225150820149
 11
244.79711921326231
 21
216.42716301587558
  0
LINE
  8
_0-0_0
  6
CONTINUOUS
 62
    7
 10
244.79711921326231
 20
216.42716301587558
 11
244.77925382275242
 21
216.52207452354958
  0
LINE
  8
_0-0_0
  6
CONTINUOUS
 62
    7
 10
244.77925382275242
 20
216.52207452354958
 11
244.75859453408958
 21
216.61587106490734
  0
LINE
  8
_0-0_0
  6
CONTINUOUS
 62
    7
 10
244.75859453408958
 20
216.61587106490734
 11
244.73459034647789
 21
216.70966760626499
  0
LINE
  8
_0-0_0
  6
CONTINUOUS
 62
    7
 10
244.73459034647789
 20
216.70966760626499
 11
244.71281609149872
 21
216.78448054961552
  0
LINE
  8
_0-0_0
  6
CONTINUOUS
 62
    7
 10
244.71281609149872
 20
216.78448054961552
 11
244.6882479383666
 21
216.85817852664968
  0
LINE
  8
_0-0_0
  6
CONTINUOUS
 62
    7
 10
244.6882479383666
 20
216.85817852664968
 11
244.66033488628557
 21
216.93075829618641
  0
LINE
  8
_0-0_0
  6
CONTINUOUS
 62
    7
 10
244.66033488628557
 20
216.93075829618641
 11
244.6290672117122
 21
217.00333806572314
  0
LINE
  8
_0-0_0
  6
CONTINUOUS
 62
    7
 10
244.6290672117122
 20
217.00333806572314
 11
244.59389391385071
 21
217.07368466144612
  0
LINE
  8
_0-0_0
  6
CONTINUOUS
 62
    7
 10
244.59389391385071
 20
217.07368466144612
 11
244.55369678520361
 21
217.14068311703909
  0
LINE
  8
_0-0_0
  6
CONTINUOUS
 62
    7
 10
244.55369678520361
 20
217.14068311703909
 11
244.50847258458975
 21
217.2054451576372
  0
LINE
  8
_0-0_0
  6
CONTINUOUS
 62
    7
 10
244.50847258458975
 20
217.2054451576372
 11
244.45710958687403
 21
217.2668590581053
  0
LINE
  8
_0-0_0
  6
CONTINUOUS
 62
    7
 10
244.45710958687403
 20
217.2668590581053
 11
244.41746994138504
 21
217.30705942793361
  0
LINE
  8
_0-0_0
  6
CONTINUOUS
 62
    7
 10
244.41746994138504
 20
217.30705942793361
 11
244.37503639774303
 21
217.34502338276701
  0
LINE
  8
_0-0_0
  6
CONTINUOUS
 62
    7
 10
244.37503639774303
 20
217.34502338276701
 11
244.32981543831039
 21
217.37963919747028
  0
LINE
  8
_0-0_0
  6
CONTINUOUS
 62
    7
 10
244.32981543831039
 20
217.37963919747028
 11
244.28235806388278
 21
217.41090363086249
  0
LINE
  8
_0-0_0
  6
CONTINUOUS
 62
    7
 10
244.28235806388278
 20
217.41090363086249
 11
244.23322823998075
 21
217.43546854281357
  0
LINE
  8
_0-0_0
  6
CONTINUOUS
 62
    7
 10
244.23322823998075
 20
217.43546854281357
 11
244.18186200108386
 21
217.45445214082082
  0
LINE
  8
_0-0_0
  6
CONTINUOUS
 62
    7
 10
244.18186200108386
 20
217.45445214082082
 11
244.1293807958707
 21
217.46673297620566
  0
LINE
  8
_0-0_0
  6
CONTINUOUS
 62
    7
 10
244.1293807958707
 20
217.46673297620566
 11
244.07522714118306
 21
217.47119932383322
  0
LINE
  8
_0-0_0
  6
CONTINUOUS
 62
    7
 10
259.99317340291475
 20
215.94813264751576
 11
259.99149771225916
 21
216.04416236268719
  0
LINE
  8
_0-0_0
  6
CONTINUOUS
 62
    7
 10
259.99149771225916
 20
216.04416236268719
 11
259.98703136463172
 21
216.14019207785867
  0
LINE
  8
_0-0_0
  6
CONTINUOUS
 62
    7
 10
259.98703136463172
 20
216.14019207785867
 11
259.9792136356931
 21
216.23622179303004
  0
LINE
  8
_0-0_0
  6
CONTINUOUS
 62
    7
 10
259.9792136356931
 20
216.23622179303004
 11
259.96804776662447
 21
216.33225150820149
  0
LINE
  8
_0-0_0
  6
CONTINUOUS
 62
    7
 10
259.96804776662447
 20
216.33225150820149
 11
259.95353051624465
 21
216.42716301587558
  0
LINE
  8
_0-0_0
  6
CONTINUOUS
 62
    7
 10
259.95353051624465
 20
216.42716301587558
 11
259.93622585007409
 21
216.52207452354958
  0
LINE
  8
_0-0_0
  6
CONTINUOUS
 62
    7
 10
259.93622585007409
 20
216.52207452354958
 11
259.91556656141131
 21
216.61587106490734
  0
LINE
  8
_0-0_0
  6
CONTINUOUS
 62
    7
 10
259.91556656141131
 20
216.61587106490734
 11
259.8915591326184
 21
216.70966760626499
  0
LINE
  8
_0-0_0
  6
CONTINUOUS
 62
    7
 10
259.8915591326184
 20
216.70966760626499
 11
259.87034236079739
 21
216.78113240948548
  0
LINE
  8
_0-0_0
  6
CONTINUOUS
 62
    7
 10
259.87034236079739
 20
216.78113240948548
 11
259.84745313950197
 21
216.85147900520849
  0
LINE
  8
_0-0_0
  6
CONTINUOUS
 62
    7
 10
259.84745313950197
 20
216.85147900520849
 11
259.82121253689542
 21
216.92070739343399
  0
LINE
  8
_0-0_0
  6
CONTINUOUS
 62
    7
 10
259.82121253689542
 20
216.92070739343399
 11
259.79218127731696
 21
216.98993902284079
  0
LINE
  8
_0-0_0
  6
CONTINUOUS
 62
    7
 10
259.79218127731696
 20
216.98993902284079
 11
259.75924115326916
 21
217.05693423725262
  0
LINE
  8
_0-0_0
  6
CONTINUOUS
 62
    7
 10
259.75924115326916
 20
217.05693423725262
 11
259.72127395725465
 21
217.12169951903189
  0
LINE
  8
_0-0_0
  6
CONTINUOUS
 62
    7
 10
259.72127395725465
 20
217.12169951903189
 11
259.67940113795197
 21
217.18311341949996
  0
LINE
  8
_0-0_0
  6
CONTINUOUS
 62
    7
 10
259.67940113795197
 20
217.18311341949996
 11
259.6313862803662
 21
217.24341235365179
  0
LINE
  8
_0-0_0
  6
CONTINUOUS
 62
    7
 10
259.6313862803662
 20
217.24341235365179
 11
259.62971383089177
 21
217.24564552746551
  0
LINE
  8
_0-0_0
  6
CONTINUOUS
 62
    7
 10
259.62971383089177
 20
217.24564552746551
 11
259.62748065707808
 21
217.24899366759553
  0
LINE
  8
_0-0_0
  6
CONTINUOUS
 62
    7
 10
259.62748065707808
 20
217.24899366759553
 11
259.62524748326433
 21
217.2523450489067
  0
LINE
  8
_0-0_0
  6
CONTINUOUS
 62
    7
 10
259.62524748326433
 20
217.2523450489067
 11
259.62301430945058
 21
217.25457822272045
  0
LINE
  8
_0-0_0
  6
CONTINUOUS
 62
    7
 10
259.62301430945058
 20
217.25457822272045
 11
259.62078113563689
 21
217.25792636285047
  0
LINE
  8
_0-0_0
  6
CONTINUOUS
 62
    7
 10
259.62078113563689
 20
217.25792636285047
 11
259.61854796182314
 21
217.26127774416156
  0
LINE
  8
_0-0_0
  6
CONTINUOUS
 62
    7
 10
259.61854796182314
 20
217.26127774416156
 11
259.61631478800945
 21
217.26351091797537
  0
LINE
  8
_0-0_0
  6
CONTINUOUS
 62
    7
 10
259.61631478800945
 20
217.26351091797537
 11
259.6140816141957
 21
217.2668590581053
  0
LINE
  8
_0-0_0
  6
CONTINUOUS
 62
    7
 10
259.6140816141957
 20
217.2668590581053
 11
259.57388124436744
 21
217.30705942793361
  0
LINE
  8
_0-0_0
  6
CONTINUOUS
 62
    7
 10
259.57388124436744
 20
217.30705942793361
 11
259.5314509419066
 21
217.34502338276701
  0
LINE
  8
_0-0_0
  6
CONTINUOUS
 62
    7
 10
259.5314509419066
 20
217.34502338276701
 11
259.48622674129274
 21
217.37963919747028
  0
LINE
  8
_0-0_0
  6
CONTINUOUS
 62
    7
 10
259.48622674129274
 20
217.37963919747028
 11
259.43933009120445
 21
217.41090363086249
  0
LINE
  8
_0-0_0
  6
CONTINUOUS
 62
    7
 10
259.43933009120445
 20
217.41090363086249
 11
259.38963954296321
 21
217.43546854281357
  0
LINE
  8
_0-0_0
  6
CONTINUOUS
 62
    7
 10
259.38963954296321
 20
217.43546854281357
 11
259.33883402840559
 21
217.45445214082082
  0
LINE
  8
_0-0_0
  6
CONTINUOUS
 62
    7
 10
259.33883402840559
 20
217.45445214082082
 11
259.28635282319237
 21
217.46673297620566
  0
LINE
  8
_0-0_0
  6
CONTINUOUS
 62
    7
 10
259.28635282319237
 20
217.46673297620566
 11
259.23219592732357
 21
217.47119932383322
  0
LINE
  8
_0-0_0
  6
CONTINUOUS
 62
    7
 10
284.52359270410318
 20
293.11089343900591
 11
279.12139291318101
 21
293.11089343900591
  0
LINE
  8
_0-0_0
  6
CONTINUOUS
 62
    7
 10
279.12139291318101
 20
293.11089343900591
 11
273.72031457093743
 21
293.11089343900591
  0
LINE
  8
_0-0_0
  6
CONTINUOUS
 62
    7
 10
273.72031457093743
 20
293.11089343900591
 11
268.31923298751269
 21
293.11089343900591
  0
LINE
  8
_0-0_0
  6
CONTINUOUS
 62
    7
 10
268.31923298751269
 20
293.11089343900591
 11
262.91703643777163
 21
293.11089343900591
  0
LINE
  8
_0-0_0
  6
CONTINUOUS
 62
    7
 10
262.91703643777163
 20
293.11089343900591
 11
257.51539737118878
 21
293.11089343900591
  0
LINE
  8
_0-0_0
  6
CONTINUOUS
 62
    7
 10
257.51539737118878
 20
293.11089343900591
 11
252.11375830460588
 21
293.11089343900591
  0
LINE
  8
_0-0_0
  6
CONTINUOUS
 62
    7
 10
252.11375830460588
 20
293.11089343900591
 11
246.71267672118114
 21
293.11089343900591
  0
LINE
  8
_0-0_0
  6
CONTINUOUS
 62
    7
 10
246.71267672118114
 20
293.11089343900591
 11
241.31103765459829
 21
293.11089343900591
  0
LINE
  8
_0-0_0
  6
CONTINUOUS
 62
    7
 10
236.41076069451253
 20
294.99183837340263
 11
243.03732963032729
 21
294.99183837340263
  0
LINE
  8
_0-0_0
  6
CONTINUOUS
 62
    7
 10
243.03732963032729
 20
294.99183837340263
 11
249.66389856614208
 21
294.99183837340263
  0
LINE
  8
_0-0_0
  6
CONTINUOUS
 62
    7
 10
249.66389856614208
 20
294.99183837340263
 11
256.29046750195687
 21
294.99183837340263
  0
LINE
  8
_0-0_0
  6
CONTINUOUS
 62
    7
 10
256.29046750195687
 20
294.99183837340263
 11
262.91703643777163
 21
294.99183837340263
  0
LINE
  8
_0-0_0
  6
CONTINUOUS
 62
    7
 10
262.91703643777163
 20
294.99183837340263
 11
269.54416285674461
 21
294.99183837340263
  0
LINE
  8
_0-0_0
  6
CONTINUOUS
 62
    7
 10
269.54416285674461
 20
294.99183837340263
 11
276.17128927571753
 21
294.99183837340263
  0
LINE
  8
_0-0_0
  6
CONTINUOUS
 62
    7
 10
276.17128927571753
 20
294.99183837340263
 11
282.79730072837418
 21
294.99183837340263
  0
LINE
  8
_0-0_0
  6
CONTINUOUS
 62
    7
 10
282.79730072837418
 20
294.99183837340263
 11
289.4244271473471
 21
294.99183837340263
  0
LINE
  8
_0-0_0
  6
CONTINUOUS
 62
    7
 10
289.14638890458502
 20
296.46577198463689
 11
289.13522303551639
 21
296.46577198463689
  0
LINE
  8
_0-0_0
  6
CONTINUOUS
 62
    7
 10
289.13522303551639
 20
296.46577198463689
 11
289.12293895895033
 21
296.46577198463689
  0
LINE
  8
_0-0_0
  6
CONTINUOUS
 62
    7
 10
289.12293895895033
 20
296.46577198463689
 11
289.11065812356543
 21
296.46577198463689
  0
LINE
  8
_0-0_0
  6
CONTINUOUS
 62
    7
 10
289.11065812356543
 20
296.46577198463689
 11
289.09949225449679
 21
296.46577198463689
  0
LINE
  8
_0-0_0
  6
CONTINUOUS
 62
    7
 10
289.09949225449679
 20
296.46577198463689
 11
289.08832638542816
 21
296.46577198463689
  0
LINE
  8
_0-0_0
  6
CONTINUOUS
 62
    7
 10
289.08832638542816
 20
296.46577198463689
 11
289.07604230886204
 21
296.46577198463689
  0
LINE
  8
_0-0_0
  6
CONTINUOUS
 62
    7
 10
289.07604230886204
 20
296.46577198463689
 11
289.06375823229598
 21
296.46577198463689
  0
LINE
  8
_0-0_0
  6
CONTINUOUS
 62
    7
 10
289.06375823229598
 20
296.46577198463689
 11
289.05259236322735
 21
296.46577198463689
  0
LINE
  8
_0-1_レイヤ___1
  6
CONTINUOUS
 62
  131
 10
339.44873210455347
 20
296.49424576105724
 11
339.44873210455341
 21
166.4942457303793
  0
LINE
  8
_0-1_レイヤ___1
  6
CONTINUOUS
 62
  131
 10
339.44873210455347
 20
296.49424576105724
 11
341.18521388122275
 21
286.64616823093519
  0
LINE
  8
_0-1_レイヤ___1
  6
CONTINUOUS
 62
  131
 10
339.44873210455347
 20
296.49424576105724
 11
337.71225032788414
 21
286.64616823093519
  0
LINE
  8
_0-1_レイヤ___1
  6
CONTINUOUS
 62
  131
 10
339.44873210455341
 20
166.4942457303793
 11
337.71225032788414
 21
176.34232326050136
  0
LINE
  8
_0-1_レイヤ___1
  6
CONTINUOUS
 62
  131
 10
339.44873210455341
 20
166.4942457303793
 11
341.18521388122275
 21
176.34232326050136
  0
LINE
  8
_0-1_レイヤ___1
  6
CONTINUOUS
 62
  131
 10
339.44873210455341
 20
166.4942457303793
 11
339.44873210455341
 21
70.646001050442521
  0
LINE
  8
_0-1_レイヤ___1
  6
CONTINUOUS
 62
  131
 10
339.44873210455341
 20
166.4942457303793
 11
341.18521388122275
 21
156.64616820025719
  0
LINE
  8
_0-1_レイヤ___1
  6
CONTINUOUS
 62
  131
 10
339.44873210455341
 20
166.4942457303793
 11
337.71225032788414
 21
156.64616820025719
  0
LINE
  8
_0-1_レイヤ___1
  6
CONTINUOUS
 62
  131
 10
339.44873210455341
 20
70.646001050442521
 11
337.71225032788414
 21
80.494078580564633
  0
LINE
  8
_0-1_レイヤ___1
  6
CONTINUOUS
 62
  131
 10
339.44873210455341
 20
70.646001050442521
 11
341.18521388122275
 21
80.494078580564633
  0
LINE
  8
_0-1_レイヤ___1
  6
CONTINUOUS
 62
  131
 10
339.44873210455341
 20
166.4942457303793
 11
280.19334551440079
 21
166.4942457303793
  0
LINE
  8
_0-1_レイヤ___1
  6
CONTINUOUS
 62
  131
 10
339.44873210455341
 20
70.646001050442521
 11
280.19334551440079
 21
70.646001050442521
  0
LINE
  8
_0-1_レイヤ___1
  6
CONTINUOUS
 62
  131
 10
339.44873210455347
 20
296.49424576105724
 11
289.37976367107251
 21
296.49424576105724
  0
LINE
  8
_0-0_0
  6
CONTINUOUS
 62
    7
 10
217.19169546195974
 20
94.05873003609247
 11
255.41147954587439
 21
99.236569392120074
  0
LINE
  8
_0-0_0
  6
CONTINUOUS
 62
    7
 10
265.80818736138883
 20
352.93741046389755
 11
265.51675007574443
 21
351.74374502805779
  0
LINE
  8
_0-0_0
  6
CONTINUOUS
 62
    7
 10
265.51675007574443
 20
351.74374502805779
 11
265.22419458260259
 21
350.54952210905998
  0
LINE
  8
_0-0_0
  6
CONTINUOUS
 62
    7
 10
265.22419458260259
 20
350.54952210905998
 11
264.93275729695819
 21
349.35529919006211
  0
LINE
  8
_0-0_0
  6
CONTINUOUS
 62
    7
 10
264.93275729695819
 20
349.35529919006211
 11
264.64132001131378
 21
348.16163699540357
  0
LINE
  8
_0-0_0
  6
CONTINUOUS
 62
    7
 10
264.64132001131378
 20
348.16163699540357
 11
264.34988272566943
 21
346.96797155956386
  0
LINE
  8
_0-0_0
  6
CONTINUOUS
 62
    7
 10
264.34988272566943
 20
346.96797155956386
 11
264.05844544002503
 21
345.77374864056605
  0
LINE
  8
_0-0_0
  6
CONTINUOUS
 62
    7
 10
264.05844544002503
 20
345.77374864056605
 11
263.76700815438062
 21
344.57952572156813
  0
LINE
  8
_0-0_0
  6
CONTINUOUS
 62
    7
 10
263.76700815438062
 20
344.57952572156813
 11
263.47557086873621
 21
343.38586028572843
  0
LINE
  8
_0-0_0
  6
CONTINUOUS
 62
    7
 10
259.72764400834569
 20
331.85008169457302
 11
259.26145519971004
 21
330.71280632841575
  0
LINE
  8
_0-0_0
  6
CONTINUOUS
 62
    7
 10
259.26145519971004
 20
330.71280632841575
 11
258.79582711541377
 21
329.57553096225854
  0
LINE
  8
_0-0_0
  6
CONTINUOUS
 62
    7
 10
258.79582711541377
 20
329.57553096225854
 11
258.32963830677812
 21
328.43825559610138
  0
LINE
  8
_0-0_0
  6
CONTINUOUS
 62
    7
 10
258.32963830677812
 20
328.43825559610138
 11
257.86344949814247
 21
327.30098022994412
  0
LINE
  8
_0-0_0
  6
CONTINUOUS
 62
    7
 10
257.86344949814247
 20
327.30098022994412
 11
257.3978214138462
 21
326.1637048637869
  0
LINE
  8
_0-0_0
  6
CONTINUOUS
 62
    7
 10
257.3978214138462
 20
326.1637048637869
 11
256.93163260521055
 21
325.02642949762969
  0
LINE
  8
_0-0_0
  6
CONTINUOUS
 62
    7
 10
256.93163260521055
 20
325.02642949762969
 11
256.46544379657496
 21
323.88915413147242
  0
LINE
  8
_0-0_0
  6
CONTINUOUS
 62
    7
 10
256.46544379657496
 20
323.88915413147242
 11
255.99981571227863
 21
322.75187876531527
  0
LINE
  8
_0-0_0
  6
CONTINUOUS
 62
    7
 10
274.44522531279648
 20
348.13818704976893
 11
273.50726638158153
 21
347.34315448381363
  0
LINE
  8
_0-0_0
  6
CONTINUOUS
 62
    7
 10
273.50726638158153
 20
347.34315448381363
 11
272.56930745036652
 21
346.54868264219772
  0
LINE
  8
_0-0_0
  6
CONTINUOUS
 62
    7
 10
272.56930745036652
 20
346.54868264219772
 11
271.63134851915157
 21
345.75420755940058
  0
LINE
  8
_0-0_0
  6
CONTINUOUS
 62
    7
 10
271.63134851915157
 20
345.75420755940058
 11
270.69450779543399
 21
344.95917499344534
  0
LINE
  8
_0-0_0
  6
CONTINUOUS
 62
    7
 10
270.69450779543399
 20
344.95917499344534
 11
269.75766383053536
 21
344.16470315182943
  0
LINE
  8
_0-0_0
  6
CONTINUOUS
 62
    7
 10
269.75766383053536
 20
344.16470315182943
 11
268.81970489932036
 21
343.37022806903241
  0
LINE
  8
_0-0_0
  6
CONTINUOUS
 62
    7
 10
268.81970489932036
 20
343.37022806903241
 11
267.88174596810541
 21
342.57519550307711
  0
LINE
  8
_0-0_0
  6
CONTINUOUS
 62
    7
 10
267.88174596810541
 20
342.57519550307711
 11
266.9437870368904
 21
341.78072366146125
  0
LINE
  8
_0-0_0
  6
CONTINUOUS
 62
    7
 10
257.12983407383649
 20
334.65111692849365
 11
256.08467955838148
 21
334.00515600726237
  0
LINE
  8
_0-0_0
  6
CONTINUOUS
 62
    7
 10
256.08467955838148
 20
334.00515600726237
 11
255.03896431858709
 21
333.35863436169183
  0
LINE
  8
_0-0_0
  6
CONTINUOUS
 62
    7
 10
255.03896431858709
 20
333.35863436169183
 11
253.99325231997386
 21
332.71267019927939
  0
LINE
  8
_0-0_0
  6
CONTINUOUS
 62
    7
 10
253.99325231997386
 20
332.71267019927939
 11
252.9480978045188
 21
332.06670603686695
  0
LINE
  8
_0-0_0
  6
CONTINUOUS
 62
    7
 10
252.9480978045188
 20
332.06670603686695
 11
251.90294328906373
 21
331.42018439129629
  0
LINE
  8
_0-0_0
  6
CONTINUOUS
 62
    7
 10
251.90294328906373
 20
331.42018439129629
 11
250.8572312904505
 21
330.77422022888379
  0
LINE
  8
_0-0_0
  6
CONTINUOUS
 62
    7
 10
250.8572312904505
 20
330.77422022888379
 11
249.8115192918373
 21
330.12825930765257
  0
LINE
  8
_0-0_0
  6
CONTINUOUS
 62
    7
 10
249.8115192918373
 20
330.12825930765257
 11
248.7663647763822
 21
329.48173766208197
  0
LINE
  8
_0-0_0
  6
CONTINUOUS
 62
    7
 10
246.86867265897314
 20
335.31885534588525
 11
248.09416001136321
 21
335.4109761965874
  0
LINE
  8
_0-0_0
  6
CONTINUOUS
 62
    7
 10
248.09416001136321
 20
335.4109761965874
 11
249.32020808809253
 21
335.5025395641315
  0
LINE
  8
_0-0_0
  6
CONTINUOUS
 62
    7
 10
249.32020808809253
 20
335.5025395641315
 11
250.5456954404826
 21
335.59410293167537
  0
LINE
  8
_0-0_0
  6
CONTINUOUS
 62
    7
 10
250.5456954404826
 20
335.59410293167537
 11
251.77118279287262
 21
335.68566629921941
  0
LINE
  8
_0-0_0
  6
CONTINUOUS
 62
    7
 10
251.77118279287262
 20
335.68566629921941
 11
252.99723086960199
 21
335.77722642558228
  0
LINE
  8
_0-0_0
  6
CONTINUOUS
 62
    7
 10
252.99723086960199
 20
335.77722642558228
 11
254.22271822199201
 21
335.86878979312633
  0
LINE
  8
_0-0_0
  6
CONTINUOUS
 62
    7
 10
254.22271822199201
 20
335.86878979312633
 11
255.44820557438209
 21
335.96035316067025
  0
LINE
  8
_0-0_0
  6
CONTINUOUS
 62
    7
 10
255.44820557438209
 20
335.96035316067025
 11
256.67425365111143
 21
336.05191652821429
  0
LINE
  8
_0-0_0
  6
CONTINUOUS
 62
    7
 10
278.61021115792067
 20
335.31885534588525
 11
277.38416308119133
 21
335.4109761965874
  0
LINE
  8
_0-0_0
  6
CONTINUOUS
 62
    7
 10
277.38416308119133
 20
335.4109761965874
 11
276.15811824564315
 21
335.5025395641315
  0
LINE
  8
_0-0_0
  6
CONTINUOUS
 62
    7
 10
276.15811824564315
 20
335.5025395641315
 11
274.93207016891381
 21
335.59410293167537
  0
LINE
  8
_0-0_0
  6
CONTINUOUS
 62
    7
 10
274.93207016891381
 20
335.59410293167537
 11
273.7071402996819
 21
335.68566629921941
  0
LINE
  8
_0-0_0
  6
CONTINUOUS
 62
    7
 10
273.7071402996819
 20
335.68566629921941
 11
272.48221043044998
 21
335.77722642558228
  0
LINE
  8
_0-0_0
  6
CONTINUOUS
 62
    7
 10
272.48221043044998
 20
335.77722642558228
 11
271.2561655949018
 21
335.86878979312633
  0
LINE
  8
_0-0_0
  6
CONTINUOUS
 62
    7
 10
271.2561655949018
 20
335.86878979312633
 11
270.03011751817246
 21
335.96035316067025
  0
LINE
  8
_0-0_0
  6
CONTINUOUS
 62
    7
 10
270.03011751817246
 20
335.96035316067025
 11
268.80407268262428
 21
336.05191652821429
  0
LINE
  8
_0-0_0
  6
CONTINUOUS
 62
    7
 10
248.7663647763822
 20
345.01500757996973
 11
249.8115192918373
 21
344.36848593439908
  0
LINE
  8
_0-0_0
  6
CONTINUOUS
 62
    7
 10
249.8115192918373
 20
344.36848593439908
 11
250.8572312904505
 21
343.72252177198669
  0
LINE
  8
_0-0_0
  6
CONTINUOUS
 62
    7
 10
250.8572312904505
 20
343.72252177198669
 11
251.90294328906373
 21
343.07655760957419
  0
LINE
  8
_0-0_0
  6
CONTINUOUS
 62
    7
 10
251.90294328906373
 20
343.07655760957419
 11
252.9480978045188
 21
342.43003596400365
  0
LINE
  8
_0-0_0
  6
CONTINUOUS
 62
    7
 10
252.9480978045188
 20
342.43003596400365
 11
253.99325231997386
 21
341.78407180159115
  0
LINE
  8
_0-0_0
  6
CONTINUOUS
 62
    7
 10
253.99325231997386
 20
341.78407180159115
 11
255.03896431858709
 21
341.13811088035982
  0
LINE
  8
_0-0_0
  6
CONTINUOUS
 62
    7
 10
255.03896431858709
 20
341.13811088035982
 11
256.08467955838148
 21
340.49158923478933
  0
LINE
  8
_0-0_0
  6
CONTINUOUS
 62
    7
 10
256.08467955838148
 20
340.49158923478933
 11
257.12983407383649
 21
339.84562507237689
  0
LINE
  8
_0-0_0
  6
CONTINUOUS
 62
    7
 10
266.9437870368904
 20
332.7160183394094
 11
267.88174596810541
 21
331.92154649779343
  0
LINE
  8
_0-0_0
  6
CONTINUOUS
 62
    7
 10
267.88174596810541
 20
331.92154649779343
 11
268.81970489932036
 21
331.12651393183825
  0
LINE
  8
_0-0_0
  6
CONTINUOUS
 62
    7
 10
268.81970489932036
 20
331.12651393183825
 11
269.75766383053536
 21
330.33204209022222
  0
LINE
  8
_0-0_0
  6
CONTINUOUS
 62
    7
 10
269.75766383053536
 20
330.33204209022222
 11
270.69450779543399
 21
329.5375670074252
  0
LINE
  8
_0-0_0
  6
CONTINUOUS
 62
    7
 10
270.69450779543399
 20
329.5375670074252
 11
271.63134851915157
 21
328.74309192462806
  0
LINE
  8
_0-0_0
  6
CONTINUOUS
 62
    7
 10
271.63134851915157
 20
328.74309192462806
 11
272.56930745036652
 21
327.94862008301214
  0
LINE
  8
_0-0_0
  6
CONTINUOUS
 62
    7
 10
272.56930745036652
 20
327.94862008301214
 11
273.50726638158153
 21
327.15358751705685
  0
LINE
  8
_0-0_0
  6
CONTINUOUS
 62
    7
 10
273.50726638158153
 20
327.15358751705685
 11
274.44522531279648
 21
326.35911567544099
  0
LINE
  8
_0-0_0
  6
CONTINUOUS
 62
    7
 10
255.99981571227863
 20
351.74542071871338
 11
256.46544379657496
 21
350.60814535255616
  0
LINE
  8
_0-0_0
  6
CONTINUOUS
 62
    7
 10
256.46544379657496
 20
350.60814535255616
 11
256.93163260521055
 21
349.47031250324085
  0
LINE
  8
_0-0_0
  6
CONTINUOUS
 62
    7
 10
256.93163260521055
 20
349.47031250324085
 11
257.3978214138462
 21
348.33303713708364
  0
LINE
  8
_0-0_0
  6
CONTINUOUS
 62
    7
 10
257.3978214138462
 20
348.33303713708364
 11
257.86344949814247
 21
347.19576177092637
  0
LINE
  8
_0-0_0
  6
CONTINUOUS
 62
    7
 10
257.86344949814247
 20
347.19576177092637
 11
258.32963830677812
 21
346.05848640476927
  0
LINE
  8
_0-0_0
  6
CONTINUOUS
 62
    7
 10
258.32963830677812
 20
346.05848640476927
 11
258.79582711541377
 21
344.921211038612
  0
LINE
  8
_0-0_0
  6
CONTINUOUS
 62
    7
 10
258.79582711541377
 20
344.921211038612
 11
259.26145519971004
 21
343.78393567245479
  0
LINE
  8
_0-0_0
  6
CONTINUOUS
 62
    7
 10
259.26145519971004
 20
343.78393567245479
 11
259.72764400834569
 21
342.64666030629758
  0
LINE
  8
_0-0_0
  6
CONTINUOUS
 62
    7
 10
263.47557086873621
 20
331.11088171514211
 11
263.76700815438062
 21
329.91665879614425
  0
LINE
  8
_0-0_0
  6
CONTINUOUS
 62
    7
 10
263.76700815438062
 20
329.91665879614425
 11
264.05844544002503
 21
328.72243587714638
  0
LINE
  8
_0-0_0
  6
CONTINUOUS
 62
    7
 10
264.05844544002503
 20
328.72243587714638
 11
264.34988272566943
 21
327.52877044130668
  0
LINE
  8
_0-0_0
  6
CONTINUOUS
 62
    7
 10
264.34988272566943
 20
327.52877044130668
 11
264.64132001131378
 21
326.33454752230887
  0
LINE
  8
_0-0_0
  6
CONTINUOUS
 62
    7
 10
264.64132001131378
 20
326.33454752230887
 11
264.93275729695819
 21
325.14032460331089
  0
LINE
  8
_0-0_0
  6
CONTINUOUS
 62
    7
 10
264.93275729695819
 20
325.14032460331089
 11
265.22419458260259
 21
323.9466624086524
  0
LINE
  8
_0-0_0
  6
CONTINUOUS
 62
    7
 10
265.22419458260259
 20
323.9466624086524
 11
265.51675007574443
 21
322.75243948965459
  0
LINE
  8
_0-0_0
  6
CONTINUOUS
 62
    7
 10
265.51675007574443
 20
322.75243948965459
 11
265.80818736138883
 21
321.55821657065678
  0
LINE
  8
_0-0_0
  6
CONTINUOUS
 62
    7
 10
262.00163725750195
 20
331.11088171514211
 11
261.71019997185761
 21
329.91665879614425
  0
LINE
  8
_0-0_0
  6
CONTINUOUS
 62
    7
 10
261.71019997185761
 20
329.91665879614425
 11
261.4187626862132
 21
328.72243587714638
  0
LINE
  8
_0-0_0
  6
CONTINUOUS
 62
    7
 10
261.4187626862132
 20
328.72243587714638
 11
261.12732540056879
 21
327.52877044130668
  0
LINE
  8
_0-0_0
  6
CONTINUOUS
 62
    7
 10
261.12732540056879
 20
327.52877044130668
 11
260.83588811492439
 21
326.33454752230887
  0
LINE
  8
_0-0_0
  6
CONTINUOUS
 62
    7
 10
260.83588811492439
 20
326.33454752230887
 11
260.54445082928004
 21
325.14032460331089
  0
LINE
  8
_0-0_0
  6
CONTINUOUS
 62
    7
 10
260.54445082928004
 20
325.14032460331089
 11
260.25301354363563
 21
323.9466624086524
  0
LINE
  8
_0-0_0
  6
CONTINUOUS
 62
    7
 10
260.25301354363563
 20
323.9466624086524
 11
259.96157625799128
 21
322.75243948965459
  0
LINE
  8
_0-0_0
  6
CONTINUOUS
 62
    7
 10
259.96157625799128
 20
322.75243948965459
 11
259.67069645550509
 21
321.55821657065678
  0
LINE
  8
_0-0_0
  6
CONTINUOUS
 62
    7
 10
265.75123980854812
 20
342.64666030629758
 11
266.21798610034193
 21
343.78393567245479
  0
LINE
  8
_0-0_0
  6
CONTINUOUS
 62
    7
 10
266.21798610034193
 20
343.78393567245479
 11
266.68361418463826
 21
344.921211038612
  0
LINE
  8
_0-0_0
  6
CONTINUOUS
 62
    7
 10
266.68361418463826
 20
344.921211038612
 11
267.14924551011569
 21
346.05848640476927
  0
LINE
  8
_0-0_0
  6
CONTINUOUS
 62
    7
 10
267.14924551011569
 20
346.05848640476927
 11
267.61599180190944
 21
347.19576177092637
  0
LINE
  8
_0-0_0
  6
CONTINUOUS
 62
    7
 10
267.61599180190944
 20
347.19576177092637
 11
268.0827380937032
 21
348.33303713708364
  0
LINE
  8
_0-0_0
  6
CONTINUOUS
 62
    7
 10
268.0827380937032
 20
348.33303713708364
 11
268.54836617799958
 21
349.47031250324085
  0
LINE
  8
_0-0_0
  6
CONTINUOUS
 62
    7
 10
268.54836617799958
 20
349.47031250324085
 11
269.01399750347701
 21
350.60814535255616
  0
LINE
  8
_0-0_0
  6
CONTINUOUS
 62
    7
 10
269.01399750347701
 20
350.60814535255616
 11
269.48074379527077
 21
351.74542071871338
  0
LINE
  8
_0-0_0
  6
CONTINUOUS
 62
    7
 10
251.03589167791108
 20
326.35911567544099
 11
251.97328988478677
 21
327.15358751705685
  0
LINE
  8
_0-0_0
  6
CONTINUOUS
 62
    7
 10
251.97328988478677
 20
327.15358751705685
 11
252.91069133284358
 21
327.94862008301214
  0
LINE
  8
_0-0_0
  6
CONTINUOUS
 62
    7
 10
252.91069133284358
 20
327.94862008301214
 11
253.8480927809004
 21
328.74309192462806
  0
LINE
  8
_0-0_0
  6
CONTINUOUS
 62
    7
 10
253.8480927809004
 20
328.74309192462806
 11
254.78549422895722
 21
329.5375670074252
  0
LINE
  8
_0-0_0
  6
CONTINUOUS
 62
    7
 10
254.78549422895722
 20
329.5375670074252
 11
255.72289243583293
 21
330.33204209022222
  0
LINE
  8
_0-0_0
  6
CONTINUOUS
 62
    7
 10
255.72289243583293
 20
330.33204209022222
 11
256.66029388388978
 21
331.12651393183825
  0
LINE
  8
_0-0_0
  6
CONTINUOUS
 62
    7
 10
256.66029388388978
 20
331.12651393183825
 11
257.59769533194657
 21
331.92154649779343
  0
LINE
  8
_0-0_0
  6
CONTINUOUS
 62
    7
 10
257.59769533194657
 20
331.92154649779343
 11
258.53509678000341
 21
332.7160183394094
  0
LINE
  8
_0-0_0
  6
CONTINUOUS
 62
    7
 10
276.71307652366977
 20
345.01500757996973
 11
275.66680704189838
 21
344.36848593439908
  0
LINE
  8
_0-0_0
  6
CONTINUOUS
 62
    7
 10
275.66680704189838
 20
344.36848593439908
 11
274.62165252644331
 21
343.72252177198669
  0
LINE
  8
_0-0_0
  6
CONTINUOUS
 62
    7
 10
274.62165252644331
 20
343.72252177198669
 11
273.5764980109883
 21
343.07655760957419
  0
LINE
  8
_0-0_0
  6
CONTINUOUS
 62
    7
 10
273.5764980109883
 20
343.07655760957419
 11
272.53134349553318
 21
342.43003596400365
  0
LINE
  8
_0-0_0
  6
CONTINUOUS
 62
    7
 10
272.53134349553318
 20
342.43003596400365
 11
271.48618898007811
 21
341.78407180159115
  0
LINE
  8
_0-0_0
  6
CONTINUOUS
 62
    7
 10
271.48618898007811
 20
341.78407180159115
 11
270.43991625712556
 21
341.13811088035982
  0
LINE
  8
_0-0_0
  6
CONTINUOUS
 62
    7
 10
270.43991625712556
 20
341.13811088035982
 11
269.39364677535423
 21
340.49158923478933
  0
LINE
  8
_0-0_0
  6
CONTINUOUS
 62
    7
 10
269.39364677535423
 20
340.49158923478933
 11
268.34849225989916
 21
339.84562507237689
  0
LINE
  8
_0-0_0
  6
CONTINUOUS
 62
    7
 10
268.80407268262428
 20
338.44482871383741
 11
270.03011751817246
 21
338.53638884020029
  0
LINE
  8
_0-0_0
  6
CONTINUOUS
 62
    7
 10
270.03011751817246
 20
338.53638884020029
 11
271.2561655949018
 21
338.62795220774433
  0
LINE
  8
_0-0_0
  6
CONTINUOUS
 62
    7
 10
271.2561655949018
 20
338.62795220774433
 11
272.48221043044998
 21
338.71951557528826
  0
LINE
  8
_0-0_0
  6
CONTINUOUS
 62
    7
 10
272.48221043044998
 20
338.71951557528826
 11
273.7071402996819
 21
338.8110789428323
  0
LINE
  8
_0-0_0
  6
CONTINUOUS
 62
    7
 10
273.7071402996819
 20
338.8110789428323
 11
274.93207016891381
 21
338.90264231037622
  0
LINE
  8
_0-0_0
  6
CONTINUOUS
 62
    7
 10
274.93207016891381
 20
338.90264231037622
 11
276.15811824564315
 21
338.9942024367391
  0
LINE
  8
_0-0_0
  6
CONTINUOUS
 62
    7
 10
276.15811824564315
 20
338.9942024367391
 11
277.38416308119133
 21
339.08576580428314
  0
LINE
  8
_0-0_0
  6
CONTINUOUS
 62
    7
 10
277.38416308119133
 20
339.08576580428314
 11
278.61021115792067
 21
339.17788665498529
  0
LINE
  8
_0-0_0
  6
CONTINUOUS
 62
    7
 10
256.67425365111143
 20
338.44482871383741
 11
255.44820557438209
 21
338.53638884020029
  0
LINE
  8
_0-0_0
  6
CONTINUOUS
 62
    7
 10
255.44820557438209
 20
338.53638884020029
 11
254.22271822199201
 21
338.62795220774433
  0
LINE
  8
_0-0_0
  6
CONTINUOUS
 62
    7
 10
254.22271822199201
 20
338.62795220774433
 11
252.99723086960199
 21
338.71951557528826
  0
LINE
  8
_0-0_0
  6
CONTINUOUS
 62
    7
 10
252.99723086960199
 20
338.71951557528826
 11
251.77118279287262
 21
338.8110789428323
  0
LINE
  8
_0-0_0
  6
CONTINUOUS
 62
    7
 10
251.77118279287262
 20
338.8110789428323
 11
250.5456954404826
 21
338.90264231037622
  0
LINE
  8
_0-0_0
  6
CONTINUOUS
 62
    7
 10
250.5456954404826
 20
338.90264231037622
 11
249.32020808809253
 21
338.9942024367391
  0
LINE
  8
_0-0_0
  6
CONTINUOUS
 62
    7
 10
249.32020808809253
 20
338.9942024367391
 11
248.09416001136321
 21
339.08576580428314
  0
LINE
  8
_0-0_0
  6
CONTINUOUS
 62
    7
 10
248.09416001136321
 20
339.08576580428314
 11
246.86867265897314
 21
339.17788665498529
  0
LINE
  8
_0-0_0
  6
CONTINUOUS
 62
    7
 10
276.71307652366977
 20
329.48173766208197
 11
275.66680704189838
 21
330.12825930765257
  0
LINE
  8
_0-0_0
  6
CONTINUOUS
 62
    7
 10
275.66680704189838
 20
330.12825930765257
 11
274.62165252644331
 21
330.77422022888379
  0
LINE
  8
_0-0_0
  6
CONTINUOUS
 62
    7
 10
274.62165252644331
 20
330.77422022888379
 11
273.5764980109883
 21
331.42018439129629
  0
LINE
  8
_0-0_0
  6
CONTINUOUS
 62
    7
 10
273.5764980109883
 20
331.42018439129629
 11
272.53134349553318
 21
332.06670603686695
  0
LINE
  8
_0-0_0
  6
CONTINUOUS
 62
    7
 10
272.53134349553318
 20
332.06670603686695
 11
271.48618898007811
 21
332.71267019927939
  0
LINE
  8
_0-0_0
  6
CONTINUOUS
 62
    7
 10
271.48618898007811
 20
332.71267019927939
 11
270.43991625712556
 21
333.35863436169183
  0
LINE
  8
_0-0_0
  6
CONTINUOUS
 62
    7
 10
270.43991625712556
 20
333.35863436169183
 11
269.39364677535423
 21
334.00515600726237
  0
LINE
  8
_0-0_0
  6
CONTINUOUS
 62
    7
 10
269.39364677535423
 20
334.00515600726237
 11
268.34849225989916
 21
334.65111692849365
  0
LINE
  8
_0-0_0
  6
CONTINUOUS
 62
    7
 10
258.53509678000341
 20
341.78072366146125
 11
257.59769533194657
 21
342.57519550307711
  0
LINE
  8
_0-0_0
  6
CONTINUOUS
 62
    7
 10
257.59769533194657
 20
342.57519550307711
 11
256.66029388388978
 21
343.37022806903241
  0
LINE
  8
_0-0_0
  6
CONTINUOUS
 62
    7
 10
256.66029388388978
 20
343.37022806903241
 11
255.72289243583293
 21
344.16470315182943
  0
LINE
  8
_0-0_0
  6
CONTINUOUS
 62
    7
 10
255.72289243583293
 20
344.16470315182943
 11
254.78549422895722
 21
344.95917499344534
  0
LINE
  8
_0-0_0
  6
CONTINUOUS
 62
    7
 10
254.78549422895722
 20
344.95917499344534
 11
253.8480927809004
 21
345.75420755940058
  0
LINE
  8
_0-0_0
  6
CONTINUOUS
 62
    7
 10
253.8480927809004
 20
345.75420755940058
 11
252.91069133284358
 21
346.54868264219772
  0
LINE
  8
_0-0_0
  6
CONTINUOUS
 62
    7
 10
252.91069133284358
 20
346.54868264219772
 11
251.97328988478677
 21
347.34315448381363
  0
LINE
  8
_0-0_0
  6
CONTINUOUS
 62
    7
 10
251.97328988478677
 20
347.34315448381363
 11
251.03589167791108
 21
348.13818704976893
  0
LINE
  8
_0-0_0
  6
CONTINUOUS
 62
    7
 10
269.48074379527077
 20
322.75187876531527
 11
269.01399750347701
 21
323.88915413147242
  0
LINE
  8
_0-0_0
  6
CONTINUOUS
 62
    7
 10
269.01399750347701
 20
323.88915413147242
 11
268.54836617799958
 21
325.02642949762969
  0
LINE
  8
_0-0_0
  6
CONTINUOUS
 62
    7
 10
268.54836617799958
 20
325.02642949762969
 11
268.0827380937032
 21
326.1637048637869
  0
LINE
  8
_0-0_0
  6
CONTINUOUS
 62
    7
 10
268.0827380937032
 20
326.1637048637869
 11
267.61599180190944
 21
327.30098022994412
  0
LINE
  8
_0-0_0
  6
CONTINUOUS
 62
    7
 10
267.61599180190944
 20
327.30098022994412
 11
267.14924551011569
 21
328.43825559610138
  0
LINE
  8
_0-0_0
  6
CONTINUOUS
 62
    7
 10
267.14924551011569
 20
328.43825559610138
 11
266.68361418463826
 21
329.57553096225854
  0
LINE
  8
_0-0_0
  6
CONTINUOUS
 62
    7
 10
266.68361418463826
 20
329.57553096225854
 11
266.21798610034193
 21
330.71280632841575
  0
LINE
  8
_0-0_0
  6
CONTINUOUS
 62
    7
 10
266.21798610034193
 20
330.71280632841575
 11
265.75123980854812
 21
331.85008169457302
  0
LINE
  8
_0-0_0
  6
CONTINUOUS
 62
    7
 10
262.00163725750195
 20
343.38586028572843
 11
261.71019997185761
 21
344.57952572156813
  0
LINE
  8
_0-0_0
  6
CONTINUOUS
 62
    7
 10
261.71019997185761
 20
344.57952572156813
 11
261.4187626862132
 21
345.77374864056605
  0
LINE
  8
_0-0_0
  6
CONTINUOUS
 62
    7
 10
261.4187626862132
 20
345.77374864056605
 11
261.12732540056879
 21
346.96797155956386
  0
LINE
  8
_0-0_0
  6
CONTINUOUS
 62
    7
 10
261.12732540056879
 20
346.96797155956386
 11
260.83588811492439
 21
348.16163699540357
  0
LINE
  8
_0-0_0
  6
CONTINUOUS
 62
    7
 10
260.83588811492439
 20
348.16163699540357
 11
260.54445082928004
 21
349.35529919006211
  0
LINE
  8
_0-0_0
  6
CONTINUOUS
 62
    7
 10
260.54445082928004
 20
349.35529919006211
 11
260.25301354363563
 21
350.54952210905998
  0
LINE
  8
_0-0_0
  6
CONTINUOUS
 62
    7
 10
260.25301354363563
 20
350.54952210905998
 11
259.96157625799128
 21
351.74374502805779
  0
LINE
  8
_0-0_0
  6
CONTINUOUS
 62
    7
 10
259.96157625799128
 20
351.74374502805779
 11
259.67069645550509
 21
352.93741046389755
  0
LINE
  8
_0-0_0
  6
CONTINUOUS
 62
    7
 10
268.49477000647005
 20
325.15428437053265
 11
269.04637690318549
 21
325.43232261329462
  0
LINE
  8
_0-0_0
  6
CONTINUOUS
 62
    7
 10
269.04637690318549
 20
325.43232261329462
 11
269.58347303188344
 21
325.73548325116582
  0
LINE
  8
_0-0_0
  6
CONTINUOUS
 62
    7
 10
269.58347303188344
 20
325.73548325116582
 11
270.10604866902037
 21
326.06265131782988
  0
LINE
  8
_0-0_0
  6
CONTINUOUS
 62
    7
 10
270.10604866902037
 20
326.06265131782988
 11
270.61187712314495
 21
326.41271184697041
  0
LINE
  8
_0-0_0
  6
CONTINUOUS
 62
    7
 10
270.61187712314495
 20
326.41271184697041
 11
271.10095515307603
 21
326.78621908056465
  0
LINE
  8
_0-0_0
  6
CONTINUOUS
 62
    7
 10
271.10095515307603
 20
326.78621908056465
 11
271.5732859999946
 21
327.18206129347726
  0
LINE
  8
_0-0_0
  6
CONTINUOUS
 62
    7
 10
271.5732859999946
 20
327.18206129347726
 11
272.02774821522229
 21
327.59911703702966
  0
LINE
  8
_0-0_0
  6
CONTINUOUS
 62
    7
 10
272.02774821522229
 20
327.59911703702966
 11
272.46211186612646
 21
328.03795027674238
  0
LINE
  8
_0-0_0
  6
CONTINUOUS
 62
    7
 10
274.50552424694831
 20
330.84679999842058
 11
274.78802883733778
 21
331.39617696250343
  0
LINE
  8
_0-0_0
  6
CONTINUOUS
 62
    7
 10
274.78802883733778
 20
331.39617696250343
 11
275.04373210078137
 21
331.95671979565486
  0
LINE
  8
_0-0_0
  6
CONTINUOUS
 62
    7
 10
275.04373210078137
 20
331.95671979565486
 11
275.27487369345511
 21
332.52842849787504
  0
LINE
  8
_0-0_0
  6
CONTINUOUS
 62
    7
 10
275.27487369345511
 20
332.52842849787504
 11
275.47809575168549
 21
333.10962737850821
  0
LINE
  8
_0-0_0
  6
CONTINUOUS
 62
    7
 10
275.47809575168549
 20
333.10962737850821
 11
275.65452296533232
 21
333.69975895439632
  0
LINE
  8
_0-0_0
  6
CONTINUOUS
 62
    7
 10
275.65452296533232
 20
333.69975895439632
 11
275.80526705953071
 21
334.29770825922299
  0
LINE
  8
_0-0_0
  6
CONTINUOUS
 62
    7
 10
275.80526705953071
 20
334.29770825922299
 11
275.92697665296942
 21
334.90235708549096
  0
LINE
  8
_0-0_0
  6
CONTINUOUS
 62
    7
 10
275.92697665296942
 20
334.90235708549096
 11
276.02077319432715
 21
335.51259046688375
  0
LINE
  8
_0-0_0
  6
CONTINUOUS
 62
    7
 10
276.02077319432715
 20
338.98471225832611
 11
275.92697665296942
 21
339.59550312287706
  0
LINE
  8
_0-0_0
  6
CONTINUOUS
 62
    7
 10
275.92697665296942
 20
339.59550312287706
 11
275.80526705953071
 21
340.20015194914492
  0
LINE
  8
_0-0_0
  6
CONTINUOUS
 62
    7
 10
275.80526705953071
 20
340.20015194914492
 11
275.65452296533232
 21
340.79754052963227
  0
LINE
  8
_0-0_0
  6
CONTINUOUS
 62
    7
 10
275.65452296533232
 20
340.79754052963227
 11
275.47809575168549
 21
341.38711462236233
  0
LINE
  8
_0-0_0
  6
CONTINUOUS
 62
    7
 10
275.47809575168549
 20
341.38711462236233
 11
275.27487369345511
 21
341.9683167441766
  0
LINE
  8
_0-0_0
  6
CONTINUOUS
 62
    7
 10
275.27487369345511
 20
341.9683167441766
 11
275.04373210078137
 21
342.54002220521562
  0
LINE
  8
_0-0_0
  6
CONTINUOUS
 62
    7
 10
275.04373210078137
 20
342.54002220521562
 11
274.78802883733778
 21
343.10056503836711
  0
LINE
  8
_0-0_0
  6
CONTINUOUS
 62
    7
 10
274.78802883733778
 20
343.10056503836711
 11
274.50552424694831
 21
343.64994200244996
  0
LINE
  8
_0-0_0
  6
CONTINUOUS
 62
    7
 10
272.46211186612646
 20
346.45823424097
 11
272.02774821522229
 21
346.89706748068272
  0
LINE
  8
_0-0_0
  6
CONTINUOUS
 62
    7
 10
272.02774821522229
 20
346.89706748068272
 11
271.5732859999946
 21
347.31468070739328
  0
LINE
  8
_0-0_0
  6
CONTINUOUS
 62
    7
 10
271.5732859999946
 20
347.31468070739328
 11
271.10095515307603
 21
347.70996543714773
  0
LINE
  8
_0-0_0
  6
CONTINUOUS
 62
    7
 10
271.10095515307603
 20
347.70996543714773
 11
270.61187712314495
 21
348.08347267074191
  0
LINE
  8
_0-0_0
  6
CONTINUOUS
 62
    7
 10
270.61187712314495
 20
348.08347267074191
 11
270.10604866902037
 21
348.43409068304067
  0
LINE
  8
_0-0_0
  6
CONTINUOUS
 62
    7
 10
270.10604866902037
 20
348.43409068304067
 11
269.58347303188344
 21
348.76125874970467
  0
LINE
  8
_0-0_0
  6
CONTINUOUS
 62
    7
 10
269.58347303188344
 20
348.76125874970467
 11
269.04637690318549
 21
349.06442262875703
  0
LINE
  8
_0-0_0
  6
CONTINUOUS
 62
    7
 10
269.04637690318549
 20
349.06442262875703
 11
268.49477000647005
 21
349.34246087151905
  0
LINE
  8
_0-0_0
  6
CONTINUOUS
 62
    7
 10
260.28651115084159
 20
324.08121356181539
 11
260.89618380789506
 21
323.98239318967211
  0
LINE
  8
_0-0_0
  6
CONTINUOUS
 62
    7
 10
260.89618380789506
 20
323.98239318967211
 11
261.50920784625976
 21
323.91148911079085
  0
LINE
  8
_0-0_0
  6
CONTINUOUS
 62
    7
 10
261.50920784625976
 20
323.91148911079085
 11
262.12446505843815
 21
323.86905556714891
  0
LINE
  8
_0-0_0
  6
CONTINUOUS
 62
    7
 10
262.12446505843815
 20
323.86905556714891
 11
262.73971902943543
 21
323.85509904110842
  0
LINE
  8
_0-0_0
  6
CONTINUOUS
 62
    7
 10
262.73971902943543
 20
323.85509904110842
 11
263.35497624161383
 21
323.86905556714891
  0
LINE
  8
_0-0_0
  6
CONTINUOUS
 62
    7
 10
263.35497624161383
 20
323.86905556714891
 11
263.97023345379222
 21
323.91148911079085
  0
LINE
  8
_0-0_0
  6
CONTINUOUS
 62
    7
 10
263.97023345379222
 20
323.91148911079085
 11
264.58213928465943
 21
323.98239318967211
  0
LINE
  8
_0-0_0
  6
CONTINUOUS
 62
    7
 10
264.58213928465943
 20
323.98239318967211
 11
265.1918119417129
 21
324.08121356181539
  0
LINE
  8
_0-0_0
  6
CONTINUOUS
 62
    7
 10
253.01621122642808
 20
328.03795027674238
 11
253.45057811851336
 21
327.59911703702966
  0
LINE
  8
_0-0_0
  6
CONTINUOUS
 62
    7
 10
253.45057811851336
 20
327.59911703702966
 11
253.90504033374106
 21
327.18206129347726
  0
LINE
  8
_0-0_0
  6
CONTINUOUS
 62
    7
 10
253.90504033374106
 20
327.18206129347726
 11
254.37736793947855
 21
326.78621908056465
  0
LINE
  8
_0-0_0
  6
CONTINUOUS
 62
    7
 10
254.37736793947855
 20
326.78621908056465
 11
254.86700669374892
 21
326.41271184697041
  0
LINE
  8
_0-0_0
  6
CONTINUOUS
 62
    7
 10
254.86700669374892
 20
326.41271184697041
 11
255.37339263103161
 21
326.06265131782988
  0
LINE
  8
_0-0_0
  6
CONTINUOUS
 62
    7
 10
255.37339263103161
 20
326.06265131782988
 11
255.89596826816859
 21
325.73548325116582
  0
LINE
  8
_0-0_0
  6
CONTINUOUS
 62
    7
 10
255.89596826816859
 20
325.73548325116582
 11
256.43306439686648
 21
325.43232261329462
  0
LINE
  8
_0-0_0
  6
CONTINUOUS
 62
    7
 10
256.43306439686648
 20
325.43232261329462
 11
256.98467129358187
 21
325.15428437053265
  0
LINE
  8
_0-0_0
  6
CONTINUOUS
 62
    7
 10
249.45866810572483
 20
335.51259046688375
 11
249.55302213024072
 21
334.90235708549096
  0
LINE
  8
_0-0_0
  6
CONTINUOUS
 62
    7
 10
249.55302213024072
 20
334.90235708549096
 11
249.67529244801875
 21
334.29770825922299
  0
LINE
  8
_0-0_0
  6
CONTINUOUS
 62
    7
 10
249.67529244801875
 20
334.29770825922299
 11
249.82491833471968
 21
333.69975895439632
  0
LINE
  8
_0-0_0
  6
CONTINUOUS
 62
    7
 10
249.82491833471968
 20
333.69975895439632
 11
250.00134554836649
 21
333.10962737850821
  0
LINE
  8
_0-0_0
  6
CONTINUOUS
 62
    7
 10
250.00134554836649
 20
333.10962737850821
 11
250.2045676065969
 21
332.52842849787504
  0
LINE
  8
_0-0_0
  6
CONTINUOUS
 62
    7
 10
250.2045676065969
 20
332.52842849787504
 11
250.43515171611244
 21
331.95671979565486
  0
LINE
  8
_0-0_0
  6
CONTINUOUS
 62
    7
 10
250.43515171611244
 20
331.95671979565486
 11
250.69197318705349
 21
331.39617696250343
  0
LINE
  8
_0-0_0
  6
CONTINUOUS
 62
    7
 10
250.69197318705349
 20
331.39617696250343
 11
250.97447777744293
 21
330.84679999842058
  0
LINE
  8
_0-0_0
  6
CONTINUOUS
 62
    7
 10
250.97447777744293
 20
343.64994200244996
 11
250.69197318705349
 21
343.10056503836711
  0
LINE
  8
_0-0_0
  6
CONTINUOUS
 62
    7
 10
250.69197318705349
 20
343.10056503836711
 11
250.43515171611244
 21
342.54002220521562
  0
LINE
  8
_0-0_0
  6
CONTINUOUS
 62
    7
 10
250.43515171611244
 20
342.54002220521562
 11
250.2045676065969
 21
341.9683167441766
  0
LINE
  8
_0-0_0
  6
CONTINUOUS
 62
    7
 10
250.2045676065969
 20
341.9683167441766
 11
250.00134554836649
 21
341.38711462236233
  0
LINE
  8
_0-0_0
  6
CONTINUOUS
 62
    7
 10
250.00134554836649
 20
341.38711462236233
 11
249.82491833471968
 21
340.79754052963227
  0
LINE
  8
_0-0_0
  6
CONTINUOUS
 62
    7
 10
249.82491833471968
 20
340.79754052963227
 11
249.67529244801875
 21
340.20015194914492
  0
LINE
  8
_0-0_0
  6
CONTINUOUS
 62
    7
 10
249.67529244801875
 20
340.20015194914492
 11
249.55302213024072
 21
339.59550312287706
  0
LINE
  8
_0-0_0
  6
CONTINUOUS
 62
    7
 10
249.55302213024072
 20
339.59550312287706
 11
249.45866810572483
 21
338.98471225832611
  0
LINE
  8
_0-0_0
  6
CONTINUOUS
 62
    7
 10
256.98467129358187
 20
349.34246087151905
 11
256.43306439686648
 21
349.06442262875703
  0
LINE
  8
_0-0_0
  6
CONTINUOUS
 62
    7
 10
256.43306439686648
 20
349.06442262875703
 11
255.89596826816859
 21
348.76125874970467
  0
LINE
  8
_0-0_0
  6
CONTINUOUS
 62
    7
 10
255.89596826816859
 20
348.76125874970467
 11
255.37339263103161
 21
348.43409068304067
  0
LINE
  8
_0-0_0
  6
CONTINUOUS
 62
    7
 10
255.37339263103161
 20
348.43409068304067
 11
254.86700669374892
 21
348.08347267074191
  0
LINE
  8
_0-0_0
  6
CONTINUOUS
 62
    7
 10
254.86700669374892
 20
348.08347267074191
 11
254.37736793947855
 21
347.70996543714773
  0
LINE
  8
_0-0_0
  6
CONTINUOUS
 62
    7
 10
254.37736793947855
 20
347.70996543714773
 11
253.90504033374106
 21
347.31468070739328
  0
LINE
  8
_0-0_0
  6
CONTINUOUS
 62
    7
 10
253.90504033374106
 20
347.31468070739328
 11
253.45057811851336
 21
346.89706748068272
  0
LINE
  8
_0-0_0
  6
CONTINUOUS
 62
    7
 10
253.45057811851336
 20
346.89706748068272
 11
253.01621122642808
 21
346.45823424097
  0
LINE
  8
_0-0_0
  6
CONTINUOUS
 62
    7
 10
265.1918119417129
 20
350.41552843905509
 11
264.58213928465943
 21
350.51490953553775
  0
LINE
  8
_0-0_0
  6
CONTINUOUS
 62
    7
 10
264.58213928465943
 20
350.51490953553775
 11
263.97023345379222
 21
350.58581361441895
  0
LINE
  8
_0-0_0
  6
CONTINUOUS
 62
    7
 10
263.97023345379222
 20
350.58581361441895
 11
263.35497624161383
 21
350.6282439168798
  0
LINE
  8
_0-0_0
  6
CONTINUOUS
 62
    7
 10
263.35497624161383
 20
350.6282439168798
 11
262.73971902943543
 21
350.64220368410145
  0
LINE
  8
_0-0_0
  6
CONTINUOUS
 62
    7
 10
262.73971902943543
 20
350.64220368410145
 11
262.12446505843815
 21
350.6282439168798
  0
LINE
  8
_0-0_0
  6
CONTINUOUS
 62
    7
 10
262.12446505843815
 20
350.6282439168798
 11
261.50920784625976
 21
350.58581361441895
  0
LINE
  8
_0-0_0
  6
CONTINUOUS
 62
    7
 10
261.50920784625976
 20
350.58581361441895
 11
260.89618380789506
 21
350.51490953553775
  0
LINE
  8
_0-0_0
  6
CONTINUOUS
 62
    7
 10
260.89618380789506
 20
350.51490953553775
 11
260.28651115084159
 21
350.41552843905509
  0
LINE
  8
_0-0_0
  6
CONTINUOUS
 62
    7
 10
295.97026911433636
 20
337.24837262102585
 11
295.29471296800614
 21
343.94584563572181
  0
LINE
  8
_0-0_0
  6
CONTINUOUS
 62
    7
 10
295.29471296800614
 20
343.94584563572181
 11
293.35849941260557
 21
350.18383260440442
  0
LINE
  8
_0-0_0
  6
CONTINUOUS
 62
    7
 10
293.35849941260557
 20
350.18383260440442
 11
290.2956156357771
 21
355.82833337470674
  0
LINE
  8
_0-0_0
  6
CONTINUOUS
 62
    7
 10
290.2956156357771
 20
355.82833337470674
 11
286.23782537489296
 21
360.74647896648344
  0
LINE
  8
_0-0_0
  6
CONTINUOUS
 62
    7
 10
286.23782537489296
 20
360.74647896648344
 11
281.32024050745554
 21
364.80426598618641
  0
LINE
  8
_0-0_0
  6
CONTINUOUS
 62
    7
 10
281.32024050745554
 20
364.80426598618641
 11
275.67573973715332
 21
367.86826797051231
  0
LINE
  8
_0-0_0
  6
CONTINUOUS
 62
    7
 10
275.67573973715332
 20
367.86826797051231
 11
269.43831025162882
 21
369.80448152591293
  0
LINE
  8
_0-0_0
  6
CONTINUOUS
 62
    7
 10
269.43831025162882
 20
369.80448152591293
 11
262.74083723693286
 21
370.47947694790383
  0
LINE
  8
_0-0_0
  6
CONTINUOUS
 62
    7
 10
262.74083723693286
 20
370.47947694790383
 11
256.04280349789758
 21
369.80448152591293
  0
LINE
  8
_0-0_0
  6
CONTINUOUS
 62
    7
 10
256.04280349789758
 20
369.80448152591293
 11
249.80481977039611
 21
367.86826797051231
  0
LINE
  8
_0-0_0
  6
CONTINUOUS
 62
    7
 10
249.80481977039611
 20
367.86826797051231
 11
244.15920079259647
 21
364.80426598618641
  0
LINE
  8
_0-0_0
  6
CONTINUOUS
 62
    7
 10
244.15920079259647
 20
364.80426598618641
 11
239.24105520081972
 21
360.74647896648344
  0
LINE
  8
_0-0_0
  6
CONTINUOUS
 62
    7
 10
239.24105520081972
 20
360.74647896648344
 11
235.18326818111677
 21
355.82833337470674
  0
LINE
  8
_0-0_0
  6
CONTINUOUS
 62
    7
 10
235.18326818111677
 20
355.82833337470674
 11
232.11926619679085
 21
350.18383260440442
  0
LINE
  8
_0-0_0
  6
CONTINUOUS
 62
    7
 10
232.11926619679085
 20
350.18383260440442
 11
230.18249515823209
 21
343.94584563572181
  0
LINE
  8
_0-0_0
  6
CONTINUOUS
 62
    7
 10
230.18249515823209
 20
343.94584563572181
 11
229.50749973624119
 21
337.24837262102585
  0
LINE
  8
_0-0_0
  6
CONTINUOUS
 62
    7
 10
229.50749973624119
 20
337.24837262102585
 11
230.18249515823209
 21
330.55089636514879
  0
LINE
  8
_0-0_0
  6
CONTINUOUS
 62
    7
 10
230.18249515823209
 20
330.55089636514879
 11
232.11926619679085
 21
324.31291263764723
  0
LINE
  8
_0-0_0
  6
CONTINUOUS
 62
    7
 10
232.11926619679085
 20
324.31291263764723
 11
235.18326818111677
 21
318.66840862616391
  0
LINE
  8
_0-0_0
  6
CONTINUOUS
 62
    7
 10
235.18326818111677
 20
318.66840862616391
 11
239.24105520081972
 21
313.75026627556826
  0
LINE
  8
_0-0_0
  6
CONTINUOUS
 62
    7
 10
239.24105520081972
 20
313.75026627556826
 11
244.15920079259647
 21
309.69191853152597
  0
LINE
  8
_0-0_0
  6
CONTINUOUS
 62
    7
 10
244.15920079259647
 20
309.69191853152597
 11
249.80481977039611
 21
306.62791978838135
  0
LINE
  8
_0-0_0
  6
CONTINUOUS
 62
    7
 10
249.80481977039611
 20
306.62791978838135
 11
256.04280349789758
 21
304.6917029917995
  0
LINE
  8
_0-0_0
  6
CONTINUOUS
 62
    7
 10
256.04280349789758
 20
304.6917029917995
 11
262.74083723693286
 21
304.01670756980855
  0
LINE
  8
_0-0_0
  6
CONTINUOUS
 62
    7
 10
262.74083723693286
 20
304.01670756980855
 11
269.43831025162882
 21
304.6917029917995
  0
LINE
  8
_0-0_0
  6
CONTINUOUS
 62
    7
 10
269.43831025162882
 20
304.6917029917995
 11
275.67573973715332
 21
306.62791978838135
  0
LINE
  8
_0-0_0
  6
CONTINUOUS
 62
    7
 10
275.67573973715332
 20
306.62791978838135
 11
281.32024050745554
 21
309.69191853152597
  0
LINE
  8
_0-0_0
  6
CONTINUOUS
 62
    7
 10
281.32024050745554
 20
309.69191853152597
 11
286.23782537489296
 21
313.75026627556826
  0
LINE
  8
_0-0_0
  6
CONTINUOUS
 62
    7
 10
286.23782537489296
 20
313.75026627556826
 11
290.2956156357771
 21
318.66840862616391
  0
LINE
  8
_0-0_0
  6
CONTINUOUS
 62
    7
 10
290.2956156357771
 20
318.66840862616391
 11
293.35849941260557
 21
324.31291263764723
  0
LINE
  8
_0-0_0
  6
CONTINUOUS
 62
    7
 10
293.35849941260557
 20
324.31291263764723
 11
295.29471296800614
 21
330.55089636514879
  0
LINE
  8
_0-0_0
  6
CONTINUOUS
 62
    7
 10
295.29471296800614
 20
330.55089636514879
 11
295.97026911433636
 21
337.24837262102585
  0
LINE
  8
_0-0_0
  6
CONTINUOUS
 62
    7
 10
252.09835085953668
 20
327.26078310129697
 11
252.58296578302139
 21
326.76947189755225
  0
LINE
  8
_0-0_0
  6
CONTINUOUS
 62
    7
 10
252.58296578302139
 20
326.76947189755225
 11
253.08879099596481
 21
326.30160739826107
  0
LINE
  8
_0-0_0
  6
CONTINUOUS
 62
    7
 10
253.08879099596481
 20
326.30160739826107
 11
253.61527873875224
 21
325.85886853526017
  0
LINE
  8
_0-0_0
  6
CONTINUOUS
 62
    7
 10
253.61527873875224
 20
325.85886853526017
 11
254.16186180468205
 21
325.44181279170766
  0
LINE
  8
_0-0_0
  6
CONTINUOUS
 62
    7
 10
254.16186180468205
 20
325.44181279170766
 11
254.72742846861917
 21
325.05099765076181
  0
LINE
  8
_0-0_0
  6
CONTINUOUS
 62
    7
 10
254.72742846861917
 20
325.05099765076181
 11
255.31086052306605
 21
324.68641987124141
  0
LINE
  8
_0-0_0
  6
CONTINUOUS
 62
    7
 10
255.31086052306605
 20
324.68641987124141
 11
255.91216120920393
 21
324.34976162616431
  0
LINE
  8
_0-0_0
  6
CONTINUOUS
 62
    7
 10
255.91216120920393
 20
324.34976162616431
 11
256.52909087085675
 21
324.04157391632646
  0
LINE
  8
_0-0_0
  6
CONTINUOUS
 62
    7
 10
248.26109380541578
 20
335.42270278999536
 11
248.3632655588703
 21
334.740447122224
  0
LINE
  8
_0-0_0
  6
CONTINUOUS
 62
    7
 10
248.3632655588703
 20
334.740447122224
 11
248.49725922887509
 21
334.06489421707494
  0
LINE
  8
_0-0_0
  6
CONTINUOUS
 62
    7
 10
248.49725922887509
 20
334.06489421707494
 11
248.66307805661145
 21
333.39715579968333
  0
LINE
  8
_0-0_0
  6
CONTINUOUS
 62
    7
 10
248.66307805661145
 20
333.39715579968333
 11
248.86016131773997
 21
332.73835331872783
  0
LINE
  8
_0-0_0
  6
CONTINUOUS
 62
    7
 10
248.86016131773997
 20
332.73835331872783
 11
249.0879515291025
 21
332.08959849934348
  0
LINE
  8
_0-0_0
  6
CONTINUOUS
 62
    7
 10
249.0879515291025
 20
332.08959849934348
 11
249.34588796635984
 21
331.45256703218598
  0
LINE
  8
_0-0_0
  6
CONTINUOUS
 62
    7
 10
249.34588796635984
 20
331.45256703218598
 11
249.63397711187417
 21
330.82726215843638
  0
LINE
  8
_0-0_0
  6
CONTINUOUS
 62
    7
 10
249.63397711187417
 20
330.82726215843638
 11
249.95109751696702
 21
330.21479560322985
  0
LINE
  8
_0-0_0
  6
CONTINUOUS
 62
    7
 10
249.95109751696702
 20
344.2819463976407
 11
249.63397711187417
 21
343.66948308361532
  0
LINE
  8
_0-0_0
  6
CONTINUOUS
 62
    7
 10
249.63397711187417
 20
343.66948308361532
 11
249.34588796635984
 21
343.04417820986578
  0
LINE
  8
_0-0_0
  6
CONTINUOUS
 62
    7
 10
249.34588796635984
 20
343.04417820986578
 11
249.0879515291025
 21
342.40714674270816
  0
LINE
  8
_0-0_0
  6
CONTINUOUS
 62
    7
 10
249.0879515291025
 20
342.40714674270816
 11
248.86016131773997
 21
341.75839192332393
  0
LINE
  8
_0-0_0
  6
CONTINUOUS
 62
    7
 10
248.86016131773997
 20
341.75839192332393
 11
248.66307805661145
 21
341.09958620118726
  0
LINE
  8
_0-0_0
  6
CONTINUOUS
 62
    7
 10
248.66307805661145
 20
341.09958620118726
 11
248.49725922887509
 21
340.43184778379566
  0
LINE
  8
_0-0_0
  6
CONTINUOUS
 62
    7
 10
248.49725922887509
 20
340.43184778379566
 11
248.3632655588703
 21
339.75685236180476
  0
LINE
  8
_0-0_0
  6
CONTINUOUS
 62
    7
 10
248.3632655588703
 20
339.75685236180476
 11
248.26109380541578
 21
339.07459993521445
  0
LINE
  8
_0-0_0
  6
CONTINUOUS
 62
    7
 10
256.52909087085675
 20
350.4551680845442
 11
255.91216120920393
 21
350.14698361588734
  0
LINE
  8
_0-0_0
  6
CONTINUOUS
 62
    7
 10
255.91216120920393
 20
350.14698361588734
 11
255.31086052306605
 21
349.81032212962907
  0
LINE
  8
_0-0_0
  6
CONTINUOUS
 62
    7
 10
255.31086052306605
 20
349.81032212962907
 11
254.72742846861917
 21
349.44574759128983
  0
LINE
  8
_0-0_0
  6
CONTINUOUS
 62
    7
 10
254.72742846861917
 20
349.44574759128983
 11
254.16186180468205
 21
349.05492920916288
  0
LINE
  8
_0-0_0
  6
CONTINUOUS
 62
    7
 10
254.16186180468205
 20
349.05492920916288
 11
253.61527873875224
 21
348.63787346561043
  0
LINE
  8
_0-0_0
  6
CONTINUOUS
 62
    7
 10
253.61527873875224
 20
348.63787346561043
 11
253.08879099596481
 21
348.19513460260947
  0
LINE
  8
_0-0_0
  6
CONTINUOUS
 62
    7
 10
253.08879099596481
 20
348.19513460260947
 11
252.58296578302139
 21
347.72727334449951
  0
LINE
  8
_0-0_0
  6
CONTINUOUS
 62
    7
 10
252.58296578302139
 20
347.72727334449951
 11
252.09835085953668
 21
347.23595889957352
  0
LINE
  8
_0-0_0
  6
CONTINUOUS
 62
    7
 10
273.3732727115767
 20
347.24377662851214
 11
272.88977599558939
 21
347.73453034909875
  0
LINE
  8
_0-0_0
  6
CONTINUOUS
 62
    7
 10
272.88977599558939
 20
347.73453034909875
 11
272.38506574896229
 21
348.2007191577344
  0
LINE
  8
_0-0_0
  6
CONTINUOUS
 62
    7
 10
272.38506574896229
 20
348.2007191577344
 11
271.85913873051413
 21
348.64178233007976
  0
LINE
  8
_0-0_0
  6
CONTINUOUS
 62
    7
 10
271.85913873051413
 20
348.64178233007976
 11
271.31311314774246
 21
349.05828059047406
  0
LINE
  8
_0-0_0
  6
CONTINUOUS
 62
    7
 10
271.31311314774246
 20
349.05828059047406
 11
270.74921893327979
 21
349.4485382482618
  0
LINE
  8
_0-0_0
  6
CONTINUOUS
 62
    7
 10
270.74921893327979
 20
349.4485382482618
 11
270.16634436199104
 21
349.81199782028466
  0
LINE
  8
_0-0_0
  6
CONTINUOUS
 62
    7
 10
270.16634436199104
 20
349.81199782028466
 11
269.56672260768983
 21
350.14754109904544
  0
LINE
  8
_0-0_0
  6
CONTINUOUS
 62
    7
 10
269.56672260768983
 20
350.14754109904544
 11
268.95035042919517
 21
350.4551680845442
  0
LINE
  8
_0-0_0
  6
CONTINUOUS
 62
    7
 10
277.21890497779435
 20
339.07459993521445
 11
277.11617574118168
 21
339.75685236180476
  0
LINE
  8
_0-0_0
  6
CONTINUOUS
 62
    7
 10
277.11617574118168
 20
339.75685236180476
 11
276.98106386367942
 21
340.43184778379566
  0
LINE
  8
_0-0_0
  6
CONTINUOUS
 62
    7
 10
276.98106386367942
 20
340.43184778379566
 11
276.81580576028239
 21
341.09958620118726
  0
LINE
  8
_0-0_0
  6
CONTINUOUS
 62
    7
 10
276.81580576028239
 20
341.09958620118726
 11
276.61927998231198
 21
341.75839192332393
  0
LINE
  8
_0-0_0
  6
CONTINUOUS
 62
    7
 10
276.61927998231198
 20
341.75839192332393
 11
276.39148977094948
 21
342.40714674270816
  0
LINE
  8
_0-0_0
  6
CONTINUOUS
 62
    7
 10
276.39148977094948
 20
342.40714674270816
 11
276.13355333369213
 21
343.04417820986578
  0
LINE
  8
_0-0_0
  6
CONTINUOUS
 62
    7
 10
276.13355333369213
 20
343.04417820986578
 11
275.84434922186148
 21
343.66948308361532
  0
LINE
  8
_0-0_0
  6
CONTINUOUS
 62
    7
 10
275.84434922186148
 20
343.66948308361532
 11
275.5261106092712
 21
344.2819463976407
  0
LINE
  8
_0-0_0
  6
CONTINUOUS
 62
    7
 10
275.57189229304322
 20
330.29686555117962
 11
275.88119496919745
 21
330.90039941113116
  0
LINE
  8
_0-0_0
  6
CONTINUOUS
 62
    7
 10
275.88119496919745
 20
330.90039941113116
 11
276.16146638577322
 21
331.51677158962593
  0
LINE
  8
_0-0_0
  6
CONTINUOUS
 62
    7
 10
276.16146638577322
 20
331.51677158962593
 11
276.41270654277042
 21
332.14431287837044
  0
LINE
  8
_0-0_0
  6
CONTINUOUS
 62
    7
 10
276.41270654277042
 20
332.14431287837044
 11
276.63379723269179
 21
332.78301679500237
  0
LINE
  8
_0-0_0
  6
CONTINUOUS
 62
    7
 10
276.63379723269179
 20
332.78301679500237
 11
276.82585342185359
 21
333.43121413122856
  0
LINE
  8
_0-0_0
  6
CONTINUOUS
 62
    7
 10
276.82585342185359
 20
333.43121413122856
 11
276.98664841880429
 21
334.08778343837031
  0
LINE
  8
_0-0_0
  6
CONTINUOUS
 62
    7
 10
276.98664841880429
 20
334.08778343837031
 11
277.11840891499543
 21
334.7521737156319
  0
LINE
  8
_0-0_0
  6
CONTINUOUS
 62
    7
 10
277.11840891499543
 20
334.7521737156319
 11
277.21890497779435
 21
335.42270278999536
  0
LINE
  8
_0-0_0
  6
CONTINUOUS
 62
    7
 10
268.95035042919517
 20
324.04157391632646
 11
269.56783757400615
 21
324.34976162616431
  0
LINE
  8
_0-0_0
  6
CONTINUOUS
 62
    7
 10
269.56783757400615
 20
324.34976162616431
 11
270.16858077698589
 21
324.68641987124141
  0
LINE
  8
_0-0_0
  6
CONTINUOUS
 62
    7
 10
270.16858077698589
 20
324.68641987124141
 11
270.75257031459097
 21
325.05099765076181
  0
LINE
  8
_0-0_0
  6
CONTINUOUS
 62
    7
 10
270.75257031459097
 20
325.05099765076181
 11
271.31869446168622
 21
325.44181279170766
  0
LINE
  8
_0-0_0
  6
CONTINUOUS
 62
    7
 10
271.31869446168622
 20
325.44181279170766
 11
271.86583825195532
 21
325.85886853526017
  0
LINE
  8
_0-0_0
  6
CONTINUOUS
 62
    7
 10
271.86583825195532
 20
325.85886853526017
 11
272.39176527040343
 21
326.30160739826107
  0
LINE
  8
_0-0_0
  6
CONTINUOUS
 62
    7
 10
272.39176527040343
 20
326.30160739826107
 11
272.89759372452806
 21
326.76947189755225
  0
LINE
  8
_0-0_0
  6
CONTINUOUS
 62
    7
 10
272.89759372452806
 20
326.76947189755225
 11
273.38108719933416
 21
327.26078310129697
  0
LINE
  8
_0-0_0
  6
CONTINUOUS
 62
    7
 10
260.00121590348022
 20
322.91378872858229
 11
260.68235336375415
 21
322.8004543472403
  0
LINE
  8
_0-0_0
  6
CONTINUOUS
 62
    7
 10
260.68235336375415
 20
322.8004543472403
 11
261.36628148100004
 21
322.71893864126753
  0
LINE
  8
_0-0_0
  6
CONTINUOUS
 62
    7
 10
261.36628148100004
 20
322.71893864126753
 11
262.05188528890142
 21
322.67036630052365
  0
LINE
  8
_0-0_0
  6
CONTINUOUS
 62
    7
 10
262.05188528890142
 20
322.67036630052365
 11
262.73971902943543
 21
322.65417660066942
  0
LINE
  8
_0-0_0
  6
CONTINUOUS
 62
    7
 10
262.73971902943543
 20
322.65417660066942
 11
263.42755601115056
 21
322.67036630052365
  0
LINE
  8
_0-0_0
  6
CONTINUOUS
 62
    7
 10
263.42755601115056
 20
322.67036630052365
 11
264.11315981905199
 21
322.71893864126753
  0
LINE
  8
_0-0_0
  6
CONTINUOUS
 62
    7
 10
264.11315981905199
 20
322.71893864126753
 11
264.79653045313961
 21
322.8004543472403
  0
LINE
  8
_0-0_0
  6
CONTINUOUS
 62
    7
 10
264.79653045313961
 20
322.8004543472403
 11
265.47654970591611
 21
322.91378872858229
  0
LINE
  8
_0-0_0
  6
CONTINUOUS
 62
    7
 10
265.47654970591611
 20
351.58295327228825
 11
264.79653045313961
 21
351.69629089481145
  0
LINE
  8
_0-0_0
  6
CONTINUOUS
 62
    7
 10
264.79653045313961
 20
351.69629089481145
 11
264.11315981905199
 21
351.77780335960313
  0
LINE
  8
_0-0_0
  6
CONTINUOUS
 62
    7
 10
264.11315981905199
 20
351.77780335960313
 11
263.42755601115056
 21
351.82637570034694
  0
LINE
  8
_0-0_0
  6
CONTINUOUS
 62
    7
 10
263.42755601115056
 20
351.82637570034694
 11
262.73971902943543
 21
351.84256540020124
  0
LINE
  8
_0-0_0
  6
CONTINUOUS
 62
    7
 10
262.73971902943543
 20
351.84256540020124
 11
262.05188528890142
 21
351.82637570034694
  0
LINE
  8
_0-0_0
  6
CONTINUOUS
 62
    7
 10
262.05188528890142
 20
351.82637570034694
 11
261.36628148100004
 21
351.77780335960313
  0
LINE
  8
_0-0_0
  6
CONTINUOUS
 62
    7
 10
261.36628148100004
 20
351.77780335960313
 11
260.68235336375415
 21
351.69629089481145
  0
LINE
  8
_0-0_0
  6
CONTINUOUS
 62
    7
 10
260.68235336375415
 20
351.69629089481145
 11
260.00121590348022
 21
351.58295327228825
  0
LINE
  8
_0-0_0
  6
CONTINUOUS
 62
    7
 10
265.89863252143539
 20
337.24837262102585
 11
265.83498544715354
 21
337.88540084700219
  0
LINE
  8
_0-0_0
  6
CONTINUOUS
 62
    7
 10
265.83498544715354
 20
337.88540084700219
 11
265.65074374574925
 21
338.47832632104331
  0
LINE
  8
_0-0_0
  6
CONTINUOUS
 62
    7
 10
265.65074374574925
 20
338.47832632104331
 11
265.35930646010485
 21
339.014861725402
  0
LINE
  8
_0-0_0
  6
CONTINUOUS
 62
    7
 10
265.35930646010485
 20
339.014861725402
 11
264.97407263310271
 21
339.48272298351202
  0
LINE
  8
_0-0_0
  6
CONTINUOUS
 62
    7
 10
264.97407263310271
 20
339.48272298351202
 11
264.50621137499269
 21
339.86851429367226
  0
LINE
  8
_0-0_0
  6
CONTINUOUS
 62
    7
 10
264.50621137499269
 20
339.86851429367226
 11
263.97023345379222
 21
340.15995157931673
  0
LINE
  8
_0-0_0
  6
CONTINUOUS
 62
    7
 10
263.97023345379222
 20
340.15995157931673
 11
263.37730797975109
 21
340.3436357975628
  0
LINE
  8
_0-0_0
  6
CONTINUOUS
 62
    7
 10
263.37730797975109
 20
340.3436357975628
 11
262.74083723693286
 21
340.4078403550028
  0
LINE
  8
_0-0_0
  6
CONTINUOUS
 62
    7
 10
262.74083723693286
 20
340.4078403550028
 11
262.10436649411463
 21
340.3436357975628
  0
LINE
  8
_0-0_0
  6
CONTINUOUS
 62
    7
 10
262.10436649411463
 20
340.3436357975628
 11
261.51032281257608
 21
340.15995157931673
  0
LINE
  8
_0-0_0
  6
CONTINUOUS
 62
    7
 10
261.51032281257608
 20
340.15995157931673
 11
260.97434813255671
 21
339.86851429367226
  0
LINE
  8
_0-0_0
  6
CONTINUOUS
 62
    7
 10
260.97434813255671
 20
339.86851429367226
 11
260.50648363326553
 21
339.48272298351202
  0
LINE
  8
_0-0_0
  6
CONTINUOUS
 62
    7
 10
260.50648363326553
 20
339.48272298351202
 11
260.12069232310523
 21
339.014861725402
  0
LINE
  8
_0-0_0
  6
CONTINUOUS
 62
    7
 10
260.12069232310523
 20
339.014861725402
 11
259.82981576180021
 21
338.47832632104331
  0
LINE
  8
_0-0_0
  6
CONTINUOUS
 62
    7
 10
259.82981576180021
 20
338.47832632104331
 11
259.64557406039592
 21
337.88540084700219
  0
LINE
  8
_0-0_0
  6
CONTINUOUS
 62
    7
 10
259.64557406039592
 20
337.88540084700219
 11
259.58136626177475
 21
337.24837262102585
  0
LINE
  8
_0-0_0
  6
CONTINUOUS
 62
    7
 10
259.58136626177475
 20
337.24837262102585
 11
259.64557406039592
 21
336.61189863702646
  0
LINE
  8
_0-0_0
  6
CONTINUOUS
 62
    7
 10
259.64557406039592
 20
336.61189863702646
 11
259.82981576180021
 21
336.01897640416649
  0
LINE
  8
_0-0_0
  6
CONTINUOUS
 62
    7
 10
259.82981576180021
 20
336.01897640416649
 11
260.12069232310523
 21
335.48244099980786
  0
LINE
  8
_0-0_0
  6
CONTINUOUS
 62
    7
 10
260.12069232310523
 20
335.48244099980786
 11
260.50648363326553
 21
335.01457650051668
  0
LINE
  8
_0-0_0
  6
CONTINUOUS
 62
    7
 10
260.50648363326553
 20
335.01457650051668
 11
260.97434813255671
 21
334.62878519035638
  0
LINE
  8
_0-0_0
  6
CONTINUOUS
 62
    7
 10
260.97434813255671
 20
334.62878519035638
 11
261.51032281257608
 21
334.3379086290513
  0
LINE
  8
_0-0_0
  6
CONTINUOUS
 62
    7
 10
261.51032281257608
 20
334.3379086290513
 11
262.10436649411463
 21
334.1536636864659
  0
LINE
  8
_0-0_0
  6
CONTINUOUS
 62
    7
 10
262.10436649411463
 20
334.1536636864659
 11
262.74083723693286
 21
334.08945912902595
  0
LINE
  8
_0-0_0
  6
CONTINUOUS
 62
    7
 10
262.74083723693286
 20
334.08945912902595
 11
263.37730797975109
 21
334.1536636864659
  0
LINE
  8
_0-0_0
  6
CONTINUOUS
 62
    7
 10
263.37730797975109
 20
334.1536636864659
 11
263.97023345379222
 21
334.3379086290513
  0
LINE
  8
_0-0_0
  6
CONTINUOUS
 62
    7
 10
263.97023345379222
 20
334.3379086290513
 11
264.50621137499269
 21
334.62878519035638
  0
LINE
  8
_0-0_0
  6
CONTINUOUS
 62
    7
 10
264.50621137499269
 20
334.62878519035638
 11
264.97407263310271
 21
335.01457650051668
  0
LINE
  8
_0-0_0
  6
CONTINUOUS
 62
    7
 10
264.97407263310271
 20
335.01457650051668
 11
265.35930646010485
 21
335.48244099980786
  0
LINE
  8
_0-0_0
  6
CONTINUOUS
 62
    7
 10
265.35930646010485
 20
335.48244099980786
 11
265.65074374574925
 21
336.01897640416649
  0
LINE
  8
_0-0_0
  6
CONTINUOUS
 62
    7
 10
265.65074374574925
 20
336.01897640416649
 11
265.83498544715354
 21
336.61189863702646
  0
LINE
  8
_0-0_0
  6
CONTINUOUS
 62
    7
 10
265.83498544715354
 20
336.61189863702646
 11
265.89863252143539
 21
337.24837262102585
  0
LINE
  8
_0-0_0
  6
CONTINUOUS
 62
    7
 10
289.58879829723583
 20
337.24837262102585
 11
289.04388768078041
 21
342.66005934917996
  0
LINE
  8
_0-0_0
  6
CONTINUOUS
 62
    7
 10
289.04388768078041
 20
342.66005934917996
 11
287.47950566831844
 21
347.69991453439548
  0
LINE
  8
_0-0_0
  6
CONTINUOUS
 62
    7
 10
287.47950566831844
 20
347.69991453439548
 11
285.00396281040616
 21
352.26073935125112
  0
LINE
  8
_0-0_0
  6
CONTINUOUS
 62
    7
 10
285.00396281040616
 20
352.26073935125112
 11
281.72557289878119
 21
356.23422649037161
  0
LINE
  8
_0-0_0
  6
CONTINUOUS
 62
    7
 10
281.72557289878119
 20
356.23422649037161
 11
277.75153151768365
 21
359.51261640199664
  0
LINE
  8
_0-0_0
  6
CONTINUOUS
 62
    7
 10
277.75153151768365
 20
359.51261640199664
 11
273.19126418398611
 21
361.98871674306702
  0
LINE
  8
_0-0_0
  6
CONTINUOUS
 62
    7
 10
273.19126418398611
 20
361.98871674306702
 11
268.15196648192875
 21
363.55309551434783
  0
LINE
  8
_0-0_0
  6
CONTINUOUS
 62
    7
 10
268.15196648192875
 20
363.55309551434783
 11
262.74083723693286
 21
364.09856361396135
  0
LINE
  8
_0-0_0
  6
CONTINUOUS
 62
    7
 10
262.74083723693286
 20
364.09856361396135
 11
257.32858978443949
 21
363.55309551434783
  0
LINE
  8
_0-0_0
  6
CONTINUOUS
 62
    7
 10
257.32858978443949
 20
363.55309551434783
 11
252.28817711606584
 21
361.98871674306702
  0
LINE
  8
_0-0_0
  6
CONTINUOUS
 62
    7
 10
252.28817711606584
 20
361.98871674306702
 11
247.72735229921017
 21
359.51261640199664
  0
LINE
  8
_0-0_0
  6
CONTINUOUS
 62
    7
 10
247.72735229921017
 20
359.51261640199664
 11
243.75386840127075
 21
356.23422649037161
  0
LINE
  8
_0-0_0
  6
CONTINUOUS
 62
    7
 10
243.75386840127075
 20
356.23422649037161
 11
240.47491776530651
 21
352.26073935125112
  0
LINE
  8
_0-0_0
  6
CONTINUOUS
 62
    7
 10
240.47491776530651
 20
352.26073935125112
 11
237.99937814857537
 21
347.69991453439548
  0
LINE
  8
_0-0_0
  6
CONTINUOUS
 62
    7
 10
237.99937814857537
 20
347.69991453439548
 11
236.43499613611343
 21
342.66005934917996
  0
LINE
  8
_0-0_0
  6
CONTINUOUS
 62
    7
 10
236.43499613611343
 20
342.66005934917996
 11
235.88952803649985
 21
337.24837262102585
  0
LINE
  8
_0-0_0
  6
CONTINUOUS
 62
    7
 10
235.88952803649985
 20
337.24837262102585
 11
236.43499613611343
 21
331.8372401348488
  0
LINE
  8
_0-0_0
  6
CONTINUOUS
 62
    7
 10
236.43499613611343
 20
331.8372401348488
 11
237.99937814857537
 21
326.79738819081439
  0
LINE
  8
_0-0_0
  6
CONTINUOUS
 62
    7
 10
237.99937814857537
 20
326.79738819081439
 11
240.47491776530651
 21
322.23600264961954
  0
LINE
  8
_0-0_0
  6
CONTINUOUS
 62
    7
 10
240.47491776530651
 20
322.23600264961954
 11
243.75386840127075
 21
318.26251875168003
  0
LINE
  8
_0-0_0
  6
CONTINUOUS
 62
    7
 10
243.75386840127075
 20
318.26251875168003
 11
247.72735229921017
 21
314.98412884005512
  0
LINE
  8
_0-0_0
  6
CONTINUOUS
 62
    7
 10
247.72735229921017
 20
314.98412884005512
 11
252.28817711606584
 21
312.50802849898469
  0
LINE
  8
_0-0_0
  6
CONTINUOUS
 62
    7
 10
252.28817711606584
 20
312.50802849898469
 11
257.32858978443949
 21
310.94364648652265
  0
LINE
  8
_0-0_0
  6
CONTINUOUS
 62
    7
 10
257.32858978443949
 20
310.94364648652265
 11
262.74083723693286
 21
310.39817838690914
  0
LINE
  8
_0-0_0
  6
CONTINUOUS
 62
    7
 10
262.74083723693286
 20
310.39817838690914
 11
268.15196648192875
 21
310.94364648652265
  0
LINE
  8
_0-0_0
  6
CONTINUOUS
 62
    7
 10
268.15196648192875
 20
310.94364648652265
 11
273.19126418398611
 21
312.50802849898469
  0
LINE
  8
_0-0_0
  6
CONTINUOUS
 62
    7
 10
273.19126418398611
 20
312.50802849898469
 11
277.75153151768365
 21
314.98412884005512
  0
LINE
  8
_0-0_0
  6
CONTINUOUS
 62
    7
 10
277.75153151768365
 20
314.98412884005512
 11
281.72557289878119
 21
318.26251875168003
  0
LINE
  8
_0-0_0
  6
CONTINUOUS
 62
    7
 10
281.72557289878119
 20
318.26251875168003
 11
285.00396281040616
 21
322.23600264961954
  0
LINE
  8
_0-0_0
  6
CONTINUOUS
 62
    7
 10
285.00396281040616
 20
322.23600264961954
 11
287.47950566831844
 21
326.79738819081439
  0
LINE
  8
_0-0_0
  6
CONTINUOUS
 62
    7
 10
287.47950566831844
 20
326.79738819081439
 11
289.04388768078041
 21
331.8372401348488
  0
LINE
  8
_0-0_0
  6
CONTINUOUS
 62
    7
 10
289.04388768078041
 20
331.8372401348488
 11
289.58879829723583
 21
337.24837262102585
  0
LINE
  8
_0-0_0
  6
CONTINUOUS
 62
    7
 10
259.72764400834569
 20
331.85008169457302
 11
259.77119251830391
 21
331.99747764864134
  0
LINE
  8
_0-0_0
  6
CONTINUOUS
 62
    7
 10
259.77119251830391
 20
331.99747764864134
 11
259.78403407802818
 21
332.14542784468665
  0
LINE
  8
_0-0_0
  6
CONTINUOUS
 62
    7
 10
259.78403407802818
 20
332.14542784468665
 11
259.76784113699279
 21
332.29114810809943
  0
LINE
  8
_0-0_0
  6
CONTINUOUS
 62
    7
 10
259.76784113699279
 20
332.29114810809943
 11
259.72485335137378
 21
332.43016560888987
  0
LINE
  8
_0-0_0
  6
CONTINUOUS
 62
    7
 10
259.72485335137378
 20
332.43016560888987
 11
259.65617920512523
 21
332.5580172406116
  0
LINE
  8
_0-0_0
  6
CONTINUOUS
 62
    7
 10
259.65617920512523
 20
332.5580172406116
 11
259.56405835442308
 21
332.67135486313487
  0
LINE
  8
_0-0_0
  6
CONTINUOUS
 62
    7
 10
259.56405835442308
 20
332.67135486313487
 11
259.44904828242551
 21
332.76626637080886
  0
LINE
  8
_0-0_0
  6
CONTINUOUS
 62
    7
 10
259.44904828242551
 20
332.76626637080886
 11
259.31393640492325
 21
332.83884614034554
  0
LINE
  8
_0-0_0
  6
CONTINUOUS
 62
    7
 10
259.31393640492325
 20
332.83884614034554
 11
259.21455854962176
 21
332.87122878123523
  0
LINE
  8
_0-0_0
  6
CONTINUOUS
 62
    7
 10
259.21455854962176
 20
332.87122878123523
 11
259.11238679616724
 21
332.89021237924248
  0
LINE
  8
_0-0_0
  6
CONTINUOUS
 62
    7
 10
259.11238679616724
 20
332.89021237924248
 11
259.00965755955463
 21
332.89467872686987
  0
LINE
  8
_0-0_0
  6
CONTINUOUS
 62
    7
 10
259.00965755955463
 20
332.89467872686987
 11
258.90748904728127
 21
332.88574603161499
  0
LINE
  8
_0-0_0
  6
CONTINUOUS
 62
    7
 10
258.90748904728127
 20
332.88574603161499
 11
258.80755046764057
 21
332.86285356913839
  0
LINE
  8
_0-0_0
  6
CONTINUOUS
 62
    7
 10
258.80755046764057
 20
332.86285356913839
 11
258.71096326931092
 21
332.8271227881188
  0
LINE
  8
_0-0_0
  6
CONTINUOUS
 62
    7
 10
258.71096326931092
 20
332.8271227881188
 11
258.61996062610621
 21
332.77799296421676
  0
LINE
  8
_0-0_0
  6
CONTINUOUS
 62
    7
 10
258.61996062610621
 20
332.77799296421676
 11
258.53509678000341
 21
332.7160183394094
  0
LINE
  8
_0-0_0
  6
CONTINUOUS
 62
    7
 10
257.12983407383649
 20
334.65111692849365
 11
257.25210115043342
 21
334.74491346985144
  0
LINE
  8
_0-0_0
  6
CONTINUOUS
 62
    7
 10
257.25210115043342
 20
334.74491346985144
 11
257.34980655626043
 21
334.85713288487716
  0
LINE
  8
_0-0_0
  6
CONTINUOUS
 62
    7
 10
257.34980655626043
 20
334.85713288487716
 11
257.42238632579722
 21
334.98443027462196
  0
LINE
  8
_0-0_0
  6
CONTINUOUS
 62
    7
 10
257.42238632579722
 20
334.98443027462196
 11
257.46872549272734
 21
335.1217720847568
  0
LINE
  8
_0-0_0
  6
CONTINUOUS
 62
    7
 10
257.46872549272734
 20
335.1217720847568
 11
257.48882405705086
 21
335.26581665751399
  0
LINE
  8
_0-0_0
  6
CONTINUOUS
 62
    7
 10
257.48882405705086
 20
335.26581665751399
 11
257.48045208613524
 21
335.41209440408488
  0
LINE
  8
_0-0_0
  6
CONTINUOUS
 62
    7
 10
257.48045208613524
 20
335.41209440408488
 11
257.4430423732789
 21
335.55613573566097
  0
LINE
  8
_0-0_0
  6
CONTINUOUS
 62
    7
 10
257.4430423732789
 20
335.55613573566097
 11
257.37548967570888
 21
335.69459899447429
  0
LINE
  8
_0-0_0
  6
CONTINUOUS
 62
    7
 10
257.37548967570888
 20
335.69459899447429
 11
257.31407577524084
 21
335.7800203237353
  0
LINE
  8
_0-0_0
  6
CONTINUOUS
 62
    7
 10
257.31407577524084
 20
335.7800203237353
 11
257.24261097202032
 21
335.85539075024388
  0
LINE
  8
_0-0_0
  6
CONTINUOUS
 62
    7
 10
257.24261097202032
 20
335.85539075024388
 11
257.16277419788429
 21
335.91903782452573
  0
LINE
  8
_0-0_0
  6
CONTINUOUS
 62
    7
 10
257.16277419788429
 20
335.91903782452573
 11
257.07511969480959
 21
335.97151902973889
  0
LINE
  8
_0-0_0
  6
CONTINUOUS
 62
    7
 10
257.07511969480959
 20
335.97151902973889
 11
256.98132315345191
 21
336.01171615838604
  0
LINE
  8
_0-0_0
  6
CONTINUOUS
 62
    7
 10
256.98132315345191
 20
336.01171615838604
 11
256.88194205696925
 21
336.03907496849007
  0
LINE
  8
_0-0_0
  6
CONTINUOUS
 62
    7
 10
256.88194205696925
 20
336.03907496849007
 11
256.7792160615378
 21
336.0524740113724
  0
LINE
  8
_0-0_0
  6
CONTINUOUS
 62
    7
 10
256.7792160615378
 20
336.0524740113724
 11
256.67425365111143
 21
336.05191652821429
  0
LINE
  8
_0-0_0
  6
CONTINUOUS
 62
    7
 10
256.67425365111143
 20
338.44482871383741
 11
256.82778840228167
 21
338.44873433712564
  0
LINE
  8
_0-0_0
  6
CONTINUOUS
 62
    7
 10
256.82778840228167
 20
338.44873433712564
 11
256.97294794135513
 21
338.48223518551265
  0
LINE
  8
_0-0_0
  6
CONTINUOUS
 62
    7
 10
256.97294794135513
 20
338.48223518551265
 11
257.1063841282018
 21
338.54253087848338
  0
LINE
  8
_0-0_0
  6
CONTINUOUS
 62
    7
 10
257.1063841282018
 20
338.54253087848338
 11
257.22530306466871
 21
338.62627651708874
  0
LINE
  8
_0-0_0
  6
CONTINUOUS
 62
    7
 10
257.22530306466871
 20
338.62627651708874
 11
257.32579912746758
 21
338.73123892751511
  0
LINE
  8
_0-0_0
  6
CONTINUOUS
 62
    7
 10
257.32579912746758
 20
338.73123892751511
 11
257.40507841844556
 21
338.85462745279051
  0
LINE
  8
_0-0_0
  6
CONTINUOUS
 62
    7
 10
257.40507841844556
 20
338.85462745279051
 11
257.45979279747246
 21
338.99308747042284
  0
LINE
  8
_0-0_0
  6
CONTINUOUS
 62
    7
 10
257.45979279747246
 20
338.99308747042284
 11
257.48603340007901
 21
339.14438904777933
  0
LINE
  8
_0-0_0
  6
CONTINUOUS
 62
    7
 10
257.48603340007901
 20
339.14438904777933
 11
257.48715160757649
 21
339.24935145820575
  0
LINE
  8
_0-0_0
  6
CONTINUOUS
 62
    7
 10
257.48715160757649
 20
339.24935145820575
 11
257.47319184035484
 21
339.35208069481837
  0
LINE
  8
_0-0_0
  6
CONTINUOUS
 62
    7
 10
257.47319184035484
 20
339.35208069481837
 11
257.44583627143192
 21
339.45090106696176
  0
LINE
  8
_0-0_0
  6
CONTINUOUS
 62
    7
 10
257.44583627143192
 20
339.45090106696176
 11
257.40563590160366
 21
339.54469760831938
  0
LINE
  8
_0-0_0
  6
CONTINUOUS
 62
    7
 10
257.40563590160366
 20
339.54469760831938
 11
257.3531546963905
 21
339.6323521113942
  0
LINE
  8
_0-0_0
  6
CONTINUOUS
 62
    7
 10
257.3531546963905
 20
339.6323521113942
 11
257.28950762210866
 21
339.71274636868833
  0
LINE
  8
_0-0_0
  6
CONTINUOUS
 62
    7
 10
257.28950762210866
 20
339.71274636868833
 11
257.21469467875818
 21
339.78421117190879
  0
LINE
  8
_0-0_0
  6
CONTINUOUS
 62
    7
 10
257.21469467875818
 20
339.78421117190879
 11
257.12983407383649
 21
339.84562507237689
  0
LINE
  8
_0-0_0
  6
CONTINUOUS
 62
    7
 10
258.53509678000341
 20
341.78072366146125
 11
258.66183344540889
 21
341.69418412470282
  0
LINE
  8
_0-0_0
  6
CONTINUOUS
 62
    7
 10
258.66183344540889
 20
341.69418412470282
 11
258.79917525554379
 21
341.63556412238768
  0
LINE
  8
_0-0_0
  6
CONTINUOUS
 62
    7
 10
258.79917525554379
 20
341.63556412238768
 11
258.94321982830093
 21
341.60597213846995
  0
LINE
  8
_0-0_0
  6
CONTINUOUS
 62
    7
 10
258.94321982830093
 20
341.60597213846995
 11
259.08894009171371
 21
341.60373896465626
  0
LINE
  8
_0-0_0
  6
CONTINUOUS
 62
    7
 10
259.08894009171371
 20
341.60373896465626
 11
259.23242394013158
 21
341.6294220841047
  0
LINE
  8
_0-0_0
  6
CONTINUOUS
 62
    7
 10
259.23242394013158
 20
341.6294220841047
 11
259.36865078395016
 21
341.68301825563412
  0
LINE
  8
_0-0_0
  6
CONTINUOUS
 62
    7
 10
259.36865078395016
 20
341.68301825563412
 11
259.49371175870004
 21
341.76285827095131
  0
LINE
  8
_0-0_0
  6
CONTINUOUS
 62
    7
 10
259.49371175870004
 20
341.76285827095131
 11
259.60425872425134
 21
341.86949313085222
  0
LINE
  8
_0-0_0
  6
CONTINUOUS
 62
    7
 10
259.60425872425134
 20
341.86949313085222
 11
259.66678759103576
 21
341.95379949379679
  0
LINE
  8
_0-0_0
  6
CONTINUOUS
 62
    7
 10
259.66678759103576
 20
341.95379949379679
 11
259.7159206561189
 21
342.04480213700151
  0
LINE
  8
_0-0_0
  6
CONTINUOUS
 62
    7
 10
259.7159206561189
 20
342.04480213700151
 11
259.75220892029671
 21
342.14083185217294
  0
LINE
  8
_0-0_0
  6
CONTINUOUS
 62
    7
 10
259.75220892029671
 20
342.14083185217294
 11
259.7751013827733
 21
342.2407704318137
  0
LINE
  8
_0-0_0
  6
CONTINUOUS
 62
    7
 10
259.7751013827733
 20
342.2407704318137
 11
259.78403407802818
 21
342.34294218526827
  0
LINE
  8
_0-0_0
  6
CONTINUOUS
 62
    7
 10
259.78403407802818
 20
342.34294218526827
 11
259.77956773040074
 21
342.44511069754162
  0
LINE
  8
_0-0_0
  6
CONTINUOUS
 62
    7
 10
259.77956773040074
 20
342.44511069754162
 11
259.76058413239343
 21
342.54728245099608
  0
LINE
  8
_0-0_0
  6
CONTINUOUS
 62
    7
 10
259.76058413239343
 20
342.54728245099608
 11
259.72764400834569
 21
342.64666030629758
  0
LINE
  8
_0-0_0
  6
CONTINUOUS
 62
    7
 10
265.80818736138883
 20
352.93741046389755
 11
265.89639934762158
 21
353.57109054974399
  0
LINE
  8
_0-0_0
  6
CONTINUOUS
 62
    7
 10
265.89639934762158
 20
353.57109054974399
 11
265.85843539278824
 21
354.19081410954982
  0
LINE
  8
_0-0_0
  6
CONTINUOUS
 62
    7
 10
265.85843539278824
 20
354.19081410954982
 11
265.70322495096241
 21
354.78094568543793
  0
LINE
  8
_0-0_0
  6
CONTINUOUS
 62
    7
 10
265.70322495096241
 20
354.78094568543793
 11
265.43970395858025
 21
355.32697450939077
  0
LINE
  8
_0-0_0
  6
CONTINUOUS
 62
    7
 10
265.43970395858025
 20
355.32697450939077
 11
265.07680186971538
 21
355.81270115801055
  0
LINE
  8
_0-0_0
  6
CONTINUOUS
 62
    7
 10
265.07680186971538
 20
355.81270115801055
 11
264.62457282830144
 21
356.22305738012187
  0
LINE
  8
_0-0_0
  6
CONTINUOUS
 62
    7
 10
264.62457282830144
 20
356.22305738012187
 11
264.09194628841215
 21
356.54241095902842
  0
LINE
  8
_0-0_0
  6
CONTINUOUS
 62
    7
 10
264.09194628841215
 20
356.54241095902842
 11
263.48896991161865
 21
356.75624464435043
  0
LINE
  8
_0-0_0
  6
CONTINUOUS
 62
    7
 10
263.48896991161865
 20
356.75624464435043
 11
262.85473234261411
 21
356.8450141137414
  0
LINE
  8
_0-0_0
  6
CONTINUOUS
 62
    7
 10
262.85473234261411
 20
356.8450141137414
 11
262.23612699030571
 21
356.80649267574989
  0
LINE
  8
_0-0_0
  6
CONTINUOUS
 62
    7
 10
262.23612699030571
 20
356.80649267574989
 11
261.64543469007833
 21
356.6507247507659
  0
LINE
  8
_0-0_0
  6
CONTINUOUS
 62
    7
 10
261.64543469007833
 20
356.6507247507659
 11
261.09940910730666
 21
356.38664303404443
  0
LINE
  8
_0-0_0
  6
CONTINUOUS
 62
    7
 10
261.09940910730666
 20
356.38664303404443
 11
260.61367921750559
 21
356.02374094517961
  0
LINE
  8
_0-0_0
  6
CONTINUOUS
 62
    7
 10
260.61367921750559
 20
356.02374094517961
 11
260.20388047855249
 21
355.57151190376567
  0
LINE
  8
_0-0_0
  6
CONTINUOUS
 62
    7
 10
260.20388047855249
 20
355.57151190376567
 11
259.88396941648779
 21
355.03944284703448
  0
LINE
  8
_0-0_0
  6
CONTINUOUS
 62
    7
 10
259.88396941648779
 20
355.03944284703448
 11
259.67069645550509
 21
354.43646971142209
  0
LINE
  8
_0-0_0
  6
CONTINUOUS
 62
    7
 10
259.67069645550509
 20
354.43646971142209
 11
259.63161429317427
 21
354.25111304370159
  0
LINE
  8
_0-0_0
  6
CONTINUOUS
 62
    7
 10
259.63161429317427
 20
354.25111304370159
 11
259.60314051675391
 21
354.06407744414429
  0
LINE
  8
_0-0_0
  6
CONTINUOUS
 62
    7
 10
259.60314051675391
 20
354.06407744414429
 11
259.58639333374151
 21
353.87592687827066
  0
LINE
  8
_0-0_0
  6
CONTINUOUS
 62
    7
 10
259.58639333374151
 20
353.87592687827066
 11
259.58080877861664
 21
353.68721882923887
  0
LINE
  8
_0-0_0
  6
CONTINUOUS
 62
    7
 10
259.58080877861664
 20
353.68721882923887
 11
259.58639333374151
 21
353.49851078020725
  0
LINE
  8
_0-0_0
  6
CONTINUOUS
 62
    7
 10
259.58639333374151
 20
353.49851078020725
 11
259.60314051675391
 21
353.31036021433363
  0
LINE
  8
_0-0_0
  6
CONTINUOUS
 62
    7
 10
259.60314051675391
 20
353.31036021433363
 11
259.63161429317427
 21
353.12332785595748
  0
LINE
  8
_0-0_0
  6
CONTINUOUS
 62
    7
 10
259.63161429317427
 20
353.12332785595748
 11
259.67069645550509
 21
352.93741046389755
  0
LINE
  8
_0-0_0
  6
CONTINUOUS
 62
    7
 10
262.00163725750195
 20
343.38586028572843
 11
262.05300025521774
 21
343.24125822981313
  0
LINE
  8
_0-0_0
  6
CONTINUOUS
 62
    7
 10
262.05300025521774
 20
343.24125822981313
 11
262.13116457987934
 21
343.11340659809133
  0
LINE
  8
_0-0_0
  6
CONTINUOUS
 62
    7
 10
262.13116457987934
 20
343.11340659809133
 11
262.22942746886451
 21
343.00509604753489
  0
LINE
  8
_0-0_0
  6
CONTINUOUS
 62
    7
 10
262.22942746886451
 20
343.00509604753489
 11
262.34667071467584
 21
342.91855651077657
  0
LINE
  8
_0-0_0
  6
CONTINUOUS
 62
    7
 10
262.34667071467584
 20
342.91855651077657
 11
262.47731624455071
 21
342.85490943649467
  0
LINE
  8
_0-0_0
  6
CONTINUOUS
 62
    7
 10
262.47731624455071
 20
342.85490943649467
 11
262.61912440231299
 21
342.81750296481948
  0
LINE
  8
_0-0_0
  6
CONTINUOUS
 62
    7
 10
262.61912440231299
 20
342.81750296481948
 11
262.76763532269757
 21
342.8085702695646
  0
LINE
  8
_0-0_0
  6
CONTINUOUS
 62
    7
 10
262.76763532269757
 20
342.8085702695646
 11
262.91949762439339
 21
342.82978704138554
  0
LINE
  8
_0-0_0
  6
CONTINUOUS
 62
    7
 10
262.91949762439339
 20
342.82978704138554
 11
263.01999044601115
 21
342.86160895793591
  0
LINE
  8
_0-0_0
  6
CONTINUOUS
 62
    7
 10
263.01999044601115
 20
342.86160895793591
 11
263.11267202105256
 21
342.90627567539161
  0
LINE
  8
_0-0_0
  6
CONTINUOUS
 62
    7
 10
263.11267202105256
 20
342.90627567539161
 11
263.19865083347167
 21
342.96266250389294
  0
LINE
  8
_0-0_0
  6
CONTINUOUS
 62
    7
 10
263.19865083347167
 20
342.96266250389294
 11
263.27569695063585
 21
343.02966095948602
  0
LINE
  8
_0-0_0
  6
CONTINUOUS
 62
    7
 10
263.27569695063585
 20
343.02966095948602
 11
263.34269540622893
 21
343.10670707665008
  0
LINE
  8
_0-0_0
  6
CONTINUOUS
 62
    7
 10
263.34269540622893
 20
343.10670707665008
 11
263.39964295906952
 21
343.19268588906925
  0
LINE
  8
_0-0_0
  6
CONTINUOUS
 62
    7
 10
263.39964295906952
 20
343.19268588906925
 11
263.44430643534406
 21
343.28592494726882
  0
LINE
  8
_0-0_0
  6
CONTINUOUS
 62
    7
 10
263.44430643534406
 20
343.28592494726882
 11
263.47557086873621
 21
343.38586028572843
  0
LINE
  8
_0-0_0
  6
CONTINUOUS
 62
    7
 10
259.67069645550509
 20
321.55821657065678
 11
259.58192374493291
 21
320.92453648481035
  0
LINE
  8
_0-0_0
  6
CONTINUOUS
 62
    7
 10
259.58192374493291
 20
320.92453648481035
 11
259.61989094094747
 21
320.30481292500446
  0
LINE
  8
_0-0_0
  6
CONTINUOUS
 62
    7
 10
259.61989094094747
 20
320.30481292500446
 11
259.7756588659314
 21
319.71468134911635
  0
LINE
  8
_0-0_0
  6
CONTINUOUS
 62
    7
 10
259.7756588659314
 20
319.71468134911635
 11
260.03973734147178
 21
319.16921324950283
  0
LINE
  8
_0-0_0
  6
CONTINUOUS
 62
    7
 10
260.03973734147178
 20
319.16921324950283
 11
260.40263943033659
 21
318.68404084285999
  0
LINE
  8
_0-0_0
  6
CONTINUOUS
 62
    7
 10
260.40263943033659
 20
318.68404084285999
 11
260.85375350543427
 21
318.27368462074867
  0
LINE
  8
_0-0_0
  6
CONTINUOUS
 62
    7
 10
260.85375350543427
 20
318.27368462074867
 11
261.38638004532356
 21
317.95488852500029
  0
LINE
  8
_0-0_0
  6
CONTINUOUS
 62
    7
 10
261.38638004532356
 20
317.95488852500029
 11
261.98935318093589
 21
317.74161556401754
  0
LINE
  8
_0-0_0
  6
CONTINUOUS
 62
    7
 10
261.98935318093589
 20
317.74161556401754
 11
262.62247578362405
 21
317.65284609462657
  0
LINE
  8
_0-0_0
  6
CONTINUOUS
 62
    7
 10
262.62247578362405
 20
317.65284609462657
 11
263.24331430974621
 21
317.69081004945991
  0
LINE
  8
_0-0_0
  6
CONTINUOUS
 62
    7
 10
263.24331430974621
 20
317.69081004945991
 11
263.83400660997364
 21
317.84602049128569
  0
LINE
  8
_0-0_0
  6
CONTINUOUS
 62
    7
 10
263.83400660997364
 20
317.84602049128569
 11
264.38003219274532
 21
318.11009896682611
  0
LINE
  8
_0-0_0
  6
CONTINUOUS
 62
    7
 10
264.38003219274532
 20
318.11009896682611
 11
264.86464387504896
 21
318.47300105569093
  0
LINE
  8
_0-0_0
  6
CONTINUOUS
 62
    7
 10
264.86464387504896
 20
318.47300105569093
 11
265.27556082149943
 21
318.92523009710487
  0
LINE
  8
_0-0_0
  6
CONTINUOUS
 62
    7
 10
265.27556082149943
 20
318.92523009710487
 11
265.59491115922486
 21
319.45729915383606
  0
LINE
  8
_0-0_0
  6
CONTINUOUS
 62
    7
 10
265.59491115922486
 20
319.45729915383606
 11
265.80818736138883
 21
320.06027228944839
  0
LINE
  8
_0-0_0
  6
CONTINUOUS
 62
    7
 10
265.80818736138883
 20
320.06027228944839
 11
265.8472695237196
 21
320.24618968150821
  0
LINE
  8
_0-0_0
  6
CONTINUOUS
 62
    7
 10
265.8472695237196
 20
320.24618968150821
 11
265.87630078329801
 21
320.43322203988436
  0
LINE
  8
_0-0_0
  6
CONTINUOUS
 62
    7
 10
265.87630078329801
 20
320.43322203988436
 11
265.89304796631041
 21
320.62137260575798
  0
LINE
  8
_0-0_0
  6
CONTINUOUS
 62
    7
 10
265.89304796631041
 20
320.62137260575798
 11
265.89863252143539
 21
320.81008065478977
  0
LINE
  8
_0-0_0
  6
CONTINUOUS
 62
    7
 10
265.89863252143539
 20
320.81008065478977
 11
265.89304796631041
 21
320.99823122066334
  0
LINE
  8
_0-0_0
  6
CONTINUOUS
 62
    7
 10
265.89304796631041
 20
320.99823122066334
 11
265.87630078329801
 21
321.18638178653703
  0
LINE
  8
_0-0_0
  6
CONTINUOUS
 62
    7
 10
265.87630078329801
 20
321.18638178653703
 11
265.8472695237196
 21
321.37285666175495
  0
LINE
  8
_0-0_0
  6
CONTINUOUS
 62
    7
 10
265.8472695237196
 20
321.37285666175495
 11
265.80818736138883
 21
321.55821657065678
  0
LINE
  8
_0-0_0
  6
CONTINUOUS
 62
    7
 10
263.47557086873621
 20
331.11088171514211
 11
263.42420787102054
 21
331.25548377105741
  0
LINE
  8
_0-0_0
  6
CONTINUOUS
 62
    7
 10
263.42420787102054
 20
331.25548377105741
 11
263.34716175385637
 21
331.38333540277915
  0
LINE
  8
_0-0_0
  6
CONTINUOUS
 62
    7
 10
263.34716175385637
 20
331.38333540277915
 11
263.24889886487114
 21
331.49164919451675
  0
LINE
  8
_0-0_0
  6
CONTINUOUS
 62
    7
 10
263.24889886487114
 20
331.49164919451675
 11
263.13277058537614
 21
331.57874297325219
  0
LINE
  8
_0-0_0
  6
CONTINUOUS
 62
    7
 10
263.13277058537614
 20
331.57874297325219
 11
263.00212505550132
 21
331.64183256437587
  0
LINE
  8
_0-0_0
  6
CONTINUOUS
 62
    7
 10
263.00212505550132
 20
331.64183256437587
 11
262.86031689773904
 21
331.67923903605106
  0
LINE
  8
_0-0_0
  6
CONTINUOUS
 62
    7
 10
262.86031689773904
 20
331.67923903605106
 11
262.7118059773544
 21
331.68817173130594
  0
LINE
  8
_0-0_0
  6
CONTINUOUS
 62
    7
 10
262.7118059773544
 20
331.68817173130594
 11
262.55994367565859
 21
331.66695820066616
  0
LINE
  8
_0-0_0
  6
CONTINUOUS
 62
    7
 10
262.55994367565859
 20
331.66695820066616
 11
262.45945085404082
 21
331.63513304293474
  0
LINE
  8
_0-0_0
  6
CONTINUOUS
 62
    7
 10
262.45945085404082
 20
331.63513304293474
 11
262.36676927899936
 21
331.59046956666009
  0
LINE
  8
_0-0_0
  6
CONTINUOUS
 62
    7
 10
262.36676927899936
 20
331.59046956666009
 11
262.28079046658024
 21
331.5340794969776
  0
LINE
  8
_0-0_0
  6
CONTINUOUS
 62
    7
 10
262.28079046658024
 20
331.5340794969776
 11
262.20374434941607
 21
331.46708428256579
  0
LINE
  8
_0-0_0
  6
CONTINUOUS
 62
    7
 10
262.20374434941607
 20
331.46708428256579
 11
262.13563092750678
 21
331.39003492422046
  0
LINE
  8
_0-0_0
  6
CONTINUOUS
 62
    7
 10
262.13563092750678
 20
331.39003492422046
 11
262.07868337466618
 21
331.30405611180134
  0
LINE
  8
_0-0_0
  6
CONTINUOUS
 62
    7
 10
262.07868337466618
 20
331.30405611180134
 11
262.03290169089416
 21
331.21082029478282
  0
LINE
  8
_0-0_0
  6
CONTINUOUS
 62
    7
 10
262.03290169089416
 20
331.21082029478282
 11
262.00163725750195
 21
331.11088171514211
  0
LINE
  8
_0-0_0
  6
CONTINUOUS
 62
    7
 10
266.9437870368904
 20
332.7160183394094
 11
266.81649288832682
 21
332.80255787616773
  0
LINE
  8
_0-0_0
  6
CONTINUOUS
 62
    7
 10
266.81649288832682
 20
332.80255787616773
 11
266.68026604450819
 21
332.86118111966402
  0
LINE
  8
_0-0_0
  6
CONTINUOUS
 62
    7
 10
266.68026604450819
 20
332.86118111966402
 11
266.53733643806731
 21
332.89076986240059
  0
LINE
  8
_0-0_0
  6
CONTINUOUS
 62
    7
 10
266.53733643806731
 20
332.89076986240059
 11
266.39106193267753
 21
332.89300303621428
  0
LINE
  8
_0-0_0
  6
CONTINUOUS
 62
    7
 10
266.39106193267753
 20
332.89300303621428
 11
266.24701735992039
 21
332.86731991676584
  0
LINE
  8
_0-0_0
  6
CONTINUOUS
 62
    7
 10
266.24701735992039
 20
332.86731991676584
 11
266.11079051610182
 21
332.81372374523636
  0
LINE
  8
_0-0_0
  6
CONTINUOUS
 62
    7
 10
266.11079051610182
 20
332.81372374523636
 11
265.98572954135193
 21
332.73388697110033
  0
LINE
  8
_0-0_0
  6
CONTINUOUS
 62
    7
 10
265.98572954135193
 20
332.73388697110033
 11
265.87406760948431
 21
332.62724887001843
  0
LINE
  8
_0-0_0
  6
CONTINUOUS
 62
    7
 10
265.87406760948431
 20
332.62724887001843
 11
265.81153550151879
 21
332.54294250707369
  0
LINE
  8
_0-0_0
  6
CONTINUOUS
 62
    7
 10
265.81153550151879
 20
332.54294250707369
 11
265.76240567761681
 21
332.45193986386903
  0
LINE
  8
_0-0_0
  6
CONTINUOUS
 62
    7
 10
265.76240567761681
 20
332.45193986386903
 11
265.72667489659716
 21
332.35591014869755
  0
LINE
  8
_0-0_0
  6
CONTINUOUS
 62
    7
 10
265.72667489659716
 20
332.35591014869755
 11
265.70433991727867
 21
332.25597156905678
  0
LINE
  8
_0-0_0
  6
CONTINUOUS
 62
    7
 10
265.70433991727867
 20
332.25597156905678
 11
265.69540722202379
 21
332.15380305678349
  0
LINE
  8
_0-0_0
  6
CONTINUOUS
 62
    7
 10
265.69540722202379
 20
332.15380305678349
 11
265.69987356965129
 21
332.05163130332903
  0
LINE
  8
_0-0_0
  6
CONTINUOUS
 62
    7
 10
265.69987356965129
 20
332.05163130332903
 11
265.71885716765848
 21
331.94946279105557
  0
LINE
  8
_0-0_0
  6
CONTINUOUS
 62
    7
 10
265.71885716765848
 20
331.94946279105557
 11
265.75123980854812
 21
331.85008169457302
  0
LINE
  8
_0-0_0
  6
CONTINUOUS
 62
    7
 10
268.80407268262428
 20
336.05191652821429
 11
268.64998044829588
 21
336.0480076637449
  0
LINE
  8
_0-0_0
  6
CONTINUOUS
 62
    7
 10
268.64998044829588
 20
336.0480076637449
 11
268.50481766804131
 21
336.014510056539
  0
LINE
  8
_0-0_0
  6
CONTINUOUS
 62
    7
 10
268.50481766804131
 20
336.014510056539
 11
268.37194220553386
 21
335.95476860554538
  0
LINE
  8
_0-0_0
  6
CONTINUOUS
 62
    7
 10
268.37194220553386
 20
335.95476860554538
 11
268.25246254472773
 21
335.87102296694002
  0
LINE
  8
_0-0_0
  6
CONTINUOUS
 62
    7
 10
268.25246254472773
 20
335.87102296694002
 11
268.15196648192875
 21
335.76606055651365
  0
LINE
  8
_0-0_0
  6
CONTINUOUS
 62
    7
 10
268.15196648192875
 20
335.76606055651365
 11
268.07268719095083
 21
335.64267527241924
  0
LINE
  8
_0-0_0
  6
CONTINUOUS
 62
    7
 10
268.07268719095083
 20
335.64267527241924
 11
268.01909101942141
 21
335.50365777162887
  0
LINE
  8
_0-0_0
  6
CONTINUOUS
 62
    7
 10
268.01909101942141
 20
335.50365777162887
 11
267.99228969247548
 21
335.35235295309116
  0
LINE
  8
_0-0_0
  6
CONTINUOUS
 62
    7
 10
267.99228969247548
 20
335.35235295309116
 11
267.99228969247548
 21
335.24739378384601
  0
LINE
  8
_0-0_0
  6
CONTINUOUS
 62
    7
 10
267.99228969247548
 20
335.24739378384601
 11
268.00569197653903
 21
335.14466454723333
  0
LINE
  8
_0-0_0
  6
CONTINUOUS
 62
    7
 10
268.00569197653903
 20
335.14466454723333
 11
268.03249006230374
 21
335.04584417509005
  0
LINE
  8
_0-0_0
  6
CONTINUOUS
 62
    7
 10
268.03249006230374
 20
335.04584417509005
 11
268.07268719095083
 21
334.95204763373226
  0
LINE
  8
_0-0_0
  6
CONTINUOUS
 62
    7
 10
268.07268719095083
 20
334.95204763373226
 11
268.12516839616404
 21
334.86439313065762
  0
LINE
  8
_0-0_0
  6
CONTINUOUS
 62
    7
 10
268.12516839616404
 20
334.86439313065762
 11
268.18881547044589
 21
334.78399563218221
  0
LINE
  8
_0-0_0
  6
CONTINUOUS
 62
    7
 10
268.18881547044589
 20
334.78399563218221
 11
268.26362841379637
 21
334.71253407014296
  0
LINE
  8
_0-0_0
  6
CONTINUOUS
 62
    7
 10
268.26362841379637
 20
334.71253407014296
 11
268.34849225989916
 21
334.65111692849365
  0
LINE
  8
_0-0_0
  6
CONTINUOUS
 62
    7
 10
268.34849225989916
 20
339.84562507237689
 11
268.22677942527923
 21
339.7518285310191
  0
LINE
  8
_0-0_0
  6
CONTINUOUS
 62
    7
 10
268.22677942527923
 20
339.7518285310191
 11
268.12963474379148
 21
339.63960911599349
  0
LINE
  8
_0-0_0
  6
CONTINUOUS
 62
    7
 10
268.12963474379148
 20
339.63960911599349
 11
268.05705497425481
 21
339.5123149674298
  0
LINE
  8
_0-0_0
  6
CONTINUOUS
 62
    7
 10
268.05705497425481
 20
339.5123149674298
 11
268.01015832416647
 21
339.37496991611374
  0
LINE
  8
_0-0_0
  6
CONTINUOUS
 62
    7
 10
268.01015832416647
 20
339.37496991611374
 11
267.99005651866179
 21
339.2309253433566
  0
LINE
  8
_0-0_0
  6
CONTINUOUS
 62
    7
 10
267.99005651866179
 20
339.2309253433566
 11
267.99898921391673
 21
339.08465083796688
  0
LINE
  8
_0-0_0
  6
CONTINUOUS
 62
    7
 10
267.99898921391673
 20
339.08465083796688
 11
268.03583820243381
 21
338.94060626520968
  0
LINE
  8
_0-0_0
  6
CONTINUOUS
 62
    7
 10
268.03583820243381
 20
338.94060626520968
 11
268.10283665802677
 21
338.80214624757741
  0
LINE
  8
_0-0_0
  6
CONTINUOUS
 62
    7
 10
268.10283665802677
 20
338.80214624757741
 11
268.16425055849481
 21
338.71672491831646
  0
LINE
  8
_0-0_0
  6
CONTINUOUS
 62
    7
 10
268.16425055849481
 20
338.71672491831646
 11
268.23571212053417
 21
338.64191197496592
  0
LINE
  8
_0-0_0
  6
CONTINUOUS
 62
    7
 10
268.23571212053417
 20
338.64191197496592
 11
268.31610961900958
 21
338.57770417634487
  0
LINE
  8
_0-0_0
  6
CONTINUOUS
 62
    7
 10
268.31610961900958
 20
338.57770417634487
 11
268.40320663892612
 21
338.5252229711316
  0
LINE
  8
_0-0_0
  6
CONTINUOUS
 62
    7
 10
268.40320663892612
 20
338.5252229711316
 11
268.49811814660006
 21
338.48502584248456
  0
LINE
  8
_0-0_0
  6
CONTINUOUS
 62
    7
 10
268.49811814660006
 20
338.48502584248456
 11
268.5963810355853
 21
338.45767027356169
  0
LINE
  8
_0-0_0
  6
CONTINUOUS
 62
    7
 10
268.5963810355853
 20
338.45767027356169
 11
268.69911027219791
 21
338.44371050633998
  0
LINE
  8
_0-0_0
  6
CONTINUOUS
 62
    7
 10
268.69911027219791
 20
338.44371050633998
 11
268.80407268262428
 21
338.44482871383741
  0
LINE
  8
_0-0_0
  6
CONTINUOUS
 62
    7
 10
265.75123980854812
 20
342.64666030629758
 11
265.70657309109242
 21
342.49926759341037
  0
LINE
  8
_0-0_0
  6
CONTINUOUS
 62
    7
 10
265.70657309109242
 20
342.49926759341037
 11
265.69317404821004
 21
342.35075667302578
  0
LINE
  8
_0-0_0
  6
CONTINUOUS
 62
    7
 10
265.69317404821004
 20
342.35075667302578
 11
265.7099244724036
 21
342.20559713395221
  0
LINE
  8
_0-0_0
  6
CONTINUOUS
 62
    7
 10
265.7099244724036
 20
342.20559713395221
 11
265.75347298236187
 21
342.06657639198067
  0
LINE
  8
_0-0_0
  6
CONTINUOUS
 62
    7
 10
265.75347298236187
 20
342.06657639198067
 11
265.82270137058742
 21
341.93816727710077
  0
LINE
  8
_0-0_0
  6
CONTINUOUS
 62
    7
 10
265.82270137058742
 20
341.93816727710077
 11
265.91426473813141
 21
341.82482965457763
  0
LINE
  8
_0-0_0
  6
CONTINUOUS
 62
    7
 10
265.91426473813141
 20
341.82482965457763
 11
266.02927805131014
 21
341.72991814690357
  0
LINE
  8
_0-0_0
  6
CONTINUOUS
 62
    7
 10
266.02927805131014
 20
341.72991814690357
 11
266.16438668763129
 21
341.65789586052495
  0
LINE
  8
_0-0_0
  6
CONTINUOUS
 62
    7
 10
266.16438668763129
 20
341.65789586052495
 11
266.2637677841139
 21
341.62439825331904
  0
LINE
  8
_0-0_0
  6
CONTINUOUS
 62
    7
 10
266.2637677841139
 20
341.62439825331904
 11
266.36537881322909
 21
341.60597213846995
  0
LINE
  8
_0-0_0
  6
CONTINUOUS
 62
    7
 10
266.36537881322909
 20
341.60597213846995
 11
266.46922301615803
 21
341.60150579084251
  0
LINE
  8
_0-0_0
  6
CONTINUOUS
 62
    7
 10
266.46922301615803
 20
341.60150579084251
 11
266.57083728645438
 21
341.61043848609745
  0
LINE
  8
_0-0_0
  6
CONTINUOUS
 62
    7
 10
266.57083728645438
 20
341.61043848609745
 11
266.6713333492533
 21
341.63333094857398
  0
LINE
  8
_0-0_0
  6
CONTINUOUS
 62
    7
 10
266.6713333492533
 20
341.63333094857398
 11
266.76735982324357
 21
341.66961921275185
  0
LINE
  8
_0-0_0
  6
CONTINUOUS
 62
    7
 10
266.76735982324357
 20
341.66961921275185
 11
266.85892319078755
 21
341.71875227783494
  0
LINE
  8
_0-0_0
  6
CONTINUOUS
 62
    7
 10
266.85892319078755
 20
341.71875227783494
 11
266.9437870368904
 21
341.78072366146125
  0
LINE
  8
_0-0_0
  6
CONTINUOUS
 62
    7
 10
251.03589167791108
 20
326.35911567544099
 11
250.59147712425457
 21
325.8985081807491
  0
LINE
  8
_0-0_0
  6
CONTINUOUS
 62
    7
 10
250.59147712425457
 20
325.8985081807491
 11
250.25760629496818
 21
325.3748143361147
  0
LINE
  8
_0-0_0
  6
CONTINUOUS
 62
    7
 10
250.25760629496818
 20
325.3748143361147
 11
250.03651884622798
 21
324.80589953204765
  0
LINE
  8
_0-0_0
  6
CONTINUOUS
 62
    7
 10
250.03651884622798
 20
324.80589953204765
 11
249.92932326198786
 21
324.20906519353719
  0
LINE
  8
_0-0_0
  6
CONTINUOUS
 62
    7
 10
249.92932326198786
 20
324.20906519353719
 11
249.93713774974538
 21
323.60274391779478
  0
LINE
  8
_0-0_0
  6
CONTINUOUS
 62
    7
 10
249.93713774974538
 20
323.60274391779478
 11
250.0616412413371
 21
323.00535209612633
  0
LINE
  8
_0-0_0
  6
CONTINUOUS
 62
    7
 10
250.0616412413371
 20
323.00535209612633
 11
250.30450618623766
 21
322.43364339390621
  0
LINE
  8
_0-0_0
  6
CONTINUOUS
 62
    7
 10
250.30450618623766
 20
322.43364339390621
 11
250.66684755076321
 21
321.90660140914179
  0
LINE
  8
_0-0_0
  6
CONTINUOUS
 62
    7
 10
250.66684755076321
 20
321.90660140914179
 11
251.12801252861317
 21
321.4627443386434
  0
LINE
  8
_0-0_0
  6
CONTINUOUS
 62
    7
 10
251.12801252861317
 20
321.4627443386434
 11
251.65170637324761
 21
321.12943423369632
  0
LINE
  8
_0-0_0
  6
CONTINUOUS
 62
    7
 10
251.65170637324761
 20
321.12943423369632
 11
252.22062117731468
 21
320.90834354377489
  0
LINE
  8
_0-0_0
  6
CONTINUOUS
 62
    7
 10
252.22062117731468
 20
320.90834354377489
 11
252.81689479148585
 21
320.80114795953477
  0
LINE
  8
_0-0_0
  6
CONTINUOUS
 62
    7
 10
252.81689479148585
 20
320.80114795953477
 11
253.42266182525117
 21
320.80896568847351
  0
LINE
  8
_0-0_0
  6
CONTINUOUS
 62
    7
 10
253.42266182525117
 20
320.80896568847351
 11
254.0206111300779
 21
320.93402666322339
  0
LINE
  8
_0-0_0
  6
CONTINUOUS
 62
    7
 10
254.0206111300779
 20
320.93402666322339
 11
254.59175910795875
 21
321.17689160812381
  0
LINE
  8
_0-0_0
  6
CONTINUOUS
 62
    7
 10
254.59175910795875
 20
321.17689160812381
 11
255.11880433390431
 21
321.53923297264942
  0
LINE
  8
_0-0_0
  6
CONTINUOUS
 62
    7
 10
255.11880433390431
 20
321.53923297264942
 11
255.26005500850846
 21
321.66596963805495
  0
LINE
  8
_0-0_0
  6
CONTINUOUS
 62
    7
 10
255.26005500850846
 20
321.66596963805495
 11
255.39293371219702
 21
321.80052079121788
  0
LINE
  8
_0-0_0
  6
CONTINUOUS
 62
    7
 10
255.39293371219702
 20
321.80052079121788
 11
255.5174372037888
 21
321.94288967331948
  0
LINE
  8
_0-0_0
  6
CONTINUOUS
 62
    7
 10
255.5174372037888
 20
321.94288967331948
 11
255.63300475894448
 21
322.09251880120155
  0
LINE
  8
_0-0_0
  6
CONTINUOUS
 62
    7
 10
255.63300475894448
 20
322.09251880120155
 11
255.73964286002646
 21
322.2488442093437
  0
LINE
  8
_0-0_0
  6
CONTINUOUS
 62
    7
 10
255.73964286002646
 20
322.2488442093437
 11
255.83623005835605
 21
322.41075417261072
  0
LINE
  8
_0-0_0
  6
CONTINUOUS
 62
    7
 10
255.83623005835605
 20
322.41075417261072
 11
255.92276959511446
 21
322.57880293297961
  0
LINE
  8
_0-0_0
  6
CONTINUOUS
 62
    7
 10
255.92276959511446
 20
322.57880293297961
 11
255.99981571227863
 21
322.75187876531527
  0
LINE
  8
_0-0_0
  6
CONTINUOUS
 62
    7
 10
246.86867265897314
 20
335.31885534588525
 11
246.2389014375961
 21
335.20719341401769
  0
LINE
  8
_0-0_0
  6
CONTINUOUS
 62
    7
 10
246.2389014375961
 20
335.20719341401769
 11
245.66160818025105
 21
334.97940320265519
  0
LINE
  8
_0-0_0
  6
CONTINUOUS
 62
    7
 10
245.66160818025105
 20
334.97940320265519
 11
245.14852272152717
 21
334.6488837546799
  0
LINE
  8
_0-0_0
  6
CONTINUOUS
 62
    7
 10
245.14852272152717
 20
334.6488837546799
 11
244.71136841365112
 21
334.22903735415565
  0
LINE
  8
_0-0_0
  6
CONTINUOUS
 62
    7
 10
244.71136841365112
 20
334.22903735415565
 11
244.36130788451055
 21
333.7338172859416
  0
LINE
  8
_0-0_0
  6
CONTINUOUS
 62
    7
 10
244.36130788451055
 20
333.7338172859416
 11
244.11118593501072
 21
333.17718331725939
  0
LINE
  8
_0-0_0
  6
CONTINUOUS
 62
    7
 10
244.11118593501072
 20
333.17718331725939
 11
243.97160770988097
 21
332.57253449099153
  0
LINE
  8
_0-0_0
  6
CONTINUOUS
 62
    7
 10
243.97160770988097
 20
332.57253449099153
 11
243.95541801002673
 21
331.93271236686206
  0
LINE
  8
_0-0_0
  6
CONTINUOUS
 62
    7
 10
243.95541801002673
 20
331.93271236686206
 11
244.06651921755497
 21
331.30238042114581
  0
LINE
  8
_0-0_0
  6
CONTINUOUS
 62
    7
 10
244.06651921755497
 20
331.30238042114581
 11
244.29430942891759
 21
330.72509040498187
  0
LINE
  8
_0-0_0
  6
CONTINUOUS
 62
    7
 10
244.29430942891759
 20
330.72509040498187
 11
244.62482887689276
 21
330.21144746309983
  0
LINE
  8
_0-0_0
  6
CONTINUOUS
 62
    7
 10
244.62482887689276
 20
330.21144746309983
 11
245.04411779425894
 21
329.7742899140427
  0
LINE
  8
_0-0_0
  6
CONTINUOUS
 62
    7
 10
245.04411779425894
 20
329.7742899140427
 11
245.53933786247299
 21
329.42479010924137
  0
LINE
  8
_0-0_0
  6
CONTINUOUS
 62
    7
 10
245.53933786247299
 20
329.42479010924137
 11
246.09597183115517
 21
329.17410743540211
  0
LINE
  8
_0-0_0
  6
CONTINUOUS
 62
    7
 10
246.09597183115517
 20
329.17410743540211
 11
246.70118138176235
 21
329.03508993461173
  0
LINE
  8
_0-0_0
  6
CONTINUOUS
 62
    7
 10
246.70118138176235
 20
329.03508993461173
 11
247.34100350589182
 21
329.01833951041817
  0
LINE
  8
_0-0_0
  6
CONTINUOUS
 62
    7
 10
247.34100350589182
 20
329.01833951041817
 11
247.52971155492355
 21
329.0384380747418
  0
LINE
  8
_0-0_0
  6
CONTINUOUS
 62
    7
 10
247.52971155492355
 20
329.0384380747418
 11
247.71618643014153
 21
329.06914502497591
  0
LINE
  8
_0-0_0
  6
CONTINUOUS
 62
    7
 10
247.71618643014153
 20
329.06914502497591
 11
247.89987064838772
 21
329.11157856861786
  0
LINE
  8
_0-0_0
  6
CONTINUOUS
 62
    7
 10
247.89987064838772
 20
329.11157856861786
 11
248.08131845163896
 21
329.16405977383096
  0
LINE
  8
_0-0_0
  6
CONTINUOUS
 62
    7
 10
248.08131845163896
 20
329.16405977383096
 11
248.25942135594138
 21
329.2277068481128
  0
LINE
  8
_0-0_0
  6
CONTINUOUS
 62
    7
 10
248.25942135594138
 20
329.2277068481128
 11
248.43305467143514
 21
329.30195906712402
  0
LINE
  8
_0-0_0
  6
CONTINUOUS
 62
    7
 10
248.43305467143514
 20
329.30195906712402
 11
248.60222163930149
 21
329.38682291322675
  0
LINE
  8
_0-0_0
  6
CONTINUOUS
 62
    7
 10
248.60222163930149
 20
329.38682291322675
 11
248.7663647763822
 21
329.48173766208197
  0
LINE
  8
_0-0_0
  6
CONTINUOUS
 62
    7
 10
248.7663647763822
 20
345.01500757996973
 11
248.19130793403207
 21
345.29471827220618
  0
LINE
  8
_0-0_0
  6
CONTINUOUS
 62
    7
 10
248.19130793403207
 20
345.29471827220618
 11
247.59000724789419
 21
345.44992871403201
  0
LINE
  8
_0-0_0
  6
CONTINUOUS
 62
    7
 10
247.59000724789419
 20
345.44992871403201
 11
246.9803345908407
 21
345.48454452873534
  0
LINE
  8
_0-0_0
  6
CONTINUOUS
 62
    7
 10
246.9803345908407
 20
345.48454452873534
 11
246.38015211220022
 21
345.40247458078557
  0
LINE
  8
_0-0_0
  6
CONTINUOUS
 62
    7
 10
246.38015211220022
 20
345.40247458078557
 11
245.80621023616641
 21
345.2076244934708
  0
LINE
  8
_0-0_0
  6
CONTINUOUS
 62
    7
 10
245.80621023616641
 20
345.2076244934708
 11
245.27581687009078
 21
344.90390313126034
  0
LINE
  8
_0-0_0
  6
CONTINUOUS
 62
    7
 10
245.27581687009078
 20
344.90390313126034
 11
244.80795561198076
 21
344.49633756612087
  0
LINE
  8
_0-0_0
  6
CONTINUOUS
 62
    7
 10
244.80795561198076
 20
344.49633756612087
 11
244.41825543735121
 21
343.98827593818265
  0
LINE
  8
_0-0_0
  6
CONTINUOUS
 62
    7
 10
244.41825543735121
 20
343.98827593818265
 11
244.13798402077546
 21
343.41266161267436
  0
LINE
  8
_0-0_0
  6
CONTINUOUS
 62
    7
 10
244.13798402077546
 20
343.41266161267436
 11
243.9827735789496
 21
342.81192165087577
  0
LINE
  8
_0-0_0
  6
CONTINUOUS
 62
    7
 10
243.9827735789496
 20
342.81192165087577
 11
243.94871848858554
 21
342.20280647698041
  0
LINE
  8
_0-0_0
  6
CONTINUOUS
 62
    7
 10
243.94871848858554
 20
342.20280647698041
 11
244.03078843653535
 21
341.60262399833988
  0
LINE
  8
_0-0_0
  6
CONTINUOUS
 62
    7
 10
244.03078843653535
 20
341.60262399833988
 11
244.22563852385011
 21
341.02868212230601
  0
LINE
  8
_0-0_0
  6
CONTINUOUS
 62
    7
 10
244.22563852385011
 20
341.02868212230601
 11
244.52879916172128
 21
340.49884623938863
  0
LINE
  8
_0-0_0
  6
CONTINUOUS
 62
    7
 10
244.52879916172128
 20
340.49884623938863
 11
244.93692221001882
 21
340.03042425693934
  0
LINE
  8
_0-0_0
  6
CONTINUOUS
 62
    7
 10
244.93692221001882
 20
340.03042425693934
 11
245.44442635479899
 21
339.64128480664897
  0
LINE
  8
_0-0_0
  6
CONTINUOUS
 62
    7
 10
245.44442635479899
 20
339.64128480664897
 11
245.60856949187973
 21
339.54637005779387
  0
LINE
  8
_0-0_0
  6
CONTINUOUS
 62
    7
 10
245.60856949187973
 20
339.54637005779387
 11
245.77773645974605
 21
339.46206693603034
  0
LINE
  8
_0-0_0
  6
CONTINUOUS
 62
    7
 10
245.77773645974605
 20
339.46206693603034
 11
245.95136977523987
 21
339.38781147583796
  0
LINE
  8
_0-0_0
  6
CONTINUOUS
 62
    7
 10
245.95136977523987
 20
339.38781147583796
 11
246.12947267954223
 21
339.32416440155617
  0
LINE
  8
_0-0_0
  6
CONTINUOUS
 62
    7
 10
246.12947267954223
 20
339.32416440155617
 11
246.3103629996354
 21
339.27168319634302
  0
LINE
  8
_0-0_0
  6
CONTINUOUS
 62
    7
 10
246.3103629996354
 20
339.27168319634302
 11
246.49404721788153
 21
339.22925289388223
  0
LINE
  8
_0-0_0
  6
CONTINUOUS
 62
    7
 10
246.49404721788153
 20
339.22925289388223
 11
246.68052209309957
 21
339.19798521930886
  0
LINE
  8
_0-0_0
  6
CONTINUOUS
 62
    7
 10
246.68052209309957
 20
339.19798521930886
 11
246.86867265897314
 21
339.17788665498529
  0
LINE
  8
_0-0_0
  6
CONTINUOUS
 62
    7
 10
255.99981571227863
 20
351.74542071871338
 11
255.69944573137934
 21
352.3098724163342
  0
LINE
  8
_0-0_0
  6
CONTINUOUS
 62
    7
 10
255.69944573137934
 20
352.3098724163342
 11
255.30416100162489
 21
352.78889954351291
  0
LINE
  8
_0-0_0
  6
CONTINUOUS
 62
    7
 10
255.30416100162489
 20
352.78889954351291
 11
254.83127591272924
 21
353.17525157801248
  0
LINE
  8
_0-0_0
  6
CONTINUOUS
 62
    7
 10
254.83127591272924
 20
353.17525157801248
 11
254.2969736821843
 21
353.46166179169018
  0
LINE
  8
_0-0_0
  6
CONTINUOUS
 62
    7
 10
254.2969736821843
 20
353.46166179169018
 11
253.71800797536491
 21
353.64143714546697
  0
LINE
  8
_0-0_0
  6
CONTINUOUS
 62
    7
 10
253.71800797536491
 20
353.64143714546697
 11
253.11056525094395
 21
353.70731739356251
  0
LINE
  8
_0-0_0
  6
CONTINUOUS
 62
    7
 10
253.11056525094395
 20
353.70731739356251
 11
252.49195989863551
 21
353.65316373887487
  0
LINE
  8
_0-0_0
  6
CONTINUOUS
 62
    7
 10
252.49195989863551
 20
353.65316373887487
 11
251.87837837711271
 21
353.47115521128433
  0
LINE
  8
_0-0_0
  6
CONTINUOUS
 62
    7
 10
251.87837837711271
 20
353.47115521128433
 11
251.31336919633378
 21
353.17022450604571
  0
LINE
  8
_0-0_0
  6
CONTINUOUS
 62
    7
 10
251.31336919633378
 20
353.17022450604571
 11
250.83489955231323
 21
352.77494301747237
  0
LINE
  8
_0-0_0
  6
CONTINUOUS
 62
    7
 10
250.83489955231323
 20
352.77494301747237
 11
250.44910824215296
 21
352.30149720423753
  0
LINE
  8
_0-0_0
  6
CONTINUOUS
 62
    7
 10
250.44910824215296
 20
352.30149720423753
 11
250.16325227045232
 21
351.7677524568507
  0
LINE
  8
_0-0_0
  6
CONTINUOUS
 62
    7
 10
250.16325227045232
 20
351.7677524568507
 11
249.98403764101482
 21
351.18878675003123
  0
LINE
  8
_0-0_0
  6
CONTINUOUS
 62
    7
 10
249.98403764101482
 20
351.18878675003123
 11
249.91815739291923
 21
350.58190474994962
  0
LINE
  8
_0-0_0
  6
CONTINUOUS
 62
    7
 10
249.91815739291923
 20
350.58190474994962
 11
249.97287177194619
 21
349.96385688079931
  0
LINE
  8
_0-0_0
  6
CONTINUOUS
 62
    7
 10
249.97287177194619
 20
349.96385688079931
 11
250.15488029953673
 21
349.35027535927657
  0
LINE
  8
_0-0_0
  6
CONTINUOUS
 62
    7
 10
250.15488029953673
 20
349.35027535927657
 11
250.23136893354277
 21
349.17719952694091
  0
LINE
  8
_0-0_0
  6
CONTINUOUS
 62
    7
 10
250.23136893354277
 20
349.17719952694091
 11
250.31846271227818
 21
349.00915076657196
  0
LINE
  8
_0-0_0
  6
CONTINUOUS
 62
    7
 10
250.31846271227818
 20
349.00915076657196
 11
250.41561063494703
 21
348.84668007896562
  0
LINE
  8
_0-0_0
  6
CONTINUOUS
 62
    7
 10
250.41561063494703
 20
348.84668007896562
 11
250.52168801168972
 21
348.69091215398169
  0
LINE
  8
_0-0_0
  6
CONTINUOUS
 62
    7
 10
250.52168801168972
 20
348.69091215398169
 11
250.63725880802659
 21
348.54184375043894
  0
LINE
  8
_0-0_0
  6
CONTINUOUS
 62
    7
 10
250.63725880802659
 20
348.54184375043894
 11
250.76176229961834
 21
348.39947486833739
  0
LINE
  8
_0-0_0
  6
CONTINUOUS
 62
    7
 10
250.76176229961834
 20
348.39947486833739
 11
250.89463776212574
 21
348.26436623201624
  0
LINE
  8
_0-0_0
  6
CONTINUOUS
 62
    7
 10
250.89463776212574
 20
348.26436623201624
 11
251.03589167791108
 21
348.13818704976893
  0
LINE
  8
_0-0_0
  6
CONTINUOUS
 62
    7
 10
269.48074379527077
 20
322.75187876531527
 11
269.78111377617006
 21
322.18687282571744
  0
LINE
  8
_0-0_0
  6
CONTINUOUS
 62
    7
 10
269.78111377617006
 20
322.18687282571744
 11
270.17528029842708
 21
321.70784245735763
  0
LINE
  8
_0-0_0
  6
CONTINUOUS
 62
    7
 10
270.17528029842708
 20
321.70784245735763
 11
270.64872611166203
 21
321.32205114719739
  0
LINE
  8
_0-0_0
  6
CONTINUOUS
 62
    7
 10
270.64872611166203
 20
321.32205114719739
 11
271.18246761786764
 21
321.03563769233858
  0
LINE
  8
_0-0_0
  6
CONTINUOUS
 62
    7
 10
271.18246761786764
 20
321.03563769233858
 11
271.76087584152896
 21
320.85586233856179
  0
LINE
  8
_0-0_0
  6
CONTINUOUS
 62
    7
 10
271.76087584152896
 20
320.85586233856179
 11
272.36831532476873
 21
320.7899820904662
  0
LINE
  8
_0-0_0
  6
CONTINUOUS
 62
    7
 10
272.36831532476873
 20
320.7899820904662
 11
272.9869239182583
 21
320.8446964694931
  0
LINE
  8
_0-0_0
  6
CONTINUOUS
 62
    7
 10
272.9869239182583
 20
320.8446964694931
 11
273.59994471544184
 21
321.02670499708364
  0
LINE
  8
_0-0_0
  6
CONTINUOUS
 62
    7
 10
273.59994471544184
 20
321.02670499708364
 11
274.16495389622077
 21
321.32707497798299
  0
LINE
  8
_0-0_0
  6
CONTINUOUS
 62
    7
 10
274.16495389622077
 20
321.32707497798299
 11
274.64398426458058
 21
321.72235970773738
  0
LINE
  8
_0-0_0
  6
CONTINUOUS
 62
    7
 10
274.64398426458058
 20
321.72235970773738
 11
275.02921809158272
 21
322.19524479663312
  0
LINE
  8
_0-0_0
  6
CONTINUOUS
 62
    7
 10
275.02921809158272
 20
322.19524479663312
 11
275.31618902959963
 21
322.72898954401978
  0
LINE
  8
_0-0_0
  6
CONTINUOUS
 62
    7
 10
275.31618902959963
 20
322.72898954401978
 11
275.49596438337642
 21
323.30795525083926
  0
LINE
  8
_0-0_0
  6
CONTINUOUS
 62
    7
 10
275.49596438337642
 20
323.30795525083926
 11
275.56184463147201
 21
323.91483725092093
  0
LINE
  8
_0-0_0
  6
CONTINUOUS
 62
    7
 10
275.56184463147201
 20
323.91483725092093
 11
275.50713025244511
 21
324.53288512007117
  0
LINE
  8
_0-0_0
  6
CONTINUOUS
 62
    7
 10
275.50713025244511
 20
324.53288512007117
 11
275.32623669117083
 21
325.14646664159403
  0
LINE
  8
_0-0_0
  6
CONTINUOUS
 62
    7
 10
275.32623669117083
 20
325.14646664159403
 11
275.24919057400666
 21
325.31954247392963
  0
LINE
  8
_0-0_0
  6
CONTINUOUS
 62
    7
 10
275.24919057400666
 20
325.31954247392963
 11
275.1609785877738
 21
325.48759447547968
  0
LINE
  8
_0-0_0
  6
CONTINUOUS
 62
    7
 10
275.1609785877738
 20
325.48759447547968
 11
275.06383066510489
 21
325.65006192190486
  0
LINE
  8
_0-0_0
  6
CONTINUOUS
 62
    7
 10
275.06383066510489
 20
325.65006192190486
 11
274.95775328836226
 21
325.80582984688886
  0
LINE
  8
_0-0_0
  6
CONTINUOUS
 62
    7
 10
274.95775328836226
 20
325.80582984688886
 11
274.84162500886725
 21
325.95489825043165
  0
LINE
  8
_0-0_0
  6
CONTINUOUS
 62
    7
 10
274.84162500886725
 20
325.95489825043165
 11
274.71767900043363
 21
326.09726713253326
  0
LINE
  8
_0-0_0
  6
CONTINUOUS
 62
    7
 10
274.71767900043363
 20
326.09726713253326
 11
274.58591850424256
 21
326.23237901003552
  0
LINE
  8
_0-0_0
  6
CONTINUOUS
 62
    7
 10
274.58591850424256
 20
326.23237901003552
 11
274.44522531279648
 21
326.35911567544099
  0
LINE
  8
_0-0_0
  6
CONTINUOUS
 62
    7
 10
276.71307652366977
 20
329.48173766208197
 11
277.28925157351739
 21
329.20146624550625
  0
LINE
  8
_0-0_0
  6
CONTINUOUS
 62
    7
 10
277.28925157351739
 20
329.20146624550625
 11
277.88999153531591
 21
329.04625580368037
  0
LINE
  8
_0-0_0
  6
CONTINUOUS
 62
    7
 10
277.88999153531591
 20
329.04625580368037
 11
278.49966419236944
 21
329.01163998897709
  0
LINE
  8
_0-0_0
  6
CONTINUOUS
 62
    7
 10
278.49966419236944
 20
329.01163998897709
 11
279.0992891878517
 21
329.09370993692687
  0
LINE
  8
_0-0_0
  6
CONTINUOUS
 62
    7
 10
279.0992891878517
 20
329.09370993692687
 11
279.67323106388557
 21
329.28856002424158
  0
LINE
  8
_0-0_0
  6
CONTINUOUS
 62
    7
 10
279.67323106388557
 20
329.28856002424158
 11
280.20362442996117
 21
329.59228138645204
  0
LINE
  8
_0-0_0
  6
CONTINUOUS
 62
    7
 10
280.20362442996117
 20
329.59228138645204
 11
280.67148568807119
 21
329.99984695159151
  0
LINE
  8
_0-0_0
  6
CONTINUOUS
 62
    7
 10
280.67148568807119
 20
329.99984695159151
 11
281.06118586270077
 21
330.50790857952973
  0
LINE
  8
_0-0_0
  6
CONTINUOUS
 62
    7
 10
281.06118586270077
 20
330.50790857952973
 11
281.3414572792766
 21
331.08352290503802
  0
LINE
  8
_0-0_0
  6
CONTINUOUS
 62
    7
 10
281.3414572792766
 20
331.08352290503802
 11
281.49666772110231
 21
331.68482359117593
  0
LINE
  8
_0-0_0
  6
CONTINUOUS
 62
    7
 10
281.49666772110231
 20
331.68482359117593
 11
281.53016532830827
 21
332.29393876507135
  0
LINE
  8
_0-0_0
  6
CONTINUOUS
 62
    7
 10
281.53016532830827
 20
332.29393876507135
 11
281.44753465601917
 21
332.89467872686987
  0
LINE
  8
_0-0_0
  6
CONTINUOUS
 62
    7
 10
281.44753465601917
 20
332.89467872686987
 11
281.25324529304368
 21
333.46862060290374
  0
LINE
  8
_0-0_0
  6
CONTINUOUS
 62
    7
 10
281.25324529304368
 20
333.46862060290374
 11
280.94952393083327
 21
333.99845648582118
  0
LINE
  8
_0-0_0
  6
CONTINUOUS
 62
    7
 10
280.94952393083327
 20
333.99845648582118
 11
280.54195836569386
 21
334.46631774393131
  0
LINE
  8
_0-0_0
  6
CONTINUOUS
 62
    7
 10
280.54195836569386
 20
334.46631774393131
 11
280.03501494525295
 21
334.85546043540262
  0
LINE
  8
_0-0_0
  6
CONTINUOUS
 62
    7
 10
280.03501494525295
 20
334.85546043540262
 11
279.87087180817224
 21
334.95037194307668
  0
LINE
  8
_0-0_0
  6
CONTINUOUS
 62
    7
 10
279.87087180817224
 20
334.95037194307668
 11
279.70114735714776
 21
335.03467830602136
  0
LINE
  8
_0-0_0
  6
CONTINUOUS
 62
    7
 10
279.70114735714776
 20
335.03467830602136
 11
279.52807152481216
 21
335.10893052503252
  0
LINE
  8
_0-0_0
  6
CONTINUOUS
 62
    7
 10
279.52807152481216
 20
335.10893052503252
 11
279.34941113735158
 21
335.17257759931437
  0
LINE
  8
_0-0_0
  6
CONTINUOUS
 62
    7
 10
279.34941113735158
 20
335.17257759931437
 11
279.16851757607731
 21
335.22561952886679
  0
LINE
  8
_0-0_0
  6
CONTINUOUS
 62
    7
 10
279.16851757607731
 20
335.22561952886679
 11
278.98539408217044
 21
335.26804983132769
  0
LINE
  8
_0-0_0
  6
CONTINUOUS
 62
    7
 10
278.98539408217044
 20
335.26804983132769
 11
278.79891920695241
 21
335.2993142647199
  0
LINE
  8
_0-0_0
  6
CONTINUOUS
 62
    7
 10
278.79891920695241
 20
335.2993142647199
 11
278.61021115792067
 21
335.31885534588525
  0
LINE
  8
_0-0_0
  6
CONTINUOUS
 62
    7
 10
278.61021115792067
 20
339.17788665498529
 11
279.23998237929777
 21
339.28954858685279
  0
LINE
  8
_0-0_0
  6
CONTINUOUS
 62
    7
 10
279.23998237929777
 20
339.28954858685279
 11
279.81727563664276
 21
339.51733879821535
  0
LINE
  8
_0-0_0
  6
CONTINUOUS
 62
    7
 10
279.81727563664276
 20
339.51733879821535
 11
280.3309185785248
 21
339.84785824619058
  0
LINE
  8
_0-0_0
  6
CONTINUOUS
 62
    7
 10
280.3309185785248
 20
339.84785824619058
 11
280.7686336107401
 21
340.26770788789611
  0
LINE
  8
_0-0_0
  6
CONTINUOUS
 62
    7
 10
280.7686336107401
 20
340.26770788789611
 11
281.11813341554142
 21
340.762924714929
  0
LINE
  8
_0-0_0
  6
CONTINUOUS
 62
    7
 10
281.11813341554142
 20
340.762924714929
 11
281.36825536504131
 21
341.31956192479225
  0
LINE
  8
_0-0_0
  6
CONTINUOUS
 62
    7
 10
281.36825536504131
 20
341.31956192479225
 11
281.507833590171
 21
341.92420750987901
  0
LINE
  8
_0-0_0
  6
CONTINUOUS
 62
    7
 10
281.507833590171
 20
341.92420750987901
 11
281.52346580686708
 21
342.56402963400848
  0
LINE
  8
_0-0_0
  6
CONTINUOUS
 62
    7
 10
281.52346580686708
 20
342.56402963400848
 11
281.41180387499958
 21
343.19380409656662
  0
LINE
  8
_0-0_0
  6
CONTINUOUS
 62
    7
 10
281.41180387499958
 20
343.19380409656662
 11
281.18401366363696
 21
343.77165159588873
  0
LINE
  8
_0-0_0
  6
CONTINUOUS
 62
    7
 10
281.18401366363696
 20
343.77165159588873
 11
280.85349421566178
 21
344.28474029579377
  0
LINE
  8
_0-0_0
  6
CONTINUOUS
 62
    7
 10
280.85349421566178
 20
344.28474029579377
 11
280.43364781513742
 21
344.72245208682784
  0
LINE
  8
_0-0_0
  6
CONTINUOUS
 62
    7
 10
280.43364781513742
 20
344.72245208682784
 11
279.93787026376526
 21
345.07195513281033
  0
LINE
  8
_0-0_0
  6
CONTINUOUS
 62
    7
 10
279.93787026376526
 20
345.07195513281033
 11
279.38179377824122
 21
345.32207708231022
  0
LINE
  8
_0-0_0
  6
CONTINUOUS
 62
    7
 10
279.38179377824122
 20
345.32207708231022
 11
278.77658746881514
 21
345.46165530743991
  0
LINE
  8
_0-0_0
  6
CONTINUOUS
 62
    7
 10
278.77658746881514
 20
345.46165530743991
 11
278.13788031100205
 21
345.47840249045231
  0
LINE
  8
_0-0_0
  6
CONTINUOUS
 62
    7
 10
278.13788031100205
 20
345.47840249045231
 11
277.94917226197026
 21
345.45830392612874
  0
LINE
  8
_0-0_0
  6
CONTINUOUS
 62
    7
 10
277.94917226197026
 20
345.45830392612874
 11
277.76269738675228
 21
345.4275969758948
  0
LINE
  8
_0-0_0
  6
CONTINUOUS
 62
    7
 10
277.76269738675228
 20
345.4275969758948
 11
277.57845568534799
 21
345.3851666734339
  0
LINE
  8
_0-0_0
  6
CONTINUOUS
 62
    7
 10
277.57845568534799
 20
345.3851666734339
 11
277.39756212407372
 21
345.33268546822069
  0
LINE
  8
_0-0_0
  6
CONTINUOUS
 62
    7
 10
277.39756212407372
 20
345.33268546822069
 11
277.22001994411062
 21
345.26903839393884
  0
LINE
  8
_0-0_0
  6
CONTINUOUS
 62
    7
 10
277.22001994411062
 20
345.26903839393884
 11
277.0458291454587
 21
345.19478293374658
  0
LINE
  8
_0-0_0
  6
CONTINUOUS
 62
    7
 10
277.0458291454587
 20
345.19478293374658
 11
276.87721966075048
 21
345.10991908764379
  0
LINE
  8
_0-0_0
  6
CONTINUOUS
 62
    7
 10
276.87721966075048
 20
345.10991908764379
 11
276.71307652366977
 21
345.01500757996973
  0
LINE
  8
_0-0_0
  6
CONTINUOUS
 62
    7
 10
274.44522531279648
 20
348.13818704976893
 11
274.88963986645297
 21
348.59879130327954
  0
LINE
  8
_0-0_0
  6
CONTINUOUS
 62
    7
 10
274.88963986645297
 20
348.59879130327954
 11
275.22239248824189
 21
349.12248514791395
  0
LINE
  8
_0-0_0
  6
CONTINUOUS
 62
    7
 10
275.22239248824189
 20
349.12248514791395
 11
275.44348317816332
 21
349.69084571000411
  0
LINE
  8
_0-0_0
  6
CONTINUOUS
 62
    7
 10
275.44348317816332
 20
349.69084571000411
 11
275.54956055490595
 21
350.28767680733336
  0
LINE
  8
_0-0_0
  6
CONTINUOUS
 62
    7
 10
275.54956055490595
 20
350.28767680733336
 11
275.54174282596733
 21
350.89400132425686
  0
LINE
  8
_0-0_0
  6
CONTINUOUS
 62
    7
 10
275.54174282596733
 20
350.89400132425686
 11
275.41668185121739
 21
351.49138990474432
  0
LINE
  8
_0-0_0
  6
CONTINUOUS
 62
    7
 10
275.41668185121739
 20
351.49138990474432
 11
275.1732594231587
 21
352.06254112380623
  0
LINE
  8
_0-0_0
  6
CONTINUOUS
 62
    7
 10
275.1732594231587
 20
352.06254112380623
 11
274.81147554179131
 21
352.58958310857065
  0
LINE
  8
_0-0_0
  6
CONTINUOUS
 62
    7
 10
274.81147554179131
 20
352.58958310857065
 11
274.35142877143875
 21
353.03399766222708
  0
LINE
  8
_0-0_0
  6
CONTINUOUS
 62
    7
 10
274.35142877143875
 20
353.03399766222708
 11
273.82661996048807
 21
353.36730776717428
  0
LINE
  8
_0-0_0
  6
CONTINUOUS
 62
    7
 10
273.82661996048807
 20
353.36730776717428
 11
273.25825939839797
 21
353.58839845709565
  0
LINE
  8
_0-0_0
  6
CONTINUOUS
 62
    7
 10
273.25825939839797
 20
353.58839845709565
 11
272.66198578422683
 21
353.69559404133571
  0
LINE
  8
_0-0_0
  6
CONTINUOUS
 62
    7
 10
272.66198578422683
 20
353.69559404133571
 11
272.05566450848448
 21
353.68777955357825
  0
LINE
  8
_0-0_0
  6
CONTINUOUS
 62
    7
 10
272.05566450848448
 20
353.68777955357825
 11
271.45827268681592
 21
353.56327606198653
  0
LINE
  8
_0-0_0
  6
CONTINUOUS
 62
    7
 10
271.45827268681592
 20
353.56327606198653
 11
270.8865639845958
 21
353.32041111708588
  0
LINE
  8
_0-0_0
  6
CONTINUOUS
 62
    7
 10
270.8865639845958
 20
353.32041111708588
 11
270.35952199983137
 21
352.95750902822112
  0
LINE
  8
_0-0_0
  6
CONTINUOUS
 62
    7
 10
270.35952199983137
 20
352.95750902822112
 11
270.21771060088793
 21
352.83077236281565
  0
LINE
  8
_0-0_0
  6
CONTINUOUS
 62
    7
 10
270.21771060088793
 20
352.83077236281565
 11
270.08595010469685
 21
352.69622120965266
  0
LINE
  8
_0-0_0
  6
CONTINUOUS
 62
    7
 10
270.08595010469685
 20
352.69622120965266
 11
269.96088912994685
 21
352.553852327551
  0
LINE
  8
_0-0_0
  6
CONTINUOUS
 62
    7
 10
269.96088912994685
 20
352.553852327551
 11
269.84587581676817
 21
352.4042264408501
  0
LINE
  8
_0-0_0
  6
CONTINUOUS
 62
    7
 10
269.84587581676817
 20
352.4042264408501
 11
269.73979844002548
 21
352.24845851586616
  0
LINE
  8
_0-0_0
  6
CONTINUOUS
 62
    7
 10
269.73979844002548
 20
352.24845851586616
 11
269.64265375853779
 21
352.08654855259908
  0
LINE
  8
_0-0_0
  6
CONTINUOUS
 62
    7
 10
269.64265375853779
 20
352.08654855259908
 11
269.55667170493751
 21
351.91849655104915
  0
LINE
  8
_0-0_0
  6
CONTINUOUS
 62
    7
 10
269.55667170493751
 20
351.91849655104915
 11
269.48074379527077
 21
351.74542071871338
  0
LINE
  8
_0-0_0
  6
CONTINUOUS
 62
    7
 10
261.3740959687575
 20
318.21729455106617
 11
261.71578128580131
 21
318.19608102042628
  0
LINE
  8
_0-0_0
  6
CONTINUOUS
 62
    7
 10
261.71578128580131
 20
318.19608102042628
 11
262.05635163652892
 21
318.18100628688842
  0
LINE
  8
_0-0_0
  6
CONTINUOUS
 62
    7
 10
262.05635163652892
 20
318.18100628688842
 11
262.39803695357273
 21
318.17151286729415
  0
LINE
  8
_0-0_0
  6
CONTINUOUS
 62
    7
 10
262.39803695357273
 20
318.17151286729415
 11
262.73971902943543
 21
318.16872221032236
  0
LINE
  8
_0-0_0
  6
CONTINUOUS
 62
    7
 10
262.73971902943543
 20
318.16872221032236
 11
263.08140434647925
 21
318.17151286729415
  0
LINE
  8
_0-0_0
  6
CONTINUOUS
 62
    7
 10
263.08140434647925
 20
318.17151286729415
 11
263.42308966352311
 21
318.18100628688842
  0
LINE
  8
_0-0_0
  6
CONTINUOUS
 62
    7
 10
263.42308966352311
 20
318.18100628688842
 11
263.76366001425066
 21
318.19608102042628
  0
LINE
  8
_0-0_0
  6
CONTINUOUS
 62
    7
 10
263.76366001425066
 20
318.19608102042628
 11
264.10534533129447
 21
318.21729455106617
  0
LINE
  8
_0-0_0
  6
CONTINUOUS
 62
    7
 10
272.81942939986641
 20
321.04959745956029
 11
273.10863351169706
 21
321.23272095346715
  0
LINE
  8
_0-0_0
  6
CONTINUOUS
 62
    7
 10
273.10863351169706
 20
321.23272095346715
 11
273.39337127590028
 21
321.42142900249888
  0
LINE
  8
_0-0_0
  6
CONTINUOUS
 62
    7
 10
273.39337127590028
 20
321.42142900249888
 11
273.67587586628974
 21
321.61516412349732
  0
LINE
  8
_0-0_0
  6
CONTINUOUS
 62
    7
 10
273.67587586628974
 20
321.61516412349732
 11
273.95391410905171
 21
321.8133623509421
  0
LINE
  8
_0-0_0
  6
CONTINUOUS
 62
    7
 10
273.95391410905171
 20
321.8133623509421
 11
274.22860097050255
 21
322.01658765035364
  0
LINE
  8
_0-0_0
  6
CONTINUOUS
 62
    7
 10
274.22860097050255
 20
322.01658765035364
 11
274.49993969182344
 21
322.22483678055085
  0
LINE
  8
_0-0_0
  6
CONTINUOUS
 62
    7
 10
274.49993969182344
 20
322.22483678055085
 11
274.76681206551677
 21
322.43810974153359
  0
LINE
  8
_0-0_0
  6
CONTINUOUS
 62
    7
 10
274.76681206551677
 20
322.43810974153359
 11
275.03033305789899
 21
322.65585229132495
  0
LINE
  8
_0-0_0
  6
CONTINUOUS
 62
    7
 10
250.44799003465556
 20
322.65585229132495
 11
250.71151426821891
 21
322.43810974153359
  0
LINE
  8
_0-0_0
  6
CONTINUOUS
 62
    7
 10
250.71151426821891
 20
322.43810974153359
 11
250.9783834007311
 21
322.22483678055085
  0
LINE
  8
_0-0_0
  6
CONTINUOUS
 62
    7
 10
250.9783834007311
 20
322.22483678055085
 11
251.24972212205196
 21
322.01658765035364
  0
LINE
  8
_0-0_0
  6
CONTINUOUS
 62
    7
 10
251.24972212205196
 20
322.01658765035364
 11
251.52441222468397
 21
321.8133623509421
  0
LINE
  8
_0-0_0
  6
CONTINUOUS
 62
    7
 10
251.52441222468397
 20
321.8133623509421
 11
251.8024472262648
 21
321.61516412349732
  0
LINE
  8
_0-0_0
  6
CONTINUOUS
 62
    7
 10
251.8024472262648
 20
321.61516412349732
 11
252.08495181665427
 21
321.42142900249888
  0
LINE
  8
_0-0_0
  6
CONTINUOUS
 62
    7
 10
252.08495181665427
 20
321.42142900249888
 11
252.37025030519678
 21
321.23272095346715
  0
LINE
  8
_0-0_0
  6
CONTINUOUS
 62
    7
 10
252.37025030519678
 20
321.23272095346715
 11
252.66001190018557
 21
321.04959745956029
  0
LINE
  8
_0-0_0
  6
CONTINUOUS
 62
    7
 10
244.21838151925081
 20
332.66688851550737
 11
244.30324212417247
 21
332.33581158437403
  0
LINE
  8
_0-0_0
  6
CONTINUOUS
 62
    7
 10
244.30324212417247
 20
332.33581158437403
 11
244.39480549171645
 21
332.00641034389622
  0
LINE
  8
_0-0_0
  6
CONTINUOUS
 62
    7
 10
244.39480549171645
 20
332.00641034389622
 11
244.4919501732042
 21
331.67868155289295
  0
LINE
  8
_0-0_0
  6
CONTINUOUS
 62
    7
 10
244.4919501732042
 20
331.67868155289295
 11
244.59467940981682
 21
331.35262845254522
  0
LINE
  8
_0-0_0
  6
CONTINUOUS
 62
    7
 10
244.59467940981682
 20
331.35262845254522
 11
244.70299320155436
 21
331.02881176719234
  0
LINE
  8
_0-0_0
  6
CONTINUOUS
 62
    7
 10
244.70299320155436
 20
331.02881176719234
 11
244.8174457903938
 21
330.70666429013278
  0
LINE
  8
_0-0_0
  6
CONTINUOUS
 62
    7
 10
244.8174457903938
 20
330.70666429013278
 11
244.93692221001882
 21
330.38675646924918
  0
LINE
  8
_0-0_0
  6
CONTINUOUS
 62
    7
 10
244.93692221001882
 20
330.38675646924918
 11
245.06254390910806
 21
330.0685178566589
  0
LINE
  8
_0-0_0
  6
CONTINUOUS
 62
    7
 10
245.06254390910806
 20
344.4282241442117
 11
244.93692221001882
 21
344.10998877280258
  0
LINE
  8
_0-0_0
  6
CONTINUOUS
 62
    7
 10
244.93692221001882
 20
344.10998877280258
 11
244.8174457903938
 21
343.79007771073782
  0
LINE
  8
_0-0_0
  6
CONTINUOUS
 62
    7
 10
244.8174457903938
 20
343.79007771073782
 11
244.70299320155436
 21
343.46793347485942
  0
LINE
  8
_0-0_0
  6
CONTINUOUS
 62
    7
 10
244.70299320155436
 20
343.46793347485942
 11
244.59467940981682
 21
343.14411354832544
  0
LINE
  8
_0-0_0
  6
CONTINUOUS
 62
    7
 10
244.59467940981682
 20
343.14411354832544
 11
244.4919501732042
 21
342.81806044797759
  0
LINE
  8
_0-0_0
  6
CONTINUOUS
 62
    7
 10
244.4919501732042
 20
342.81806044797759
 11
244.39480549171645
 21
342.49033489815542
  0
LINE
  8
_0-0_0
  6
CONTINUOUS
 62
    7
 10
244.39480549171645
 20
342.49033489815542
 11
244.30324212417247
 21
342.16093041649651
  0
LINE
  8
_0-0_0
  6
CONTINUOUS
 62
    7
 10
244.30324212417247
 20
342.16093041649651
 11
244.21838151925081
 21
341.82985348536317
  0
LINE
  8
_0-0_0
  6
CONTINUOUS
 62
    7
 10
252.66001190018557
 20
353.44714778249147
 11
252.37025030519678
 21
353.2640210474035
  0
LINE
  8
_0-0_0
  6
CONTINUOUS
 62
    7
 10
252.37025030519678
 20
353.2640210474035
 11
252.08495181665427
 21
353.07587048152982
  0
LINE
  8
_0-0_0
  6
CONTINUOUS
 62
    7
 10
252.08495181665427
 20
353.07587048152982
 11
251.8024472262648
 21
352.88269608487064
  0
LINE
  8
_0-0_0
  6
CONTINUOUS
 62
    7
 10
251.8024472262648
 20
352.88269608487064
 11
251.52441222468397
 21
352.68393713308649
  0
LINE
  8
_0-0_0
  6
CONTINUOUS
 62
    7
 10
251.52441222468397
 20
352.68393713308649
 11
251.24972212205196
 21
352.48071507485611
  0
LINE
  8
_0-0_0
  6
CONTINUOUS
 62
    7
 10
251.24972212205196
 20
352.48071507485611
 11
250.9783834007311
 21
352.27246594465902
  0
LINE
  8
_0-0_0
  6
CONTINUOUS
 62
    7
 10
250.9783834007311
 20
352.27246594465902
 11
250.71151426821891
 21
352.05918974249511
  0
LINE
  8
_0-0_0
  6
CONTINUOUS
 62
    7
 10
250.71151426821891
 20
352.05918974249511
 11
250.44799003465556
 21
351.84089295072681
  0
LINE
  8
_0-0_0
  6
CONTINUOUS
 62
    7
 10
280.41689739094392
 20
330.0685178566589
 11
280.54195836569386
 21
330.38675646924918
  0
LINE
  8
_0-0_0
  6
CONTINUOUS
 62
    7
 10
280.54195836569386
 20
330.38675646924918
 11
280.66255299281636
 21
330.70666429013278
  0
LINE
  8
_0-0_0
  6
CONTINUOUS
 62
    7
 10
280.66255299281636
 20
330.70666429013278
 11
280.77644809849761
 21
331.02881176719234
  0
LINE
  8
_0-0_0
  6
CONTINUOUS
 62
    7
 10
280.77644809849761
 20
331.02881176719234
 11
280.88476189023515
 21
331.35262845254522
  0
LINE
  8
_0-0_0
  6
CONTINUOUS
 62
    7
 10
280.88476189023515
 20
331.35262845254522
 11
280.98749112684777
 21
331.67868155289295
  0
LINE
  8
_0-0_0
  6
CONTINUOUS
 62
    7
 10
280.98749112684777
 20
331.67868155289295
 11
281.08463580833552
 21
332.00641034389622
  0
LINE
  8
_0-0_0
  6
CONTINUOUS
 62
    7
 10
281.08463580833552
 20
332.00641034389622
 11
281.1761991758795
 21
332.33581158437403
  0
LINE
  8
_0-0_0
  6
CONTINUOUS
 62
    7
 10
281.1761991758795
 20
332.33581158437403
 11
281.26105978080119
 21
332.66688851550737
  0
LINE
  8
_0-0_0
  6
CONTINUOUS
 62
    7
 10
281.26105978080119
 20
341.82985348536317
 11
281.1761991758795
 21
342.16093041649651
  0
LINE
  8
_0-0_0
  6
CONTINUOUS
 62
    7
 10
281.1761991758795
 20
342.16093041649651
 11
281.08463580833552
 21
342.49033489815542
  0
LINE
  8
_0-0_0
  6
CONTINUOUS
 62
    7
 10
281.08463580833552
 20
342.49033489815542
 11
280.98749112684777
 21
342.81806044797759
  0
LINE
  8
_0-0_0
  6
CONTINUOUS
 62
    7
 10
280.98749112684777
 20
342.81806044797759
 11
280.88476189023515
 21
343.14411354832544
  0
LINE
  8
_0-0_0
  6
CONTINUOUS
 62
    7
 10
280.88476189023515
 20
343.14411354832544
 11
280.77644809849761
 21
343.46793347485942
  0
LINE
  8
_0-0_0
  6
CONTINUOUS
 62
    7
 10
280.77644809849761
 20
343.46793347485942
 11
280.66255299281636
 21
343.79007771073782
  0
LINE
  8
_0-0_0
  6
CONTINUOUS
 62
    7
 10
280.66255299281636
 20
343.79007771073782
 11
280.54195836569386
 21
344.10998877280258
  0
LINE
  8
_0-0_0
  6
CONTINUOUS
 62
    7
 10
280.54195836569386
 20
344.10998877280258
 11
280.41689739094392
 21
344.4282241442117
  0
LINE
  8
_0-0_0
  6
CONTINUOUS
 62
    7
 10
275.03033305789899
 20
351.84089295072681
 11
274.76681206551677
 21
352.05918974249511
  0
LINE
  8
_0-0_0
  6
CONTINUOUS
 62
    7
 10
274.76681206551677
 20
352.05918974249511
 11
274.49993969182344
 21
352.27246594465902
  0
LINE
  8
_0-0_0
  6
CONTINUOUS
 62
    7
 10
274.49993969182344
 20
352.27246594465902
 11
274.22860097050255
 21
352.48071507485611
  0
LINE
  8
_0-0_0
  6
CONTINUOUS
 62
    7
 10
274.22860097050255
 20
352.48071507485611
 11
273.95391410905171
 21
352.68393713308649
  0
LINE
  8
_0-0_0
  6
CONTINUOUS
 62
    7
 10
273.95391410905171
 20
352.68393713308649
 11
273.67587586628974
 21
352.88269608487064
  0
LINE
  8
_0-0_0
  6
CONTINUOUS
 62
    7
 10
273.67587586628974
 20
352.88269608487064
 11
273.39337127590028
 21
353.07587048152982
  0
LINE
  8
_0-0_0
  6
CONTINUOUS
 62
    7
 10
273.39337127590028
 20
353.07587048152982
 11
273.10863351169706
 21
353.2640210474035
  0
LINE
  8
_0-0_0
  6
CONTINUOUS
 62
    7
 10
273.10863351169706
 20
353.2640210474035
 11
272.81942939986641
 21
353.44714778249147
  0
LINE
  8
_0-0_0
  6
CONTINUOUS
 62
    7
 10
264.10534533129447
 20
356.2788899666462
 11
263.76366001425066
 21
356.30010673846721
  0
LINE
  8
_0-0_0
  6
CONTINUOUS
 62
    7
 10
263.76366001425066
 20
356.30010673846721
 11
263.42308966352311
 21
356.31573895516328
  0
LINE
  8
_0-0_0
  6
CONTINUOUS
 62
    7
 10
263.42308966352311
 20
356.31573895516328
 11
263.08140434647925
 21
356.32522913357633
  0
LINE
  8
_0-0_0
  6
CONTINUOUS
 62
    7
 10
263.08140434647925
 20
356.32522913357633
 11
262.73971902943543
 21
356.3280197905483
  0
LINE
  8
_0-0_0
  6
CONTINUOUS
 62
    7
 10
262.73971902943543
 20
356.3280197905483
 11
262.39803695357273
 21
356.32522913357633
  0
LINE
  8
_0-0_0
  6
CONTINUOUS
 62
    7
 10
262.39803695357273
 20
356.32522913357633
 11
262.05635163652892
 21
356.31573895516328
  0
LINE
  8
_0-0_0
  6
CONTINUOUS
 62
    7
 10
262.05635163652892
 20
356.31573895516328
 11
261.71578128580131
 21
356.30010673846721
  0
LINE
  8
_0-0_0
  6
CONTINUOUS
 62
    7
 10
261.71578128580131
 20
356.30010673846721
 11
261.3740959687575
 21
356.2788899666462
  0
LINE
  8
_0-0_0
  6
CONTINUOUS
 62
    7
 10
294.32772277721273
 20
337.24837262102585
 11
293.68566747926957
 21
343.61476870458841
  0
LINE
  8
_0-0_0
  6
CONTINUOUS
 62
    7
 10
293.68566747926957
 20
343.61476870458841
 11
291.84548039785926
 21
349.54456796343322
  0
LINE
  8
_0-0_0
  6
CONTINUOUS
 62
    7
 10
291.84548039785926
 20
349.54456796343322
 11
288.93334071522918
 21
354.91047300781531
  0
LINE
  8
_0-0_0
  6
CONTINUOUS
 62
    7
 10
288.93334071522918
 20
354.91047300781531
 11
285.0765425799429
 21
359.58519617153331
  0
LINE
  8
_0-0_0
  6
CONTINUOUS
 62
    7
 10
285.0765425799429
 20
359.58519617153331
 11
280.40238338174527
 21
363.44255178997776
  0
LINE
  8
_0-0_0
  6
CONTINUOUS
 62
    7
 10
280.40238338174527
 20
363.44255178997776
 11
275.03591761302391
 21
366.3546914726079
  0
LINE
  8
_0-0_0
  6
CONTINUOUS
 62
    7
 10
275.03591761302391
 20
366.3546914726079
 11
269.10667583733732
 21
368.19543603717631
  0
LINE
  8
_0-0_0
  6
CONTINUOUS
 62
    7
 10
269.10667583733732
 20
368.19543603717631
 11
262.74083723693286
 21
368.83693385196131
  0
LINE
  8
_0-0_0
  6
CONTINUOUS
 62
    7
 10
262.74083723693286
 20
368.83693385196131
 11
256.37388367021208
 21
368.19543603717631
  0
LINE
  8
_0-0_0
  6
CONTINUOUS
 62
    7
 10
256.37388367021208
 20
368.19543603717631
 11
250.44352368702806
 21
366.3546914726079
  0
LINE
  8
_0-0_0
  6
CONTINUOUS
 62
    7
 10
250.44352368702806
 20
366.3546914726079
 11
245.07761864264597
 21
363.44255178997776
  0
LINE
  8
_0-0_0
  6
CONTINUOUS
 62
    7
 10
245.07761864264597
 20
363.44255178997776
 11
240.40289547892792
 21
359.58519617153331
  0
LINE
  8
_0-0_0
  6
CONTINUOUS
 62
    7
 10
240.40289547892792
 20
359.58519617153331
 11
236.5455398604835
 21
354.91047300781531
  0
LINE
  8
_0-0_0
  6
CONTINUOUS
 62
    7
 10
236.5455398604835
 20
354.91047300781531
 11
233.63284269469526
 21
349.54456796343322
  0
LINE
  8
_0-0_0
  6
CONTINUOUS
 62
    7
 10
233.63284269469526
 20
349.54456796343322
 11
231.79209813012679
 21
343.61476870458841
  0
LINE
  8
_0-0_0
  6
CONTINUOUS
 62
    7
 10
231.79209813012679
 20
343.61476870458841
 11
231.15060031534182
 21
337.24837262102585
  0
LINE
  8
_0-0_0
  6
CONTINUOUS
 62
    7
 10
231.15060031534182
 20
337.24837262102585
 11
231.79209813012679
 21
330.88253402062139
  0
LINE
  8
_0-0_0
  6
CONTINUOUS
 62
    7
 10
231.79209813012679
 20
330.88253402062139
 11
233.63284269469526
 21
324.9527347617767
  0
LINE
  8
_0-0_0
  6
CONTINUOUS
 62
    7
 10
233.63284269469526
 20
324.9527347617767
 11
236.5455398604835
 21
319.58738395937155
  0
LINE
  8
_0-0_0
  6
CONTINUOUS
 62
    7
 10
236.5455398604835
 20
319.58738395937155
 11
240.40289547892792
 21
314.91210655367655
  0
LINE
  8
_0-0_0
  6
CONTINUOUS
 62
    7
 10
240.40289547892792
 20
314.91210655367655
 11
245.07761864264597
 21
311.05475093523211
  0
LINE
  8
_0-0_0
  6
CONTINUOUS
 62
    7
 10
245.07761864264597
 20
311.05475093523211
 11
250.44352368702806
 21
308.14205376944386
  0
LINE
  8
_0-0_0
  6
CONTINUOUS
 62
    7
 10
250.44352368702806
 20
308.14205376944386
 11
256.37388367021208
 21
306.30130920487539
  0
LINE
  8
_0-0_0
  6
CONTINUOUS
 62
    7
 10
256.37388367021208
 20
306.30130920487539
 11
262.74083723693286
 21
305.65981139009034
  0
LINE
  8
_0-0_0
  6
CONTINUOUS
 62
    7
 10
262.74083723693286
 20
305.65981139009034
 11
269.10667583733732
 21
306.30130920487539
  0
LINE
  8
_0-0_0
  6
CONTINUOUS
 62
    7
 10
269.10667583733732
 20
306.30130920487539
 11
275.03591761302391
 21
308.14205376944386
  0
LINE
  8
_0-0_0
  6
CONTINUOUS
 62
    7
 10
275.03591761302391
 20
308.14205376944386
 11
280.40238338174527
 21
311.05475093523211
  0
LINE
  8
_0-0_0
  6
CONTINUOUS
 62
    7
 10
280.40238338174527
 20
311.05475093523211
 11
285.0765425799429
 21
314.91210655367655
  0
LINE
  8
_0-0_0
  6
CONTINUOUS
 62
    7
 10
285.0765425799429
 20
314.91210655367655
 11
288.93334071522918
 21
319.58738395937155
  0
LINE
  8
_0-0_0
  6
CONTINUOUS
 62
    7
 10
288.93334071522918
 20
319.58738395937155
 11
291.84548039785926
 21
324.9527347617767
  0
LINE
  8
_0-0_0
  6
CONTINUOUS
 62
    7
 10
291.84548039785926
 20
324.9527347617767
 11
293.68566747926957
 21
330.88253402062139
  0
LINE
  8
_0-0_0
  6
CONTINUOUS
 62
    7
 10
293.68566747926957
 20
330.88253402062139
 11
294.32772277721273
 21
337.24837262102585
  0
LINE
  8
_0-0_0
  6
CONTINUOUS
 62
    7
 10
276.03863858483697
 20
322.94002933118884
 11
276.71642790498095
 21
323.60162571029741
  0
LINE
  8
_0-0_0
  6
CONTINUOUS
 62
    7
 10
276.71642790498095
 20
323.60162571029741
 11
277.36183134305406
 21
324.29392903963998
  0
LINE
  8
_0-0_0
  6
CONTINUOUS
 62
    7
 10
277.36183134305406
 20
324.29392903963998
 11
277.97038903379132
 21
325.01582435290032
  0
LINE
  8
_0-0_0
  6
CONTINUOUS
 62
    7
 10
277.97038903379132
 20
325.01582435290032
 11
278.54321270232771
 21
325.76619020139992
  0
LINE
  8
_0-0_0
  6
CONTINUOUS
 62
    7
 10
278.54321270232771
 20
325.76619020139992
 11
279.08030558984444
 21
326.54335737684528
  0
LINE
  8
_0-0_0
  6
CONTINUOUS
 62
    7
 10
279.08030558984444
 20
326.54335737684528
 11
279.57831631503041
 21
327.34564694739981
  0
LINE
  8
_0-0_0
  6
CONTINUOUS
 62
    7
 10
279.57831631503041
 20
327.34564694739981
 11
280.03836308538303
 21
328.17250142990542
  0
LINE
  8
_0-0_0
  6
CONTINUOUS
 62
    7
 10
280.03836308538303
 20
328.17250142990542
 11
280.45821272708849
 21
329.02169089172941
  0
LINE
  8
_0-0_0
  6
CONTINUOUS
 62
    7
 10
265.09020091259777
 20
317.85551066969879
 11
266.02815984381277
 21
317.99173751351736
  0
LINE
  8
_0-0_0
  6
CONTINUOUS
 62
    7
 10
266.02815984381277
 20
317.99173751351736
 11
266.95495290595903
 21
318.1737460411079
  0
LINE
  8
_0-0_0
  6
CONTINUOUS
 62
    7
 10
266.95495290595903
 20
318.1737460411079
 11
267.87281327285046
 21
318.39986380299609
  0
LINE
  8
_0-0_0
  6
CONTINUOUS
 62
    7
 10
267.87281327285046
 20
318.39986380299609
 11
268.77727459685957
 21
318.66952683366128
  0
LINE
  8
_0-0_0
  6
CONTINUOUS
 62
    7
 10
268.77727459685957
 20
318.66952683366128
 11
269.66833363680507
 21
318.98273513310369
  0
LINE
  8
_0-0_0
  6
CONTINUOUS
 62
    7
 10
269.66833363680507
 20
318.98273513310369
 11
270.54264549373823
 21
319.33949518368541
  0
LINE
  8
_0-0_0
  6
CONTINUOUS
 62
    7
 10
270.54264549373823
 20
319.33949518368541
 11
271.39909196016157
 21
319.73812805356994
  0
LINE
  8
_0-0_0
  6
CONTINUOUS
 62
    7
 10
271.39909196016157
 20
319.73812805356994
 11
272.23767303607502
 21
320.17807625959904
  0
LINE
  8
_0-0_0
  6
CONTINUOUS
 62
    7
 10
243.56962669986646
 20
341.0069078673269
 11
243.40994991041322
 21
340.07285780058129
  0
LINE
  8
_0-0_0
  6
CONTINUOUS
 62
    7
 10
243.40994991041322
 20
340.07285780058129
 11
243.29605480473194
 21
339.13433814502696
  0
LINE
  8
_0-0_0
  6
CONTINUOUS
 62
    7
 10
243.29605480473194
 20
339.13433814502696
 11
243.22794138282262
 21
338.19247359052383
  0
LINE
  8
_0-0_0
  6
CONTINUOUS
 62
    7
 10
243.22794138282262
 20
338.19247359052383
 11
243.20504892034606
 21
337.24893010418396
  0
LINE
  8
_0-0_0
  6
CONTINUOUS
 62
    7
 10
243.20504892034606
 20
337.24893010418396
 11
243.22794138282262
 21
336.30482913468597
  0
LINE
  8
_0-0_0
  6
CONTINUOUS
 62
    7
 10
243.22794138282262
 20
336.30482913468597
 11
243.29605480473194
 21
335.36296133900169
  0
LINE
  8
_0-0_0
  6
CONTINUOUS
 62
    7
 10
243.29605480473194
 20
335.36296133900169
 11
243.40994991041322
 21
334.42388744147047
  0
LINE
  8
_0-0_0
  6
CONTINUOUS
 62
    7
 10
243.40994991041322
 20
334.42388744147047
 11
243.56962669986646
 21
333.48983737472474
  0
LINE
  8
_0-0_0
  6
CONTINUOUS
 62
    7
 10
249.43968450771754
 20
351.5567126696817
 11
248.7613409455966
 21
350.89511629057318
  0
LINE
  8
_0-0_0
  6
CONTINUOUS
 62
    7
 10
248.7613409455966
 20
350.89511629057318
 11
248.11705247383978
 21
350.2022554780724
  0
LINE
  8
_0-0_0
  6
CONTINUOUS
 62
    7
 10
248.11705247383978
 20
350.2022554780724
 11
247.50793729994439
 21
349.48036340599322
  0
LINE
  8
_0-0_0
  6
CONTINUOUS
 62
    7
 10
247.50793729994439
 20
349.48036340599322
 11
246.93511039022684
 21
348.73055179947073
  0
LINE
  8
_0-0_0
  6
CONTINUOUS
 62
    7
 10
246.93511039022684
 20
348.73055179947073
 11
246.39913571020753
 21
347.95338786520642
  0
LINE
  8
_0-0_0
  6
CONTINUOUS
 62
    7
 10
246.39913571020753
 20
347.95338786520642
 11
245.90112174384041
 21
347.15109829465189
  0
LINE
  8
_0-0_0
  6
CONTINUOUS
 62
    7
 10
245.90112174384041
 20
347.15109829465189
 11
245.44163569782711
 21
346.3248012953045
  0
LINE
  8
_0-0_0
  6
CONTINUOUS
 62
    7
 10
245.44163569782711
 20
346.3248012953045
 11
245.02178605612164
 21
345.47505435032224
  0
LINE
  8
_0-0_0
  6
CONTINUOUS
 62
    7
 10
260.3909160781098
 20
356.64123133117175
 11
259.45295714689485
 21
356.50500448735318
  0
LINE
  8
_0-0_0
  6
CONTINUOUS
 62
    7
 10
259.45295714689485
 20
356.50500448735318
 11
258.52504587725105
 21
356.32299595976258
  0
LINE
  8
_0-0_0
  6
CONTINUOUS
 62
    7
 10
258.52504587725105
 20
356.32299595976258
 11
257.60774623469894
 21
356.09688143905566
  0
LINE
  8
_0-0_0
  6
CONTINUOUS
 62
    7
 10
257.60774623469894
 20
356.09688143905566
 11
256.70328491068983
 21
355.82721840839042
  0
LINE
  8
_0-0_0
  6
CONTINUOUS
 62
    7
 10
256.70328491068983
 20
355.82721840839042
 11
255.81278011272133
 21
355.51400686776691
  0
LINE
  8
_0-0_0
  6
CONTINUOUS
 62
    7
 10
255.81278011272133
 20
355.51400686776691
 11
254.9373532894719
 21
355.15724681718507
  0
LINE
  8
_0-0_0
  6
CONTINUOUS
 62
    7
 10
254.9373532894719
 20
355.15724681718507
 11
254.07923113239298
 21
354.75861394730066
  0
LINE
  8
_0-0_0
  6
CONTINUOUS
 62
    7
 10
254.07923113239298
 20
354.75861394730066
 11
253.24009257332133
 21
354.31866574127162
  0
LINE
  8
_0-0_0
  6
CONTINUOUS
 62
    7
 10
253.24009257332133
 20
320.17807625959904
 11
254.07923113239298
 21
319.73812805356994
  0
LINE
  8
_0-0_0
  6
CONTINUOUS
 62
    7
 10
254.07923113239298
 20
319.73812805356994
 11
254.9373532894719
 21
319.33949518368541
  0
LINE
  8
_0-0_0
  6
CONTINUOUS
 62
    7
 10
254.9373532894719
 20
319.33949518368541
 11
255.81278011272133
 21
318.98273513310369
  0
LINE
  8
_0-0_0
  6
CONTINUOUS
 62
    7
 10
255.81278011272133
 20
318.98273513310369
 11
256.70328491068983
 21
318.66952683366128
  0
LINE
  8
_0-0_0
  6
CONTINUOUS
 62
    7
 10
256.70328491068983
 20
318.66952683366128
 11
257.60774623469894
 21
318.39986380299609
  0
LINE
  8
_0-0_0
  6
CONTINUOUS
 62
    7
 10
257.60774623469894
 20
318.39986380299609
 11
258.52504587725105
 21
318.1737460411079
  0
LINE
  8
_0-0_0
  6
CONTINUOUS
 62
    7
 10
258.52504587725105
 20
318.1737460411079
 11
259.45295714689485
 21
317.99173751351736
  0
LINE
  8
_0-0_0
  6
CONTINUOUS
 62
    7
 10
259.45295714689485
 20
317.99173751351736
 11
260.3909160781098
 21
317.85551066969879
  0
LINE
  8
_0-0_0
  6
CONTINUOUS
 62
    7
 10
245.02178605612164
 20
329.02169089172941
 11
245.44163569782711
 21
328.17250142990542
  0
LINE
  8
_0-0_0
  6
CONTINUOUS
 62
    7
 10
245.44163569782711
 20
328.17250142990542
 11
245.90112174384041
 21
327.34564694739981
  0
LINE
  8
_0-0_0
  6
CONTINUOUS
 62
    7
 10
245.90112174384041
 20
327.34564694739981
 11
246.39913571020753
 21
326.54335737684528
  0
LINE
  8
_0-0_0
  6
CONTINUOUS
 62
    7
 10
246.39913571020753
 20
326.54335737684528
 11
246.93511039022684
 21
325.76619020139992
  0
LINE
  8
_0-0_0
  6
CONTINUOUS
 62
    7
 10
246.93511039022684
 20
325.76619020139992
 11
247.50793729994439
 21
325.01582435290032
  0
LINE
  8
_0-0_0
  6
CONTINUOUS
 62
    7
 10
247.50793729994439
 20
325.01582435290032
 11
248.11705247383978
 21
324.29392903963998
  0
LINE
  8
_0-0_0
  6
CONTINUOUS
 62
    7
 10
248.11705247383978
 20
324.29392903963998
 11
248.7613409455966
 21
323.60162571029741
  0
LINE
  8
_0-0_0
  6
CONTINUOUS
 62
    7
 10
248.7613409455966
 20
323.60162571029741
 11
249.43968450771754
 21
322.94002933118884
  0
LINE
  8
_0-0_0
  6
CONTINUOUS
 62
    7
 10
272.23767303607502
 20
354.31866574127162
 11
271.39909196016157
 21
354.75917143045876
  0
LINE
  8
_0-0_0
  6
CONTINUOUS
 62
    7
 10
271.39909196016157
 20
354.75917143045876
 11
270.54264549373823
 21
355.15780430034323
  0
LINE
  8
_0-0_0
  6
CONTINUOUS
 62
    7
 10
270.54264549373823
 20
355.15780430034323
 11
269.66833363680507
 21
355.51400686776691
  0
LINE
  8
_0-0_0
  6
CONTINUOUS
 62
    7
 10
269.66833363680507
 20
355.51400686776691
 11
268.77727459685957
 21
355.82721840839042
  0
LINE
  8
_0-0_0
  6
CONTINUOUS
 62
    7
 10
268.77727459685957
 20
355.82721840839042
 11
267.87281327285046
 21
356.09688143905566
  0
LINE
  8
_0-0_0
  6
CONTINUOUS
 62
    7
 10
267.87281327285046
 20
356.09688143905566
 11
266.95495290595903
 21
356.32299595976258
  0
LINE
  8
_0-0_0
  6
CONTINUOUS
 62
    7
 10
266.95495290595903
 20
356.32299595976258
 11
266.02815984381277
 21
356.50500448735318
  0
LINE
  8
_0-0_0
  6
CONTINUOUS
 62
    7
 10
266.02815984381277
 20
356.50500448735318
 11
265.09020091259777
 21
356.64123133117175
  0
LINE
  8
_0-0_0
  6
CONTINUOUS
 62
    7
 10
280.45821272708849
 20
345.47505435032224
 11
280.03836308538303
 21
346.3248012953045
  0
LINE
  8
_0-0_0
  6
CONTINUOUS
 62
    7
 10
280.03836308538303
 20
346.3248012953045
 11
279.57831631503041
 21
347.15109829465189
  0
LINE
  8
_0-0_0
  6
CONTINUOUS
 62
    7
 10
279.57831631503041
 20
347.15109829465189
 11
279.08030558984444
 21
347.95338786520642
  0
LINE
  8
_0-0_0
  6
CONTINUOUS
 62
    7
 10
279.08030558984444
 20
347.95338786520642
 11
278.54321270232771
 21
348.73055179947073
  0
LINE
  8
_0-0_0
  6
CONTINUOUS
 62
    7
 10
278.54321270232771
 20
348.73055179947073
 11
277.97038903379132
 21
349.48036340599322
  0
LINE
  8
_0-0_0
  6
CONTINUOUS
 62
    7
 10
277.97038903379132
 20
349.48036340599322
 11
277.36183134305406
 21
350.2022554780724
  0
LINE
  8
_0-0_0
  6
CONTINUOUS
 62
    7
 10
277.36183134305406
 20
350.2022554780724
 11
276.71642790498095
 21
350.89511629057318
  0
LINE
  8
_0-0_0
  6
CONTINUOUS
 62
    7
 10
276.71642790498095
 20
350.89511629057318
 11
276.03863858483697
 21
351.5567126696817
  0
LINE
  8
_0-0_0
  6
CONTINUOUS
 62
    7
 10
281.90869963386922
 20
333.48983737472474
 11
282.06837642332243
 21
334.42388744147047
  0
LINE
  8
_0-0_0
  6
CONTINUOUS
 62
    7
 10
282.06837642332243
 20
334.42388744147047
 11
282.18338649532006
 21
335.36296133900169
  0
LINE
  8
_0-0_0
  6
CONTINUOUS
 62
    7
 10
282.18338649532006
 20
335.36296133900169
 11
282.25149991722935
 21
336.30482913468597
  0
LINE
  8
_0-0_0
  6
CONTINUOUS
 62
    7
 10
282.25149991722935
 20
336.30482913468597
 11
282.2749498628641
 21
337.24893010418396
  0
LINE
  8
_0-0_0
  6
CONTINUOUS
 62
    7
 10
282.2749498628641
 20
337.24893010418396
 11
282.25149991722935
 21
338.19247359052383
  0
LINE
  8
_0-0_0
  6
CONTINUOUS
 62
    7
 10
282.25149991722935
 20
338.19247359052383
 11
282.18338649532006
 21
339.13433814502696
  0
LINE
  8
_0-0_0
  6
CONTINUOUS
 62
    7
 10
282.18338649532006
 20
339.13433814502696
 11
282.06837642332243
 21
340.07285780058129
  0
LINE
  8
_0-0_0
  6
CONTINUOUS
 62
    7
 10
282.06837642332243
 20
340.07285780058129
 11
281.90869963386922
 21
341.0069078673269
  0
LINE
  8
_0-1_レイヤ___1
  6
CONTINUOUS
 62
    7
 10
220.00930969095469
 20
355.68014705882342
 11
232.38507031405521
 21
348.86868190967505
  0
TEXT
  8
_0-0_0
 62
    7
 10
202.50930969095469
 20
351.68014705882342
 40
8
 41
1
 50
0
  1
φ54
  0
TEXT
  8
_0-0_0
 62
    7
 10
199.69169546195974
 20
90.05873003609247
 40
8
 41
1
 50
0
  1
φ32
  0
TEXT
  8
_0-1_レイヤ___1
 62
    7
 10
339.44873210455341
 20
114.32012339041091
 40
8
 41
1
 50
90
  1
97
  0
TEXT
  8
_0-1_レイヤ___1
 62
    7
 10
339.44873210455341
 20
224.99424574571827
 40
8
 41
1
 50
90
  1
130
  0
ENDSEC
  0
EOF
