  0
SECTION
  2
HEADER
  9
$ACADVER
  1
AC1009
  9
$INSBASE
 10
0
 20
0
 30
0
  9
$EXTMIN
 10
0
 20
0
  9
$EXTMAX
 10
1485
 20
1050
  9
$LIMMIN
 10
0
 20
0
  9
$LIMMAX
 10
1485
 20
1050
  9
$LTSCALE
 40
5
  0
ENDSEC
  0
SECTION
  2
TABLES
  0
TABLE
  2
LTYPE
 70
     9
  0
LTYPE
  2
CONTINUOUS
 70
    64
  3
実線
 72
    65
 73
     0
 40
0.0
  0
LTYPE
  2
DASHED1
 70
    64
  3
--  --  --  --  --  --  --  --  
 72
    65
 73
     2
 40
2.5
 49
1.25
 49
-1.25
  0
LTYPE
  2
DASHED2
 70
    64
  3
----    ----    ----    ----    
 72
    65
 73
     2
 40
5.0
 49
2.5
 49
-2.5
  0
LTYPE
  2
DASHED3
 70
    64
  3
------  ------  ------  ------  
 72
    65
 73
     2
 40
5.0
 49
3.75
 49
-1.25
  0
LTYPE
  2
CENTER1
 70
    64
  3
----- - ----- - ----- - ----- - 
 72
    65
 73
     4
 40
10.0
 49
6.25
 49
-1.25
 49
1.25
 49
-1.25
  0
LTYPE
  2
CENTER2
 70
    64
  3
----------  --  ----------  --  
 72
    65
 73
     4
 40
20.0
 49
12.5
 49
-2.5
 49
2.5
 49
-2.5
  0
LTYPE
  2
PHANTOM1
 70
    64
  3
--- - - --- - - --- - - --- - - 
 72
    65
 73
     6
 40
10.0
 49
3.25
 49
-1.25
 49
1.25
 49
-1.25
 49
1.25
 49
-1.25
  0
LTYPE
  2
PHANTOM2
 70
    64
  3
--------  -  -  --------  -  -  
 72
    65
 73
     6
 40
20.0
 49
10.0
 49
-2.5
 49
1.25
 49
-2.5
 49
1.25
 49
-2.5
  0
LTYPE
  2
DOT
 70
    64
  3
-   -   -   -   -   -   -   -   
 72
    65
 73
     2
 40
2.5
 49
0.625
 49
-1.875
  0
LTYPE
  2
DUMMY
 70
    64
  3
ダミー
 72
    65
 73
     0
 40
0.0
  0
LTYPE
  2
RAND1
 70
    64
  3
ランダム線1
 72
    65
 73
     4
 40
10.0
 49
1.0
 49
-2.0
 49
3.0
 49
-4.0
  0
LTYPE
  2
RAND2
 70
    64
  3
ランダム線2
 72
    65
 73
     4
 40
14.0
 49
2.0
 49
-3.0
 49
4.0
 49
-5.0
  0
LTYPE
  2
RAND3
 70
    64
  3
ランダム線3
 72
    65
 73
     4
 40
18.0
 49
3.0
 49
-4.0
 49
5.0
 49
-6.0
  0
LTYPE
  2
RAND4
 70
    64
  3
ランダム線4
 72
    65
 73
     4
 40
22.0
 49
4.0
 49
-5.0
 49
6.0
 49
-7.0
  0
LTYPE
  2
RAND5
 70
    64
  3
ランダム線5
 72
    65
 73
     4
 40
26.0
 49
5.0
 49
-6.0
 49
7.0
 49
-8.0
  0
LTYPE
  2
LONG1
 70
    64
  3
----------  --  ----------  --  
 72
    65
 73
     4
 40
40.0
 49
32.5
 49
-2.5
 49
2.5
 49
-2.5
  0
LTYPE
  2
LONG2
 70
    64
  3
--------  -  -  --------  -  -  
 72
    65
 73
     6
 40
40.0
 49
30.0
 49
-2.5
 49
1.25
 49
-2.5
 49
1.25
 49
-2.5
  0
LTYPE
  2
LONG3
 70
    64
  3
+++++++++++++++..+++++++++++++++
 72
    65
 73
     2
 40
40.0
 49
37.5
 49
-2.5
  0
LTYPE
  2
LONG4
 70
    64
  3
+++++++++++++++..+++++++++++++++
 72
    65
 73
     2
 40
80.0
 49
75.0
 49
-5.0
  0
LTYPE
  2
LONG5
 70
    64
  3
----------  --  ----------  --  
 72
    65
 73
     4
 40
60.0
 49
37.5
 49
-7.5
 49
7.5
 49
-7.5
  0
LTYPE
  2
dashed
 70
   64
  3
-------   -------------   ------
 72
   65
 73
    2
 40
7.5
 49
6
 49
-1.5
  0
LTYPE
  2
dashed_spaced
 70
   64
  3
----        --------        ----
 72
   65
 73
    2
 40
12
 49
6
 49
-6
  0
LTYPE
  2
long_dashed_dotted
 70
   64
  3
------------- --- --------------
 72
   65
 73
    4
 40
15.25
 49
12
 49
-1.5
 49
0.25
 49
-1.5
  0
LTYPE
  2
long_dashed_double-dotted
 70
   64
  3
----------- --- --- ------------
 72
   65
 73
    6
 40
17
 49
12
 49
-1.5
 49
0.25
 49
-1.5
 49
0.25
 49
-1.5
  0
LTYPE
  2
long_dashed_triplicate-dotted
 70
   64
  3
--------- --- --- --- ----------
 72
   65
 73
    8
 40
18.75
 49
12
 49
-1.5
 49
0.25
 49
-1.5
 49
0.25
 49
-1.5
 49
0.25
 49
-1.5
  0
LTYPE
  2
dotted
 70
   64
  3
   -       -       -       -    
 72
   65
 73
    2
 40
1.75
 49
0.25
 49
-1.5
  0
LTYPE
  2
chain
 70
   64
  3
-------------- -- --------------
 72
   65
 73
    4
 40
18.5
 49
12
 49
-1.5
 49
3.5
 49
-1.5
  0
LTYPE
  2
chain_double_dash
 70
   64
  3
------------ -- -- -------------
 72
   65
 73
    6
 40
23.5
 49
12
 49
-1.5
 49
3.5
 49
-1.5
 49
3.5
 49
-1.5
  0
LTYPE
  2
dashed_dotted
 70
   64
  3
-----------     -     ----------
 72
   65
 73
    4
 40
9.25
 49
6
 49
-1.5
 49
0.25
 49
-1.5
  0
LTYPE
  2
double-dashed_dotted
 70
   64
  3
------   -----------   -   -----
 72
   65
 73
    6
 40
16.75
 49
6
 49
-1.5
 49
6
 49
-1.5
 49
0.25
 49
-1.5
  0
LTYPE
  2
dashed_double-dotted
 70
   64
  3
---------    -    -    ---------
 72
   65
 73
    6
 40
11
 49
6
 49
-1.5
 49
0.25
 49
-1.5
 49
0.25
 49
-1.5
  0
LTYPE
  2
double-dashed_double-dotted
 70
   64
  3
-----   ---------   -   -   ----
 72
   65
 73
    8
 40
18.5
 49
6
 49
-1.5
 49
6
 49
-1.5
 49
0.25
 49
-1.5
 49
0.25
 49
-1.5
  0
LTYPE
  2
dashed_triplicate-dotted
 70
   64
  3
-------    -    -    -    ------
 72
   65
 73
    8
 40
12.75
 49
6
 49
-1.5
 49
0.25
 49
-1.5
 49
0.25
 49
-1.5
 49
0.25
 49
-1.5
  0
LTYPE
  2
double-dashed_triplicate-dotted
 70
   64
  3
-----  ---------  -  -  -  -----
 72
   65
 73
   10
 40
20.25
 49
6
 49
-1.5
 49
6
 49
-1.5
 49
0.25
 49
-1.5
 49
0.25
 49
-1.5
 49
0.25
 49
-1.5
  0
LTYPE
  2
undefined
 70
   64
  3
--------------------------------
 72
   65
 73
    0
 40
0
  0
LTYPE
  2
_
 70
   64
  3
                                
 72
   65
 73
    0
 40
0
  0
LTYPE
  2
__18
 70
   64
  3
                                
 72
   65
 73
    0
 40
0
  0
LTYPE
  2
__19
 70
   64
  3
                                
 72
   65
 73
    0
 40
0
  0
LTYPE
  2
__20
 70
   64
  3
                                
 72
   65
 73
    0
 40
0
  0
LTYPE
  2
__21
 70
   64
  3
                                
 72
   65
 73
    0
 40
0
  0
LTYPE
  2
__22
 70
   64
  3
                                
 72
   65
 73
    0
 40
0
  0
LTYPE
  2
__23
 70
   64
  3
                                
 72
   65
 73
    0
 40
0
  0
LTYPE
  2
__24
 70
   64
  3
                                
 72
   65
 73
    0
 40
0
  0
LTYPE
  2
__25
 70
   64
  3
                                
 72
   65
 73
    0
 40
0
  0
LTYPE
  2
__26
 70
   64
  3
                                
 72
   65
 73
    0
 40
0
  0
LTYPE
  2
__27
 70
   64
  3
                                
 72
   65
 73
    0
 40
0
  0
LTYPE
  2
__28
 70
   64
  3
                                
 72
   65
 73
    0
 40
0
  0
LTYPE
  2
__29
 70
   64
  3
                                
 72
   65
 73
    0
 40
0
  0
LTYPE
  2
__30
 70
   64
  3
                                
 72
   65
 73
    0
 40
0
  0
LTYPE
  2
__31
 70
   64
  3
                                
 72
   65
 73
    0
 40
0
  0
LTYPE
  2
__32
 70
   64
  3
                                
 72
   65
 73
    0
 40
0
  0
ENDTAB
  0
TABLE
  2
STYLE
  5
3
100
AcDbSymbolTable
 70
     1
  0
STYLE
  5
10
100
AcDbSymbolTableRecord
100
AcDbTextStyleTableRecord
  2
STANDARD
 70
     0
 40
0.0
 41
1.0
 50
0.0
 71
     0
 42
0.2
  3
txt
  4
bigfont.shx
  0
STYLE
  5
26
100
AcDbSymbolTableRecord
100
AcDbTextStyleTableRecord
  2
TATEGAKI
 70
    68
 40
0.0
 41
1.0
 50
0.0
 71
     0
 42
1.0
  3
txt
  4
bigfont.shx
  0
ENDTAB
  0
TABLE
  2
LAYER
 70
    5
  0
LAYER
  2
_0-0_0
 70
   64
 62
    7
  6
CONTINUOUS
  0
LAYER
  2
_1-0____-16
 70
   64
 62
    7
  6
CONTINUOUS
  0
LAYER
  2
_2-0____-32
 70
   64
 62
    7
  6
CONTINUOUS
  0
LAYER
  2
_f-0____-240
 70
   64
 62
    7
  6
CONTINUOUS
  0
LAYER
  2
ADD_LINE
 70
   64
 62
    7
  6
CONTINUOUS
  0
ENDTAB
  0
ENDSEC
  0
SECTION
  2
BLOCKS
  0
ENDSEC
  0
SECTION
  2
ENTITIES
  0
LINE
  8
_0-0_0
  6
CONTINUOUS
 62
    7
 10
825.86661815729883
 20
322.25412531822201
 11
328.34037156879759
 21
322.25412531822201
  0
LINE
  8
_0-0_0
  6
CONTINUOUS
 62
    7
 10
825.86661815729883
 20
344.2685610084061
 11
328.34037156879759
 21
344.2685610084061
  0
LINE
  8
_1-0____-16
  6
CONTINUOUS
 62
    7
 10
272.10491523435894
 20
814.80904784295501
 11
882.1049153156298
 21
814.80904784295501
  0
LINE
  8
_1-0____-16
  6
CONTINUOUS
 62
    7
 10
272.10491523435894
 20
814.80904784295501
 11
277.02895399941997
 21
815.67728873128976
  0
LINE
  8
_1-0____-16
  6
CONTINUOUS
 62
    7
 10
272.10491523435894
 20
814.80904784295501
 11
277.02895399941997
 21
813.94080695462037
  0
LINE
  8
_1-0____-16
  6
CONTINUOUS
 62
    7
 10
882.1049153156298
 20
814.80904784295501
 11
877.18087655056877
 21
813.94080695462037
  0
LINE
  8
_1-0____-16
  6
CONTINUOUS
 62
    7
 10
882.1049153156298
 20
814.80904784295501
 11
877.18087655056877
 21
815.67728873128976
  0
LINE
  8
_1-0____-16
  6
CONTINUOUS
 62
    7
 10
882.1049153156298
 20
814.80904784295501
 11
882.1049153156298
 21
782.18263634107245
  0
TEXT
  8
_1-0____-16
 62
    7
 10
567.72991527499437
 20
817.30904784295501
 40
20
 41
1
 50
0
  1
610
  0
LINE
  8
_1-0____-16
  6
CONTINUOUS
 62
    7
 10
272.10491523435894
 20
814.80904784295501
 11
272.10491523435894
 21
783.49096505428395
  0
LINE
  8
_1-0____-16
  6
CONTINUOUS
 62
    7
 10
202.27531136489389
 20
782.18263634107245
 11
202.27531136489389
 21
706.4225498879365
  0
LINE
  8
_1-0____-16
  6
CONTINUOUS
 62
    7
 10
202.27531136489389
 20
782.18263634107245
 11
203.14355225322856
 21
777.25859757601143
  0
LINE
  8
_1-0____-16
  6
CONTINUOUS
 62
    7
 10
202.27531136489389
 20
782.18263634107245
 11
201.40707047655923
 21
777.25859757601143
  0
LINE
  8
_1-0____-16
  6
CONTINUOUS
 62
    7
 10
202.27531136489389
 20
706.4225498879365
 11
201.40707047655923
 21
711.34658865299775
  0
LINE
  8
_1-0____-16
  6
CONTINUOUS
 62
    7
 10
202.27531136489389
 20
706.4225498879365
 11
203.14355225322856
 21
711.34658865299775
  0
LINE
  8
_1-0____-16
  6
CONTINUOUS
 62
    7
 10
202.27531136489389
 20
782.18263634107245
 11
272.10491523435894
 21
782.18263634107245
  0
LINE
  8
_1-0____-16
  6
CONTINUOUS
 62
    7
 10
202.27531136489389
 20
706.4225498879365
 11
272.10491523435894
 21
706.4225498879365
  0
LINE
  8
_1-0____-16
  6
CENTER1
 62
    7
 10
222.8110976958871
 20
744.03381868146516
 11
937.17000998508274
 21
744.03381868146516
  0
LINE
  8
_2-0____-32
  6
CENTER1
 62
    7
 10
969.6378093476261
 20
422.68812870421243
 11
171.8436917005674
 21
422.68812870421243
  0
LINE
  8
_1-0____-16
  6
CONTINUOUS
 62
    7
 10
272.10491523435894
 20
463.45293510664646
 11
882.1049153156298
 21
463.45293510664646
  0
LINE
  8
_1-0____-16
  6
CONTINUOUS
 62
    7
 10
272.10491523435894
 20
463.45293510664646
 11
277.02895399941997
 21
464.3211759949811
  0
LINE
  8
_1-0____-16
  6
CONTINUOUS
 62
    7
 10
272.10491523435894
 20
463.45293510664646
 11
277.02895399941997
 21
462.58469421831182
  0
LINE
  8
_1-0____-16
  6
CONTINUOUS
 62
    7
 10
882.1049153156298
 20
463.45293510664646
 11
877.18087655056877
 21
462.58469421831182
  0
LINE
  8
_1-0____-16
  6
CONTINUOUS
 62
    7
 10
882.1049153156298
 20
463.45293510664646
 11
877.18087655056877
 21
464.3211759949811
  0
TEXT
  8
_1-0____-16
 62
    7
 10
567.72991527499437
 20
465.95293510664646
 40
20
 41
1
 50
0
  1
610
  0
LINE
  8
_1-0____-16
  6
CONTINUOUS
 62
    7
 10
882.1049153156298
 20
463.45293510664646
 11
882.1049153156298
 21
430.82652360476391
  0
LINE
  8
_1-0____-16
  6
CONTINUOUS
 62
    7
 10
272.10491523435894
 20
463.45293510664646
 11
272.10491523435894
 21
432.13485231797534
  0
LINE
  8
_1-0____-16
  6
CENTER1
 62
    7
 10
882.10491531435878
 20
294.45027676250652
 11
882.10491531435878
 21
478.396355193879
  0
LINE
  8
_1-0____-16
  6
CENTER1
 62
    7
 10
272.10207441682087
 20
294.45027676250652
 11
272.10207441682087
 21
478.396355193879
  0
LINE
  8
_2-0____-32
  6
CENTER1
 62
    7
 10
1186.6398654949426
 20
540.39935083658042
 11
1186.6398654949426
 21
865.38573427884614
  0
LINE
  8
_1-0____-16
  6
CENTER1
 62
    7
 10
1042.1211517241322
 20
744.03381868146516
 11
1198.4755453334278
 21
744.03381868146516
  0
LINE
  8
_1-0____-16
  6
CONTINUOUS
 62
    7
 10
233.95183737084821
 20
857.02705156136517
 11
238.87587613590924
 21
857.89529244970004
  0
LINE
  8
_1-0____-16
  6
CONTINUOUS
 62
    7
 10
233.95183737084821
 20
857.02705156136517
 11
238.87587613590924
 21
856.15881067303064
  0
LINE
  8
_1-0____-16
  6
CONTINUOUS
 62
    7
 10
920.25515236033141
 20
857.02705156136517
 11
915.33111359527038
 21
856.15881067303064
  0
LINE
  8
_1-0____-16
  6
CONTINUOUS
 62
    7
 10
920.25515236033141
 20
857.02705156136517
 11
915.33111359527038
 21
857.89529244970004
  0
TEXT
  8
_1-0____-16
 62
    7
 10
567.72849486558982
 20
859.52705156136517
 40
20
 41
1
 50
0
  1
686
  0
LINE
  8
_1-0____-16
  6
CONTINUOUS
 62
    7
 10
920.25515236033141
 20
857.02705156136517
 11
920.25515236033141
 21
744.03381868146516
  0
LINE
  8
_1-0____-16
  6
CONTINUOUS
 62
    7
 10
233.95183737084821
 20
857.02705156136517
 11
920.25515236033141
 21
857.02705156136517
  0
LINE
  8
_1-0____-16
  6
CONTINUOUS
 62
    7
 10
233.95183737084821
 20
857.02705156136517
 11
233.95183737084821
 21
744.03381868146516
  0
LINE
  8
_1-0____-16
  6
CONTINUOUS
 62
    7
 10
233.95183737084821
 20
498.00683853788428
 11
238.87587613590924
 21
498.87507942621892
  0
LINE
  8
_1-0____-16
  6
CONTINUOUS
 62
    7
 10
233.95183737084821
 20
498.00683853788428
 11
238.87587613590924
 21
497.13859764954964
  0
LINE
  8
_1-0____-16
  6
CONTINUOUS
 62
    7
 10
920.25515236033141
 20
498.00683853788428
 11
915.33111359527038
 21
497.13859764954964
  0
LINE
  8
_1-0____-16
  6
CONTINUOUS
 62
    7
 10
920.25515236033141
 20
498.00683853788428
 11
915.33111359527038
 21
498.87507942621892
  0
TEXT
  8
_1-0____-16
 62
    7
 10
567.72849486558982
 20
500.50683853788428
 40
20
 41
1
 50
0
  1
686
  0
LINE
  8
_1-0____-16
  6
CONTINUOUS
 62
    7
 10
920.25515236033141
 20
498.00683853788428
 11
920.25515236033141
 21
422.68812870421237
  0
LINE
  8
_1-0____-16
  6
CONTINUOUS
 62
    7
 10
233.95183737084821
 20
498.00683853788428
 11
920.25515236033141
 21
498.00683853788428
  0
LINE
  8
_1-0____-16
  6
CONTINUOUS
 62
    7
 10
233.95183737084821
 20
498.00683853788428
 11
233.95183737084821
 21
422.68812870421237
  0
LINE
  8
_0-0_0
  6
CONTINUOUS
 62
    7
 10
1089.708158696194
 20
693.20190476156893
 11
1089.708158696194
 21
726.2235582981159
  0
LINE
  8
_0-0_0
  6
CONTINUOUS
 62
    7
 10
1104.7180012118824
 20
693.20190476156893
 11
1104.7180012118824
 21
726.2235582981159
  0
LINE
  8
_0-0_0
  6
CONTINUOUS
 62
    7
 10
1117.626465776747
 20
752.87854693812449
 11
1117.626465776747
 21
735.19192922755519
  0
LINE
  8
_0-0_0
  6
CONTINUOUS
 62
    7
 10
1123.5986954954299
 20
752.23772269279254
 11
1123.5986834530131
 21
752.94001735994152
  0
LINE
  8
_0-0_0
  6
CONTINUOUS
 62
    7
 10
1123.5986834530131
 20
752.94001735994152
 11
1123.5987032525966
 21
753.681732112997
  0
LINE
  8
_0-0_0
  6
CONTINUOUS
 62
    7
 10
1123.5987032525966
 20
734.38874405268257
 11
1123.5986954954299
 21
752.23772269279254
  0
LINE
  8
_0-0_0
  6
CONTINUOUS
 62
    7
 10
1176.1759887826388
 20
714.07055087384515
 11
1177.7554416496835
 21
714.07055087384515
  0
LINE
  8
_0-0_0
  6
CONTINUOUS
 62
    7
 10
1142.7386018038681
 20
754.57194198726359
 11
1142.7386018038681
 21
733.4985341758744
  0
LINE
  8
_0-0_0
  6
CONTINUOUS
 62
    7
 10
1148.933982584118
 20
756.85967294791351
 11
1149.6300159367688
 21
758.06523807788892
  0
LINE
  8
_0-0_0
  6
CONTINUOUS
 62
    7
 10
1154.0644373333557
 20
729.73836308531895
 11
1150.0922569964391
 21
729.73836308531895
  0
LINE
  8
_0-0_0
  6
CONTINUOUS
 62
    7
 10
1157.0201778145806
 20
731.02810723418906
 11
1155.6935035286367
 21
731.02810723418906
  0
LINE
  8
_0-0_0
  6
CONTINUOUS
 62
    7
 10
1146.5154093380024
 20
731.52703598643313
 11
1148.1164592067491
 21
731.52703598643313
  0
LINE
  8
_0-0_0
  6
CONTINUOUS
 62
    7
 10
1145.7649172110741
 20
755.79279612673508
 11
1145.7649172110741
 21
754.79229188562249
  0
LINE
  8
_0-0_0
  6
CONTINUOUS
 62
    7
 10
1148.8669513311354
 20
756.60950645797914
 11
1148.8669513311354
 21
732.2774663434501
  0
LINE
  8
_0-0_0
  6
CONTINUOUS
 62
    7
 10
1143.8833373602345
 20
734.02867640444367
 11
1145.0144250866874
 21
734.02867640444367
  0
LINE
  8
_0-0_0
  6
CONTINUOUS
 62
    7
 10
1120.2681980576367
 20
735.02933257368113
 11
1122.3687955668358
 21
735.02933257368113
  0
LINE
  8
_0-0_0
  6
CONTINUOUS
 62
    7
 10
1117.626465776747
 20
736.53031682499591
 11
1115.0247597387622
 21
736.53031682499591
  0
LINE
  8
_0-0_0
  6
CONTINUOUS
 62
    7
 10
1148.933982584118
 20
731.21080321522436
 11
1149.6300159367688
 21
730.00523808524895
  0
LINE
  8
_0-0_0
  6
CONTINUOUS
 62
    7
 10
1157.7826778143806
 20
728.68444759751219
 11
1157.7826778143806
 21
730.26561303955577
  0
LINE
  8
_0-0_0
  6
CONTINUOUS
 62
    7
 10
1157.7826778143806
 20
757.8048652814573
 11
1157.7826778143806
 21
759.38602856562602
  0
LINE
  8
_0-0_0
  6
CONTINUOUS
 62
    7
 10
1154.5266783904842
 20
730.00523808524895
 11
1154.826279493906
 21
730.52416241636274
  0
LINE
  8
_0-0_0
  6
CONTINUOUS
 62
    7
 10
1117.626465776747
 20
751.54015934068389
 11
1115.0247597387622
 21
751.54015934068389
  0
LINE
  8
_0-0_0
  6
CONTINUOUS
 62
    7
 10
1120.2681980576367
 20
753.04114359199843
 11
1122.3687955668358
 21
753.04114359199843
  0
LINE
  8
_0-0_0
  6
CONTINUOUS
 62
    7
 10
1143.8833373602345
 20
754.0417997586942
 11
1145.0144250866874
 21
754.0417997586942
  0
LINE
  8
_0-0_0
  6
CONTINUOUS
 62
    7
 10
1154.5266783904842
 20
758.06523807788892
 11
1154.826279493906
 21
757.54631374423343
  0
LINE
  8
_0-0_0
  6
CONTINUOUS
 62
    7
 10
1146.5154093380024
 20
756.54344017924643
 11
1148.1164592067491
 21
756.54344017924643
  0
LINE
  8
_0-0_0
  6
CONTINUOUS
 62
    7
 10
1157.0201778145806
 20
757.04236893149061
 11
1155.6935035286367
 21
757.04236893149061
  0
LINE
  8
_0-0_0
  6
CONTINUOUS
 62
    7
 10
1150.0922569964391
 20
758.33211307781892
 11
1154.0644373333557
 21
758.33211307781892
  0
LINE
  8
_0-0_0
  6
CONTINUOUS
 62
    7
 10
1175.4176579828795
 20
773.31671850068017
 11
1175.4176579828795
 21
714.7537576624577
  0
LINE
  8
_0-0_0
  6
CONTINUOUS
 62
    7
 10
1178.4981552014885
 20
774.59013737205453
 11
1178.4981552014885
 21
713.48033879108334
  0
LINE
  8
_0-0_0
  6
CONTINUOUS
 62
    7
 10
1186.6398654949362
 20
705.88358163549265
 11
1186.6398654949362
 21
782.18405572743779
  0
LINE
  8
_0-0_0
  6
CONTINUOUS
 62
    7
 10
1177.7554416496835
 20
773.99992529183442
 11
1176.1759887826388
 21
773.99992529183442
  0
ARC
  8
_0-0_0
  6
CONTINUOUS
 62
    7
 10
1097.2130799553092
 20
693.20190476156893
 40
14.831030153026559
 50
120.42218782640002
 51
59.577812173599966
  0
ARC
  8
_0-0_0
  6
CONTINUOUS
 62
    7
 10
1097.2130799553092
 20
693.20190476156893
 40
9.4000924513260671
 50
143.26910298839999
 51
36.737165274199981
  0
ARC
  8
_0-0_0
  6
CONTINUOUS
 62
    7
 10
1097.2130799553092
 20
693.20190476156893
 40
7.5049212591148295
 50
179.9986157921
 51
359.9986157921
  0
ARC
  8
_0-0_0
  6
CONTINUOUS
 62
    7
 10
1122.3687955668358
 20
733.52834832236658
 40
1.5009842513146323
 50
34.975145785800009
 51
90
  0
ARC
  8
_0-0_0
  6
CONTINUOUS
 62
    7
 10
1122.3687955668358
 20
754.54212784331298
 40
1.5009842513146323
 50
270
 51
325.02485421419999
  0
ARC
  8
_0-0_0
  6
CONTINUOUS
 62
    7
 10
1118.9523351981904
 20
752.87855621012443
 40
1.3258694214438975
 50
7.0437382837999989
 51
180
  0
ARC
  8
_0-0_0
  6
CONTINUOUS
 62
    7
 10
1118.9523351981904
 20
735.19191995555514
 40
1.3258694214438975
 50
180
 51
352.9562617162
  0
ARC
  8
_0-0_0
  6
CONTINUOUS
 62
    7
 10
1133.5119011459133
 20
746.74684281498276
 40
12.098106549951728
 50
40.301039988399999
 51
145.02485421419999
  0
ARC
  8
_0-0_0
  6
CONTINUOUS
 62
    7
 10
1133.5119011459133
 20
741.32363335069704
 40
12.098106549951728
 50
214.97514578580004
 51
319.69896001159998
  0
ARC
  8
_0-0_0
  6
CONTINUOUS
 62
    7
 10
1143.8833373602345
 20
732.52769215312901
 40
1.5009842513146323
 50
90
 51
139.6989600114
  0
ARC
  8
_0-0_0
  6
CONTINUOUS
 62
    7
 10
1143.8833373602345
 20
755.54278401000886
 40
1.5009842513146323
 50
220.30103998859997
 51
270
  0
ARC
  8
_0-0_0
  6
CONTINUOUS
 62
    7
 10
1157.0201887208721
 20
757.80485005687399
 40
0.7624995346750002
 50
269.99991709120002
 51
0.0011439048000004
  0
ARC
  8
_0-0_0
  6
CONTINUOUS
 62
    7
 10
1157.0201887208721
 20
730.26562610626399
 40
0.7624995346750002
 50
359.99885609440003
 51
90.000082908100026
  0
ARC
  8
_0-0_0
  6
CONTINUOUS
 62
    7
 10
1160.1029939888551
 20
728.70187994621585
 40
0.7624985459666668
 50
319.60813763659996
 51
352.11709778959994
  0
ARC
  8
_0-0_0
  6
CONTINUOUS
 62
    7
 10
1160.1029939888551
 20
759.36859621692201
 40
0.7624985459666668
 50
7.8829022087999991
 51
40.391862354699988
  0
ARC
  8
_0-0_0
  6
CONTINUOUS
 62
    7
 10
1158.5452133873471
 20
759.38624709812586
 40
0.7624984493833336
 50
138.56259046459996
 51
179.99281874439998
  0
ARC
  8
_0-0_0
  6
CONTINUOUS
 62
    7
 10
1158.5452133670133
 20
728.6842291133039
 40
0.7624984417583335
 50
180.00718464970001
 51
221.43741311540001
  0
ARC
  8
_0-0_0
  6
CONTINUOUS
 62
    7
 10
1161.6142245397921
 20
728.49007341302138
 40
0.7624973361333341
 50
105.66231476149999
 51
171.92585235940001
  0
ARC
  8
_0-0_0
  6
CONTINUOUS
 62
    7
 10
1161.6142245499586
 20
759.58040275011649
 40
0.7624973361333341
 50
188.07414752450001
 51
254.33768463569987
  0
ARC
  8
_0-0_0
  6
CONTINUOUS
 62
    7
 10
1148.1164592067491
 20
755.79294805231825
 40
0.7504921269281495
 50
0
 51
90
  0
ARC
  8
_0-0_0
  6
CONTINUOUS
 62
    7
 10
1148.1164592067491
 20
732.2775281108195
 40
0.7504921269281495
 50
270
 51
0
  0
ARC
  8
_0-0_0
  6
CONTINUOUS
 62
    7
 10
1146.5154093380024
 20
732.2775281108195
 40
0.7504921269281495
 50
180
 51
270
  0
ARC
  8
_0-0_0
  6
CONTINUOUS
 62
    7
 10
1146.5154093380024
 20
755.79294805231825
 40
0.7504921269281495
 50
90
 51
180
  0
ARC
  8
_0-0_0
  6
CONTINUOUS
 62
    7
 10
1145.0144250866874
 20
733.27818428005708
 40
0.7504921269281495
 50
0
 51
90
  0
ARC
  8
_0-0_0
  6
CONTINUOUS
 62
    7
 10
1145.0144250866874
 20
754.79229188562249
 40
0.7504921269281495
 50
270
 51
0
  0
ARC
  8
_0-0_0
  6
CONTINUOUS
 62
    7
 10
1149.367279415754
 20
756.60950890560412
 40
0.5003280846187664
 50
149.99999999990001
 51
180
  0
ARC
  8
_0-0_0
  6
CONTINUOUS
 62
    7
 10
1149.367279415754
 20
731.46096725753387
 40
0.5003280846187664
 50
180
 51
210.00000000009999
  0
ARC
  8
_0-0_0
  6
CONTINUOUS
 62
    7
 10
1150.1259036736492
 20
757.74008533587607
 40
0.5929830909201628
 50
93.252788467288582
 51
146.74721227259039
  0
ARC
  8
_0-0_0
  6
CONTINUOUS
 62
    7
 10
1154.0307906567928
 20
757.74008532982623
 40
0.5929830969235718
 50
33.252786939428759
 51
86.747211628284205
  0
ARC
  8
_0-0_0
  6
CONTINUOUS
 62
    7
 10
1155.6958444802322
 20
758.04774330982968
 40
1.0037802920455698
 50
209.96964764280071
 51
269.86529273660773
  0
ARC
  8
_0-0_0
  6
CONTINUOUS
 62
    7
 10
1159.3171358649545
 20
758.76789495240246
 40
1.7510577744433342
 50
38.69887874277088
 51
140.11026168970179
  0
ARC
  8
_0-0_0
  6
CONTINUOUS
 62
    7
 10
1164.4503862989591
 20
767.52760049174537
 40
9.1989262990926512
 50
250.68921960574636
 51
337.22550149456288
  0
ARC
  8
_0-0_0
  6
CONTINUOUS
 62
    7
 10
1148.3014396039771
 20
775.51963780947756
 40
27.205553709737362
 50
334.87113598486422
 51
355.35549554458549
  0
ARC
  8
_0-0_0
  6
CONTINUOUS
 62
    7
 10
1176.1760712399357
 20
773.23729426407965
 40
0.7626077391896903
 50
90.007072587700407
 51
174.02102090251279
  0
ARC
  8
_0-0_0
  6
CONTINUOUS
 62
    7
 10
1177.7553745309133
 20
774.76242529307206
 40
0.7625000015141331
 50
269.9984567161909
 51
346.94117148082029
  0
ARC
  8
_0-0_0
  6
CONTINUOUS
 62
    7
 10
1189.5865262446266
 20
772.64963799263774
 40
11.232633580217042
 50
137.84322642692169
 51
170.1215393481543
  0
ARC
  8
_0-0_0
  6
CONTINUOUS
 62
    7
 10
1186.3158624653524
 20
774.80689234778185
 40
7.3842750147403908
 50
87.485200925640754
 51
133.21415555733239
  0
LINE
  8
_0-0_0
  6
CONTINUOUS
 62
    7
 10
1176.1759887826388
 20
773.99992529183442
 11
1177.7554416496835
 21
773.99992529183442
  0
ARC
  8
_0-0_0
  6
CONTINUOUS
 62
    7
 10
1150.1259036736492
 20
730.33039082726191
 40
0.5929830909201628
 50
213.25278772740938
 51
266.74721153271128
  0
ARC
  8
_0-0_0
  6
CONTINUOUS
 62
    7
 10
1154.0307906567928
 20
730.33039083331175
 40
0.5929830969235718
 50
273.25278837171561
 51
326.74721306057108
  0
ARC
  8
_0-0_0
  6
CONTINUOUS
 62
    7
 10
1155.6958444802322
 20
730.0227328533083
 40
1.0037802920455698
 50
90.134707263392173
 51
150.03035235719909
  0
ARC
  8
_0-0_0
  6
CONTINUOUS
 62
    7
 10
1159.3171358649545
 20
729.30258121073564
 40
1.7510577744433342
 50
219.88973831029799
 51
321.301121257229
  0
ARC
  8
_0-0_0
  6
CONTINUOUS
 62
    7
 10
1164.4503862989591
 20
720.54287567139249
 40
9.1989262990926512
 50
22.774498505437013
 51
109.3107803942535
  0
ARC
  8
_0-0_0
  6
CONTINUOUS
 62
    7
 10
1176.1760712399357
 20
714.83318189905822
 40
0.7626077391896903
 50
185.97897909748698
 51
269.99292741229948
  0
ARC
  8
_0-0_0
  6
CONTINUOUS
 62
    7
 10
1177.7553745309133
 20
713.30805087006615
 40
0.7625000015141331
 50
13.05882851917953
 51
90.001543283808999
  0
ARC
  8
_0-0_0
  6
CONTINUOUS
 62
    7
 10
1189.5865262446266
 20
715.42083817050013
 40
11.232633580217042
 50
189.8784606518455
 51
222.15677357307811
  0
ARC
  8
_0-0_0
  6
CONTINUOUS
 62
    7
 10
1186.3158624653524
 20
713.26358381535613
 40
7.3842750147403908
 50
226.78584444266741
 51
272.51479907435908
  0
ARC
  8
_0-0_0
  6
CONTINUOUS
 62
    7
 10
1148.3014396039771
 20
712.55083835366031
 40
27.205553709737362
 50
4.6445044554144479
 51
25.128864015135779
  0
LINE
  8
_0-0_0
  6
CONTINUOUS
 62
    7
 10
1157.782688255395
 20
730.26561088302265
 11
1157.7826882555473
 21
757.80485005686967
  0
LINE
  8
_0-0_0
  6
CONTINUOUS
 62
    7
 10
1160.8582872547461
 20
759.47317209894459
 11
1160.8592857390736
 21
728.59716960707101
  0
ARC
  8
_0-0_0
  6
CONTINUOUS
 62
    7
 10
1114.9150788747215
 20
726.3332391596424
 40
10.197667517878042
 50
89.383744198463589
 51
180.61625578740961
  0
ARC
  8
_0-0_0
  6
CONTINUOUS
 62
    7
 10
1115.3487508316302
 20
725.89956720267355
 40
25.642639007826649
 50
90.723943278925745
 51
179.27605671532208
  0
ARC
  8
_0-0_0
  6
CONTINUOUS
 62
    7
 10
1162.939692600884
 20
753.9315551771233
 40
13.305756048856001
 50
162.29831255082479
 51
197.82578925415129
  0
ARC
  8
_0-0_0
  6
CONTINUOUS
 62
    7
 10
1176.3498483263033
 20
744.0684324789604
 40
26.712161565670485
 50
167.48166625598964
 51
192.47475605541061
  0
ARC
  8
_0-0_0
  6
CONTINUOUS
 62
    7
 10
1163.9878555769051
 20
734.18840339339965
 40
14.321911724641243
 50
163.3233972623438
 51
196.61520387549211
  0
ARC
  8
_0-0_0
  6
CONTINUOUS
 62
    7
 10
1141.2170017263686
 20
753.93155517712307
 40
13.305756048856001
 50
342.17421074585047
 51
17.701687449177001
  0
ARC
  8
_0-0_0
  6
CONTINUOUS
 62
    7
 10
1127.8068460009495
 20
744.06843247895949
 40
26.712161565670485
 50
347.52524394459118
 51
12.518333744012214
  0
ARC
  8
_0-0_0
  6
CONTINUOUS
 62
    7
 10
1140.1688387503482
 20
734.1884033933992
 40
14.321911724641243
 50
343.38479612450993
 51
16.676602737657994
  0
LINE
  8
_0-0_0
  6
CONTINUOUS
 62
    7
 10
1150.5387116805719
 20
758.11242737795988
 11
1153.6179826644727
 21
758.11242729154333
  0
ARC
  8
_0-0_0
  6
CONTINUOUS
 62
    7
 10
1150.5973359200996
 20
757.64622329758436
 40
0.4698755643986858
 50
97.167211425802563
 51
135.19921904614179
  0
ARC
  8
_0-0_0
  6
CONTINUOUS
 62
    7
 10
1153.5858208976399
 20
757.70004170949528
 40
0.413637821683156
 50
42.0930418077441
 51
85.540554533606112
  0
ARC
  8
_0-0_0
  6
CONTINUOUS
 62
    7
 10
1150.5708734301047
 20
730.37043448567147
 40
0.4136378435175419
 50
222.09304505429319
 51
265.54055470125343
  0
ARC
  8
_0-0_0
  6
CONTINUOUS
 62
    7
 10
1153.5858208199083
 20
730.3704343541375
 40
0.4136378109584614
 50
274.45945426323323
 51
317.90697589894182
  0
LINE
  8
_0-0_0
  6
CONTINUOUS
 62
    7
 10
1153.6179826492214
 20
729.9580487877198
 11
1150.5387116627815
 21
729.9580488817611
  0
LINE
  8
_0-0_0
  6
CONTINUOUS
 62
    7
 10
1150.2683268778933
 20
738.2983532380307
 11
1153.8883674502144
 21
738.29835323518091
  0
LINE
  8
_0-0_0
  6
CONTINUOUS
 62
    7
 10
1150.2727229942916
 20
749.85834697997279
 11
1153.8839710573611
 21
749.85834550836728
  0
LINE
  8
_0-0_0
  6
CONTINUOUS
 62
    7
 10
1148.8669513311354
 20
732.2775281108195
 11
1148.8669513311354
 21
731.46096998728376
  0
LINE
  8
_0-0_0
  6
CONTINUOUS
 62
    7
 10
1145.7649172110741
 20
733.27818428005708
 11
1145.7649172110741
 21
732.27768003894448
  0
LINE
  8
_1-0____-16
  6
CONTINUOUS
 62
    7
 10
1228.8411521378728
 20
782.18405572743779
 11
1228.8411521378728
 21
705.88642043569985
  0
LINE
  8
_1-0____-16
  6
CONTINUOUS
 62
    7
 10
1228.8411521378728
 20
782.18405572743779
 11
1229.7093930262074
 21
777.26001696237677
  0
LINE
  8
_1-0____-16
  6
CONTINUOUS
 62
    7
 10
1228.8411521378728
 20
782.18405572743779
 11
1227.9729112495379
 21
777.26001696237677
  0
LINE
  8
_1-0____-16
  6
CONTINUOUS
 62
    7
 10
1228.8411521378728
 20
705.88642043569985
 11
1227.9729112495379
 21
710.81045920076099
  0
LINE
  8
_1-0____-16
  6
CONTINUOUS
 62
    7
 10
1228.8411521378728
 20
705.88642043569985
 11
1229.7093930262074
 21
710.81045920076099
  0
LINE
  8
_1-0____-16
  6
CONTINUOUS
 62
    7
 10
1228.8411521378728
 20
782.18405572743779
 11
1186.6398654949362
 21
782.18405572743779
  0
LINE
  8
_1-0____-16
  6
CONTINUOUS
 62
    7
 10
1228.8411521378728
 20
705.88642043569985
 11
1186.6398654949362
 21
705.88642043569985
  0
LINE
  8
_2-0____-32
  6
CONTINUOUS
 62
    7
 10
1186.6398654949426
 20
836.16460138124262
 11
1097.2130799553092
 21
836.16460138124262
  0
LINE
  8
_2-0____-32
  6
CONTINUOUS
 62
    7
 10
1186.6398654949426
 20
836.16460138124262
 11
1181.7158267298817
 21
835.29636049290821
  0
LINE
  8
_2-0____-32
  6
CONTINUOUS
 62
    7
 10
1186.6398654949426
 20
836.16460138124262
 11
1181.7158267298817
 21
837.03284226957749
  0
LINE
  8
_2-0____-32
  6
CONTINUOUS
 62
    7
 10
1097.2130799553092
 20
836.16460138124262
 11
1102.1371187203702
 21
837.03284226957749
  0
LINE
  8
_2-0____-32
  6
CONTINUOUS
 62
    7
 10
1097.2130799553092
 20
836.16460138124262
 11
1102.1371187203702
 21
835.29636049290821
  0
LINE
  8
_2-0____-32
  6
CONTINUOUS
 62
    7
 10
1186.6398654949426
 20
836.16460138124262
 11
1186.6398654949426
 21
819.4979347145761
  0
TEXT
  8
_2-0____-32
 62
    7
 10
1135.6764727251261
 20
838.66460138124262
 40
20
 41
1
 50
0
  1
89
  0
LINE
  8
_1-0____-16
  6
CONTINUOUS
 62
    7
 10
1097.2130799553092
 20
693.20190476156893
 11
1097.2130799553092
 21
768.02734647928196
  0
LINE
  8
_2-0____-32
  6
CONTINUOUS
 62
    7
 10
1097.2130799553092
 20
836.16460138124262
 11
1097.2130799553092
 21
768.02734647928196
  0
LINE
  8
_0-0_0
  6
CONTINUOUS
 62
    7
 10
264.59999397229137
 20
714.23217679376512
 11
264.59999399008296
 21
744.03434553084026
  0
LINE
  8
_0-0_0
  6
CONTINUOUS
 62
    7
 10
279.60983649388481
 20
714.19635280017701
 11
279.60983647609311
 21
744.03434553084026
  0
LINE
  8
_0-0_0
  6
CONTINUOUS
 62
    7
 10
300.82374725804198
 20
702.60057779903127
 11
300.82374725804198
 21
683.8003928864407
  0
LINE
  8
_0-0_0
  6
CONTINUOUS
 62
    7
 10
306.2272905659172
 20
702.85681736518995
 11
306.2272905659172
 21
683.54415332028213
  0
LINE
  8
_0-0_0
  6
CONTINUOUS
 62
    7
 10
310.24466112011083
 20
684.51577515215956
 11
310.24466112011083
 21
701.88519553331253
  0
LINE
  8
_0-0_0
  6
CONTINUOUS
 62
    7
 10
321.03900362856803
 20
679.88652726696898
 11
321.03900362856803
 21
706.51444341850288
  0
LINE
  8
_0-0_0
  6
CONTINUOUS
 62
    7
 10
324.15613124164366
 20
679.27168270280515
 11
324.15613124164366
 21
707.12928798012524
  0
LINE
  8
_0-0_0
  6
CONTINUOUS
 62
    7
 10
328.34179188223413
 20
680.84238166634452
 11
328.34179188223413
 21
705.55858901912757
  0
LINE
  8
_0-0_0
  6
CONTINUOUS
 62
    7
 10
325.49385162923568
 20
680.09188953912098
 11
327.59129975501082
 21
680.09188953912098
  0
LINE
  8
_0-0_0
  6
CONTINUOUS
 62
    7
 10
825.86803866648347
 20
682.19326749331333
 11
328.34179188223413
 21
682.19326749331333
  0
LINE
  8
_0-0_0
  6
CONTINUOUS
 62
    7
 10
306.2272905659172
 20
683.54415332028213
 11
308.93443011310569
 21
683.54415332028213
  0
LINE
  8
_0-0_0
  6
CONTINUOUS
 62
    7
 10
293.01862914610172
 20
685.69556408193932
 11
300.82374725804198
 21
685.69556408193932
  0
LINE
  8
_0-0_0
  6
CONTINUOUS
 62
    7
 10
293.01862914610172
 20
700.70540660353277
 11
300.82374725804198
 21
700.70540660353277
  0
LINE
  8
_0-0_0
  6
CONTINUOUS
 62
    7
 10
306.2272905659172
 20
702.85681736518995
 11
308.93443011310569
 21
702.85681736518995
  0
LINE
  8
_0-0_0
  6
CONTINUOUS
 62
    7
 10
825.86803866648347
 20
704.20770319215876
 11
328.34179188223413
 21
704.20770319215876
  0
LINE
  8
_0-0_0
  6
CONTINUOUS
 62
    7
 10
325.49385162923568
 20
706.30908114380929
 11
327.59129975501082
 21
706.30908114380929
  0
ARC
  8
_0-0_0
  6
CONTINUOUS
 62
    7
 10
312.5654030272068
 20
676.54662534094768
 40
9.4061679813169281
 50
33.915687892799994
 51
72.43474707259999
  0
ARC
  8
_0-0_0
  6
CONTINUOUS
 62
    7
 10
313.74316323931964
 20
680.26722315064399
 40
5.5036089253467848
 50
72.434747072600004
 51
129.4700055113
  0
ARC
  8
_0-0_0
  6
CONTINUOUS
 62
    7
 10
303.53159443573048
 20
683.8003928864407
 40
2.7078471776884605
 50
180
 51
354.57006084369999
  0
ARC
  8
_0-0_0
  6
CONTINUOUS
 62
    7
 10
311.81071591727448
 20
682.61397117503509
 40
2.4636123861147632
 50
129.47000551119999
 51
146.12670761039999
  0
ARC
  8
_0-0_0
  6
CONTINUOUS
 62
    7
 10
308.93443011310569
 20
684.54480948737171
 40
1.0006561670895668
 50
270
 51
326.12670761039999
  0
ARC
  8
_0-0_0
  6
CONTINUOUS
 62
    7
 10
312.5654030272068
 20
709.85434534452429
 40
9.4061679813169281
 50
287.56525292740002
 51
326.08431210719999
  0
ARC
  8
_0-0_0
  6
CONTINUOUS
 62
    7
 10
313.74316323931964
 20
706.13374753482799
 40
5.5036089253467848
 50
230.5299944887
 51
287.56525292740002
  0
ARC
  8
_0-0_0
  6
CONTINUOUS
 62
    7
 10
303.53159443573048
 20
702.60057779903127
 40
2.7078471776884605
 50
5.4299391562999988
 51
180
  0
ARC
  8
_0-0_0
  6
CONTINUOUS
 62
    7
 10
311.81071591727448
 20
703.786999510437
 40
2.4636123861147632
 50
213.87329238960004
 51
230.52999448880004
  0
ARC
  8
_0-0_0
  6
CONTINUOUS
 62
    7
 10
308.93443011310569
 20
701.8561611955588
 40
1.0006561670895668
 50
33.873292389600003
 51
90
  0
ARC
  8
_0-0_0
  6
CONTINUOUS
 62
    7
 10
317.04958499254502
 20
679.5616530983848
 40
4.0026246734416011
 50
4.6555494409999998
 51
33.915687892900003
  0
ARC
  8
_0-0_0
  6
CONTINUOUS
 62
    7
 10
322.68463881478397
 20
680.02053786198667
 40
1.6510826768415352
 50
184.65554944119989
 51
333.02806522819998
  0
ARC
  8
_0-0_0
  6
CONTINUOUS
 62
    7
 10
325.49385162923568
 20
678.59090528721595
 40
1.5009842519051837
 50
90
 51
153.02806522860001
  0
ARC
  8
_0-0_0
  6
CONTINUOUS
 62
    7
 10
327.59129975501082
 20
680.84238166634452
 40
0.7504921272234252
 50
270
 51
0
  0
ARC
  8
_0-0_0
  6
CONTINUOUS
 62
    7
 10
317.04958499254502
 20
706.83931758708718
 40
4.0026246734416011
 50
326.0843121071
 51
355.34445055899999
  0
ARC
  8
_0-0_0
  6
CONTINUOUS
 62
    7
 10
322.68463881478397
 20
706.38043282348531
 40
1.6510826768415352
 50
26.971934771799997
 51
175.34445055879999
  0
ARC
  8
_0-0_0
  6
CONTINUOUS
 62
    7
 10
325.49385162923568
 20
707.81006539571445
 40
1.5009842519051837
 50
206.97193477139999
 51
270
  0
ARC
  8
_0-0_0
  6
CONTINUOUS
 62
    7
 10
327.59129975501082
 20
705.55858901912757
 40
0.7504921272234252
 50
0
 51
90
  0
ARC
  8
_0-0_0
  6
CONTINUOUS
 62
    7
 10
272.10491523435894
 20
744.03381868146516
 40
14.809711289192258
 50
300.51340438670002
 51
239.48659561330001
  0
ARC
  8
_0-0_0
  6
CONTINUOUS
 62
    7
 10
272.10491523435894
 20
744.03381868146516
 40
7.5049212620675849
 50
0
 51
179.99999735259996
  0
ARC
  8
_0-0_0
  6
CONTINUOUS
 62
    7
 10
272.10491523308804
 20
744.03381868146516
 40
38.148817659607317
 50
284.37341243942149
 51
260.37019814506027
  0
ARC
  8
_0-0_0
  6
CONTINUOUS
 62
    7
 10
272.10491523291853
 20
744.03381868379779
 40
29.964687220614358
 50
284.50466653075148
 51
255.49533346987707
  0
ARC
  8
_0-0_0
  6
CONTINUOUS
 62
    7
 10
292.95498606261037
 20
714.0511938755069
 40
13.345939020948006
 50
179.3767990182296
 51
270.27322872480289
  0
ARC
  8
_0-0_0
  6
CONTINUOUS
 62
    7
 10
293.27766590588692
 20
714.37240896679987
 40
28.678014795192468
 50
180.28017084669872
 51
269.48246365710207
  0
LINE
  8
_0-0_0
  6
CONTINUOUS
 62
    7
 10
889.60983657642646
 20
714.23217679376512
 11
889.6098365586347
 21
744.03434553084026
  0
LINE
  8
_0-0_0
  6
CONTINUOUS
 62
    7
 10
874.59999405483291
 20
714.19635280017701
 11
874.59999407262455
 21
744.03434553084026
  0
LINE
  8
_0-0_0
  6
CONTINUOUS
 62
    7
 10
853.38608329067586
 20
702.60057779903127
 11
853.38608329067586
 21
683.8003928864407
  0
LINE
  8
_0-0_0
  6
CONTINUOUS
 62
    7
 10
847.98253998280052
 20
702.85681736518995
 11
847.98253998280052
 21
683.54415332028213
  0
LINE
  8
_0-0_0
  6
CONTINUOUS
 62
    7
 10
843.96516942860694
 20
684.51577515215956
 11
843.96516942860694
 21
701.88519553331253
  0
LINE
  8
_0-0_0
  6
CONTINUOUS
 62
    7
 10
833.17082692014969
 20
679.88652726696898
 11
833.17082692014969
 21
706.51444341850288
  0
LINE
  8
_0-0_0
  6
CONTINUOUS
 62
    7
 10
830.05369930707411
 20
679.27168270280515
 11
830.05369930707411
 21
707.12928798012524
  0
LINE
  8
_0-0_0
  6
CONTINUOUS
 62
    7
 10
825.86803866648347
 20
680.84238166634452
 11
825.86803866648347
 21
705.55858901912757
  0
LINE
  8
_0-0_0
  6
CONTINUOUS
 62
    7
 10
828.71597891948215
 20
680.09188953912098
 11
826.61853079370701
 21
680.09188953912098
  0
LINE
  8
_0-0_0
  6
CONTINUOUS
 62
    7
 10
847.98253998280052
 20
683.54415332028213
 11
845.27540043561203
 21
683.54415332028213
  0
LINE
  8
_0-0_0
  6
CONTINUOUS
 62
    7
 10
861.19120140261612
 20
685.69556408193932
 11
853.38608329067586
 21
685.69556408193932
  0
LINE
  8
_0-0_0
  6
CONTINUOUS
 62
    7
 10
861.19120140261612
 20
700.70540660353277
 11
853.38608329067586
 21
700.70540660353277
  0
LINE
  8
_0-0_0
  6
CONTINUOUS
 62
    7
 10
847.98253998280052
 20
702.85681736518995
 11
845.27540043561203
 21
702.85681736518995
  0
LINE
  8
_0-0_0
  6
CONTINUOUS
 62
    7
 10
828.71597891948215
 20
706.30908114380929
 11
826.61853079370701
 21
706.30908114380929
  0
ARC
  8
_0-0_0
  6
CONTINUOUS
 62
    7
 10
841.64442752151092
 20
676.54662534094768
 40
9.4061679813169281
 50
107.5652529273999
 51
146.08431210719999
  0
ARC
  8
_0-0_0
  6
CONTINUOUS
 62
    7
 10
840.46666730939808
 20
680.26722315064399
 40
5.5036089253467848
 50
50.529994488700019
 51
107.56525292739991
  0
ARC
  8
_0-0_0
  6
CONTINUOUS
 62
    7
 10
850.67823611298741
 20
683.8003928864407
 40
2.7078471776884605
 50
185.42993915630001
 51
0
  0
ARC
  8
_0-0_0
  6
CONTINUOUS
 62
    7
 10
842.39911463144324
 20
682.61397117503509
 40
2.4636123861147632
 50
33.873292389600003
 51
50.529994488799971
  0
ARC
  8
_0-0_0
  6
CONTINUOUS
 62
    7
 10
845.27540043561203
 20
684.54480948737171
 40
1.0006561670895668
 50
213.87329238960004
 51
270
  0
ARC
  8
_0-0_0
  6
CONTINUOUS
 62
    7
 10
841.64442752151092
 20
709.85434534452429
 40
9.4061679813169281
 50
213.91568789280001
 51
252.43474707260003
  0
ARC
  8
_0-0_0
  6
CONTINUOUS
 62
    7
 10
840.46666730939808
 20
706.13374753482799
 40
5.5036089253467848
 50
252.43474707259998
 51
309.47000551129997
  0
ARC
  8
_0-0_0
  6
CONTINUOUS
 62
    7
 10
850.67823611298741
 20
702.60057779903127
 40
2.7078471776884605
 50
0.000000000000007
 51
174.57006084369999
  0
ARC
  8
_0-0_0
  6
CONTINUOUS
 62
    7
 10
842.39911463144324
 20
703.786999510437
 40
2.4636123861147632
 50
309.47000551119999
 51
326.12670761039999
  0
ARC
  8
_0-0_0
  6
CONTINUOUS
 62
    7
 10
845.27540043561203
 20
701.8561611955588
 40
1.0006561670895668
 50
90
 51
146.12670761039999
  0
ARC
  8
_0-0_0
  6
CONTINUOUS
 62
    7
 10
837.16024555617287
 20
679.5616530983848
 40
4.0026246734416011
 50
146.08431210709998
 51
175.34445055899999
  0
ARC
  8
_0-0_0
  6
CONTINUOUS
 62
    7
 10
831.52519173393375
 20
680.02053786198667
 40
1.6510826768415352
 50
206.97193477180011
 51
355.34445055880002
  0
ARC
  8
_0-0_0
  6
CONTINUOUS
 62
    7
 10
828.71597891948215
 20
678.59090528721595
 40
1.5009842519051837
 50
26.971934771400008
 51
89.999999999999986
  0
ARC
  8
_0-0_0
  6
CONTINUOUS
 62
    7
 10
826.61853079370701
 20
680.84238166634452
 40
0.7504921272234252
 50
180
 51
270
  0
ARC
  8
_0-0_0
  6
CONTINUOUS
 62
    7
 10
837.16024555617287
 20
706.83931758708718
 40
4.0026246734416011
 50
184.65554944099992
 51
213.91568789290002
  0
ARC
  8
_0-0_0
  6
CONTINUOUS
 62
    7
 10
831.52519173393375
 20
706.38043282348531
 40
1.6510826768415352
 50
4.6555494411999874
 51
153.02806522820001
  0
ARC
  8
_0-0_0
  6
CONTINUOUS
 62
    7
 10
828.71597891948215
 20
707.81006539571445
 40
1.5009842519051837
 50
270
 51
333.02806522859998
  0
ARC
  8
_0-0_0
  6
CONTINUOUS
 62
    7
 10
826.61853079370701
 20
705.55858901912757
 40
0.7504921272234252
 50
90
 51
180
  0
ARC
  8
_0-0_0
  6
CONTINUOUS
 62
    7
 10
882.10491531435878
 20
744.03381868146516
 40
14.809711289192258
 50
300.51340438670002
 51
239.48659561330001
  0
ARC
  8
_0-0_0
  6
CONTINUOUS
 62
    7
 10
882.10491531435878
 20
744.03381868146516
 40
7.5049212620675849
 50
0.000002647400012
 51
179.99999999999997
  0
ARC
  8
_0-0_0
  6
CONTINUOUS
 62
    7
 10
882.1049153156298
 20
744.03381868146516
 40
38.148817659607317
 50
279.62980185493961
 51
255.62658756057851
  0
ARC
  8
_0-0_0
  6
CONTINUOUS
 62
    7
 10
882.1049153157993
 20
744.03381868379779
 40
29.964687220614358
 50
284.50466653012302
 51
255.49533346924852
  0
ARC
  8
_0-0_0
  6
CONTINUOUS
 62
    7
 10
861.25484448610734
 20
714.0511938755069
 40
13.345939020948006
 50
269.72677127519711
 51
0.6232009817703687
  0
ARC
  8
_0-0_0
  6
CONTINUOUS
 62
    7
 10
860.93216464283103
 20
714.37240896679987
 40
28.678014795192468
 50
270.51753634289793
 51
359.7198291533013
  0
LINE
  8
_0-0_0
  6
CONTINUOUS
 62
    7
 10
873.26018705769957
 20
353.67472898602261
 11
890.94680476826875
 21
353.67472898602261
  0
LINE
  8
_0-0_0
  6
CONTINUOUS
 62
    7
 10
873.09759040382573
 20
356.31646126691265
 11
891.10940142214292
 21
356.31646126691265
  0
LINE
  8
_0-0_0
  6
CONTINUOUS
 62
    7
 10
912.06818312197868
 20
412.2242519919152
 11
912.06818312197868
 21
413.80370485895912
  0
LINE
  8
_0-0_0
  6
CONTINUOUS
 62
    7
 10
869.27906104791055
 20
384.98224579339393
 11
868.07349591793513
 21
385.67827914604447
  0
LINE
  8
_0-0_0
  6
CONTINUOUS
 62
    7
 10
896.40037091050522
 20
390.1127005426315
 11
896.40037091050522
 21
386.14052020571489
  0
LINE
  8
_0-0_0
  6
CONTINUOUS
 62
    7
 10
895.1106267616351
 20
393.06844102385628
 11
895.1106267616351
 21
391.74176673791266
  0
LINE
  8
_0-0_0
  6
CONTINUOUS
 62
    7
 10
894.61169800939092
 20
382.5636725472782
 11
894.61169800939092
 21
384.1647224160252
  0
LINE
  8
_0-0_0
  6
CONTINUOUS
 62
    7
 10
870.34593786908908
 20
381.81318042035031
 11
893.86105395687935
 21
381.81318042035031
  0
LINE
  8
_0-0_0
  6
CONTINUOUS
 62
    7
 10
869.52922753784492
 20
384.91521454041134
 11
870.34578594350569
 21
384.91521454041134
  0
LINE
  8
_0-0_0
  6
CONTINUOUS
 62
    7
 10
892.11005759138038
 20
379.93160056951058
 11
892.11005759138038
 21
381.0626882959636
  0
LINE
  8
_0-0_0
  6
CONTINUOUS
 62
    7
 10
891.10940142214292
 20
356.31646126691265
 11
891.10940142214292
 21
358.41705877611162
  0
LINE
  8
_0-0_0
  6
CONTINUOUS
 62
    7
 10
889.60841717082815
 20
353.67472898602261
 11
889.60841542259891
 21
333.25828739812636
  0
LINE
  8
_0-0_0
  6
CONTINUOUS
 62
    7
 10
894.92793078059981
 20
384.98224579339393
 11
896.13349591057499
 21
385.67827914604447
  0
LINE
  8
_0-0_0
  6
CONTINUOUS
 62
    7
 10
897.45428639831198
 20
393.83094102365646
 11
895.87312095626828
 21
393.83094102365646
  0
LINE
  8
_0-0_0
  6
CONTINUOUS
 62
    7
 10
868.33386871436687
 20
393.83094102365646
 11
866.75270543019815
 21
393.83094102365646
  0
LINE
  8
_0-0_0
  6
CONTINUOUS
 62
    7
 10
896.13349591057499
 20
390.57494159976017
 11
895.61457157946109
 21
390.8745427031817
  0
LINE
  8
_0-0_0
  6
CONTINUOUS
 62
    7
 10
874.59857465514028
 20
353.67472898602261
 11
874.59879024422492
 21
333.26134316458507
  0
LINE
  8
_0-0_0
  6
CONTINUOUS
 62
    7
 10
873.09759040382573
 20
356.31646126691265
 11
873.09759040382573
 21
358.41705877611162
  0
LINE
  8
_0-0_0
  6
CONTINUOUS
 62
    7
 10
872.09693423712963
 20
379.93160056951058
 11
872.09693423712963
 21
381.0626882959636
  0
LINE
  8
_0-0_0
  6
CONTINUOUS
 62
    7
 10
868.07349591793513
 20
390.57494159976017
 11
868.59242025159062
 21
390.8745427031817
  0
LINE
  8
_0-0_0
  6
CONTINUOUS
 62
    7
 10
869.5952938165774
 20
382.5636725472782
 11
869.5952938165774
 21
384.1647224160252
  0
LINE
  8
_0-0_0
  6
CONTINUOUS
 62
    7
 10
869.09636506433344
 20
393.06844102385628
 11
869.09636506433344
 21
391.74176673791266
  0
LINE
  8
_0-0_0
  6
CONTINUOUS
 62
    7
 10
867.80662091800514
 20
386.14052020571489
 11
867.80662091800514
 21
390.1127005426315
  0
LINE
  8
_0-0_0
  6
CONTINUOUS
 62
    7
 10
851.54859662376964
 20
414.54641841076437
 11
912.65839520474071
 21
414.54641841076437
  0
LINE
  8
_0-0_0
  6
CONTINUOUS
 62
    7
 10
920.25515236033141
 20
422.68812870421198
 11
843.95467826838626
 21
422.68812870421198
  0
LINE
  8
_0-0_0
  6
CONTINUOUS
 62
    7
 10
852.13880870398964
 20
413.80370485895912
 11
852.13880870398964
 21
412.2242519919152
  0
ARC
  8
_0-0_0
  6
CONTINUOUS
 62
    7
 10
892.61038567345747
 20
358.41705877611162
 40
1.5009842513146323
 50
124.97514578580001
 51
180
  0
ARC
  8
_0-0_0
  6
CONTINUOUS
 62
    7
 10
871.59660615251084
 20
358.41705877611162
 40
1.5009842513146323
 50
0
 51
55.024854214199998
  0
ARC
  8
_0-0_0
  6
CONTINUOUS
 62
    7
 10
873.26017778569963
 20
355.00059840746616
 40
1.3258694214438975
 50
97.043738283799854
 51
270
  0
ARC
  8
_0-0_0
  6
CONTINUOUS
 62
    7
 10
890.94681404026892
 20
355.00059840746616
 40
1.3258694214438975
 50
270
 51
82.95626171620016
  0
ARC
  8
_0-0_0
  6
CONTINUOUS
 62
    7
 10
879.3918911808413
 20
369.56016435518904
 40
12.098106549951728
 50
130.30103998839999
 51
235.02485421419996
  0
ARC
  8
_0-0_0
  6
CONTINUOUS
 62
    7
 10
884.81510064512713
 20
369.56016435518904
 40
12.098106549951728
 50
304.97514578580001
 51
49.698960011600001
  0
ARC
  8
_0-0_0
  6
CONTINUOUS
 62
    7
 10
893.61104184269493
 20
379.93160056951058
 40
1.5009842513146323
 50
180
 51
229.69896001139981
  0
ARC
  8
_0-0_0
  6
CONTINUOUS
 62
    7
 10
870.5959499858152
 20
379.93160056951058
 40
1.5009842513146323
 50
310.30103998860022
 51
0
  0
ARC
  8
_0-0_0
  6
CONTINUOUS
 62
    7
 10
868.33388393895007
 20
393.06845193014794
 40
0.7624995346750002
 50
359.99991709119968
 51
90.001143904799846
  0
ARC
  8
_0-0_0
  6
CONTINUOUS
 62
    7
 10
895.87310788956017
 20
393.06845193014794
 40
0.7624995346750002
 50
89.998856094400168
 51
180.00008290810004
  0
ARC
  8
_0-0_0
  6
CONTINUOUS
 62
    7
 10
897.4368540496082
 20
396.15125719813091
 40
0.7624985459666668
 50
49.608137636599729
 51
82.117097789599853
  0
ARC
  8
_0-0_0
  6
CONTINUOUS
 62
    7
 10
866.77013777890193
 20
396.15125719813091
 40
0.7624985459666668
 50
97.882902208800147
 51
130.39186235470029
  0
ARC
  8
_0-0_0
  6
CONTINUOUS
 62
    7
 10
866.7524868976983
 20
394.59347659662285
 40
0.7624984493833336
 50
228.56259046459999
 51
269.99281874439998
  0
ARC
  8
_0-0_0
  6
CONTINUOUS
 62
    7
 10
897.45450488252027
 20
394.59347657628939
 40
0.7624984417583335
 50
270.00718464969998
 51
311.43741311539998
  0
ARC
  8
_0-0_0
  6
CONTINUOUS
 62
    7
 10
897.64866058280268
 20
397.66248774906785
 40
0.7624973361333341
 50
195.66231476150011
 51
261.92585235939993
  0
ARC
  8
_0-0_0
  6
CONTINUOUS
 62
    7
 10
866.55833124570745
 20
397.66248775923458
 40
0.7624973361333341
 50
278.07414752450018
 51
344.33768463569987
  0
ARC
  8
_0-0_0
  6
CONTINUOUS
 62
    7
 10
870.34578594350569
 20
384.1647224160252
 40
0.7504921269281495
 50
90
 51
180
  0
ARC
  8
_0-0_0
  6
CONTINUOUS
 62
    7
 10
893.86120588500432
 20
384.1647224160252
 40
0.7504921269281495
 50
0
 51
90
  0
ARC
  8
_0-0_0
  6
CONTINUOUS
 62
    7
 10
893.86120588500432
 20
382.5636725472782
 40
0.7504921269281495
 50
270
 51
0
  0
ARC
  8
_0-0_0
  6
CONTINUOUS
 62
    7
 10
870.34578594350569
 20
382.5636725472782
 40
0.7504921269281495
 50
180
 51
270
  0
ARC
  8
_0-0_0
  6
CONTINUOUS
 62
    7
 10
892.86054971576687
 20
381.0626882959636
 40
0.7504921269281495
 50
90
 51
180
  0
ARC
  8
_0-0_0
  6
CONTINUOUS
 62
    7
 10
871.34644211020168
 20
381.0626882959636
 40
0.7504921269281495
 50
0
 51
90
  0
ARC
  8
_0-0_0
  6
CONTINUOUS
 62
    7
 10
869.52922509021982
 20
385.41554262502984
 40
0.5003280846187664
 50
239.99999999989984
 51
270
  0
ARC
  8
_0-0_0
  6
CONTINUOUS
 62
    7
 10
894.67776673829019
 20
385.41554262502984
 40
0.5003280846187664
 50
270
 51
300.00000000009999
  0
ARC
  8
_0-0_0
  6
CONTINUOUS
 62
    7
 10
868.39864865994798
 20
386.17416688292479
 40
0.5929830909201628
 50
183.25278846728864
 51
236.74721227259033
  0
ARC
  8
_0-0_0
  6
CONTINUOUS
 62
    7
 10
868.39864866599783
 20
390.07905386606853
 40
0.5929830969235718
 50
123.252786939429
 51
176.74721162828402
  0
ARC
  8
_0-0_0
  6
CONTINUOUS
 62
    7
 10
868.09099068599437
 20
391.74410768950838
 40
1.0037802920455698
 50
299.96964764280068
 51
359.8652927366079
  0
ARC
  8
_0-0_0
  6
CONTINUOUS
 62
    7
 10
867.3708390434216
 20
395.3653990742302
 40
1.7510577744433342
 50
128.69887874277109
 51
230.11026168970179
  0
ARC
  8
_0-0_0
  6
CONTINUOUS
 62
    7
 10
858.61113350407868
 20
400.49864950823508
 40
9.1989262990926512
 50
340.68921960574659
 51
67.225501494562863
  0
ARC
  8
_0-0_0
  6
CONTINUOUS
 62
    7
 10
850.6190961863465
 20
384.34970281325309
 40
27.205553709737362
 50
64.871135984864125
 51
85.355495544585466
  0
ARC
  8
_0-0_0
  6
CONTINUOUS
 62
    7
 10
852.90143973174418
 20
412.22433444921148
 40
0.7626077391896903
 50
180.00707258770043
 51
264.02102090251276
  0
ARC
  8
_0-0_0
  6
CONTINUOUS
 62
    7
 10
851.37630870275211
 20
413.80363774018912
 40
0.7625000015141331
 50
359.9984567161909
 51
76.941171480820287
  0
ARC
  8
_0-0_0
  6
CONTINUOUS
 62
    7
 10
853.48909600318621
 20
425.63478945390227
 40
11.232633580217042
 50
227.8432264269216
 51
260.12153934815439
  0
ARC
  8
_0-0_0
  6
CONTINUOUS
 62
    7
 10
851.3318416480422
 20
422.3641256746285
 40
7.3842750147403908
 50
177.48520092564061
 51
223.2141555573325
  0
LINE
  8
_0-0_0
  6
CONTINUOUS
 62
    7
 10
852.13880870398964
 20
412.2242519919152
 11
852.13880870398964
 21
413.80370485895912
  0
ARC
  8
_0-0_0
  6
CONTINUOUS
 62
    7
 10
895.80834316856226
 20
386.17416688292479
 40
0.5929830909201628
 50
303.25278772740921
 51
356.74721153271139
  0
ARC
  8
_0-0_0
  6
CONTINUOUS
 62
    7
 10
895.80834316251207
 20
390.07905386606853
 40
0.5929830969235718
 50
3.252788371715567
 51
56.747213060571042
  0
ARC
  8
_0-0_0
  6
CONTINUOUS
 62
    7
 10
896.11600114251576
 20
391.74410768950838
 40
1.0037802920455698
 50
180.1347072633921
 51
240.03035235719921
  0
ARC
  8
_0-0_0
  6
CONTINUOUS
 62
    7
 10
896.83615278508842
 20
395.3653990742302
 40
1.7510577744433342
 50
309.8897383102983
 51
51.301121257228893
  0
ARC
  8
_0-0_0
  6
CONTINUOUS
 62
    7
 10
905.59585832443145
 20
400.49864950823508
 40
9.1989262990926512
 50
112.77449850543709
 51
199.31078039425341
  0
ARC
  8
_0-0_0
  6
CONTINUOUS
 62
    7
 10
911.30555209676572
 20
412.22433444921148
 40
0.7626077391896903
 50
275.9789790974869
 51
359.99292741229948
  0
ARC
  8
_0-0_0
  6
CONTINUOUS
 62
    7
 10
912.83068312575801
 20
413.80363774018912
 40
0.7625000015141331
 50
103.05882851917929
 51
180.0015432838091
  0
ARC
  8
_0-0_0
  6
CONTINUOUS
 62
    7
 10
910.71789582532369
 20
425.63478945390227
 40
11.232633580217042
 50
279.87846065184567
 51
312.156773573078
  0
ARC
  8
_0-0_0
  6
CONTINUOUS
 62
    7
 10
912.87515018046793
 20
422.3641256746285
 40
7.3842750147403908
 50
316.78584444266733
 51
2.5147990743589985
  0
ARC
  8
_0-0_0
  6
CONTINUOUS
 62
    7
 10
913.58789564216352
 20
384.34970281325309
 40
27.205553709737362
 50
94.644504455414506
 51
115.1288640151358
  0
LINE
  8
_0-0_0
  6
CONTINUOUS
 62
    7
 10
895.87312311280152
 20
393.83095146467087
 11
868.33388393895439
 21
393.83095146482287
  0
LINE
  8
_0-0_0
  6
CONTINUOUS
 62
    7
 10
866.66556189687958
 20
396.9065504640223
 11
897.54156438875293
 21
396.90754894834919
  0
ARC
  8
_0-0_0
  6
CONTINUOUS
 62
    7
 10
872.20717881870075
 20
398.98795581015975
 40
13.305756048856001
 50
252.29831255082462
 51
287.82578925415146
  0
ARC
  8
_0-0_0
  6
CONTINUOUS
 62
    7
 10
882.07030151686365
 20
412.39811153557912
 40
26.712161565670485
 50
257.48166625598969
 51
282.47475605541052
  0
ARC
  8
_0-0_0
  6
CONTINUOUS
 62
    7
 10
891.95033060242451
 20
400.03611878618119
 40
14.321911724641243
 50
253.32339726234392
 51
286.615203875492
  0
ARC
  8
_0-0_0
  6
CONTINUOUS
 62
    7
 10
872.2071788187011
 20
377.26526493564444
 40
13.305756048856001
 50
72.174210745850331
 51
107.7016874491771
  0
ARC
  8
_0-0_0
  6
CONTINUOUS
 62
    7
 10
882.07030151686467
 20
363.85510921022546
 40
26.712161565670485
 50
77.525243944591182
 51
102.51833374401231
  0
ARC
  8
_0-0_0
  6
CONTINUOUS
 62
    7
 10
891.95033060242486
 20
376.21710195962396
 40
14.321911724641243
 50
73.384796124509705
 51
106.6766027376578
  0
LINE
  8
_0-0_0
  6
CONTINUOUS
 62
    7
 10
868.02630661786407
 20
386.58697488984774
 11
868.02630670428073
 21
389.66624587374866
  0
ARC
  8
_0-0_0
  6
CONTINUOUS
 62
    7
 10
868.49251069823958
 20
386.64559912937506
 40
0.4698755643986858
 50
187.16721142580269
 51
225.19921904614151
  0
ARC
  8
_0-0_0
  6
CONTINUOUS
 62
    7
 10
868.43869228632866
 20
389.63408410691545
 40
0.413637821683156
 50
132.09304180774413
 51
175.54055453360621
  0
ARC
  8
_0-0_0
  6
CONTINUOUS
 62
    7
 10
895.7682995101527
 20
386.61913663938049
 40
0.4136378435175419
 50
312.0930450542935
 51
355.54055470125326
  0
ARC
  8
_0-0_0
  6
CONTINUOUS
 62
    7
 10
895.76829964168655
 20
389.63408402918412
 40
0.4136378109584614
 50
4.4594542632330834
 51
47.906975898941944
  0
LINE
  8
_0-0_0
  6
CONTINUOUS
 62
    7
 10
896.18068520810436
 20
389.66624585849729
 11
896.18068511406307
 21
386.58697487205757
  0
LINE
  8
_0-0_0
  6
CONTINUOUS
 62
    7
 10
887.84038075779335
 20
386.31659008716906
 11
887.84038076064303
 21
389.93663065949022
  0
LINE
  8
_0-0_0
  6
CONTINUOUS
 62
    7
 10
876.28038701585126
 20
386.32098620356743
 11
876.28038848745655
 21
389.9322342666369
  0
LINE
  8
_0-0_0
  6
CONTINUOUS
 62
    7
 10
853.38466277066436
 20
342.66143561591093
 11
853.38466277066436
 21
323.86125071071729
  0
LINE
  8
_0-0_0
  6
CONTINUOUS
 62
    7
 10
847.98111946491508
 20
342.91767518196889
 11
847.98111946491508
 21
323.60501114465944
  0
LINE
  8
_0-0_0
  6
CONTINUOUS
 62
    7
 10
843.96374891230209
 20
324.5766329761546
 11
843.96374891230209
 21
341.94605335047333
  0
LINE
  8
_0-0_0
  6
CONTINUOUS
 62
    7
 10
833.16940640809185
 20
319.94738509278545
 11
833.16940640809185
 21
346.57530123384288
  0
LINE
  8
_0-0_0
  6
CONTINUOUS
 62
    7
 10
830.05227879624272
 20
319.33254052886338
 11
830.05227879624272
 21
347.19014579522286
  0
LINE
  8
_0-0_0
  6
CONTINUOUS
 62
    7
 10
825.86661815729883
 20
320.90323949178463
 11
825.86661815729883
 21
345.61944683484353
  0
LINE
  8
_0-0_0
  6
CONTINUOUS
 62
    7
 10
828.7145584091769
 20
320.15274736485651
 11
826.61711028422701
 21
320.15274736485651
  0
LINE
  8
_0-0_0
  6
CONTINUOUS
 62
    7
 10
847.98111946491508
 20
323.60501114465944
 11
845.27397991879172
 21
323.60501114465944
  0
LINE
  8
_0-0_0
  6
CONTINUOUS
 62
    7
 10
882.10373198068669
 20
325.75642190921872
 11
853.38466277066436
 21
325.75642190547023
  0
LINE
  8
_0-0_0
  6
CONTINUOUS
 62
    7
 10
874.59871098360293
 20
340.76625770805219
 11
853.38466277066436
 21
340.7662644211581
  0
LINE
  8
_0-0_0
  6
CONTINUOUS
 62
    7
 10
847.98111946491508
 20
342.91767518196889
 11
845.27397991879172
 21
342.91767518196889
  0
LINE
  8
_0-0_0
  6
CONTINUOUS
 62
    7
 10
828.7145584091769
 20
346.36993895923013
 11
826.61711028422701
 21
346.36993895923013
  0
ARC
  8
_0-0_0
  6
CONTINUOUS
 62
    7
 10
841.64300700611898
 20
316.60748316807803
 40
9.4061679776161391
 50
107.5652529273999
 51
146.08431210719999
  0
ARC
  8
_0-0_0
  6
CONTINUOUS
 62
    7
 10
840.46524679446975
 20
320.3280809763105
 40
5.5036089231814298
 50
50.529994488699877
 51
107.56525292739991
  0
ARC
  8
_0-0_0
  6
CONTINUOUS
 62
    7
 10
850.67681559404127
 20
323.86125071071729
 40
2.7078471766230776
 50
185.42993915629978
 51
0
  0
ARC
  8
_0-0_0
  6
CONTINUOUS
 62
    7
 10
842.39769411575458
 20
322.67482899977847
 40
2.4636123851454732
 50
33.873292389600103
 51
50.529994488799936
  0
ARC
  8
_0-0_0
  6
CONTINUOUS
 62
    7
 10
845.27397991879172
 20
324.60566731135543
 40
1.000656166695866
 50
213.8732923896001
 51
270
  0
ARC
  8
_0-0_0
  6
CONTINUOUS
 62
    7
 10
841.64300700611898
 20
349.91520315855013
 40
9.4061679776161391
 50
213.91568789279989
 51
252.43474707259998
  0
ARC
  8
_0-0_0
  6
CONTINUOUS
 62
    7
 10
840.46524679446975
 20
346.19460535031777
 40
5.5036089231814298
 50
252.43474707259998
 51
309.47000551130009
  0
ARC
  8
_0-0_0
  6
CONTINUOUS
 62
    7
 10
850.67681559404127
 20
342.66143561591093
 40
2.7078471766230776
 50
0
 51
174.57006084369991
  0
ARC
  8
_0-0_0
  6
CONTINUOUS
 62
    7
 10
842.39769411575458
 20
343.84785732684986
 40
2.4636123851454732
 50
309.47000551119993
 51
326.12670761039988
  0
ARC
  8
_0-0_0
  6
CONTINUOUS
 62
    7
 10
845.27397991879172
 20
341.9170190127312
 40
1.000656166695866
 50
90
 51
146.1267076103999
  0
ARC
  8
_0-0_0
  6
CONTINUOUS
 62
    7
 10
837.15882504254523
 20
319.62251092432905
 40
4.0026246718667977
 50
146.08431210709998
 51
175.34445055899999
  0
ARC
  8
_0-0_0
  6
CONTINUOUS
 62
    7
 10
831.52377122252335
 20
320.08139568775039
 40
1.6510826761919288
 50
206.97193477179999
 51
355.34445055879991
  0
ARC
  8
_0-0_0
  6
CONTINUOUS
 62
    7
 10
828.7145584091769
 20
318.65176311354196
 40
1.5009842513146323
 50
26.971934771399948
 51
90
  0
ARC
  8
_0-0_0
  6
CONTINUOUS
 62
    7
 10
826.61711028422701
 20
320.90323949178463
 40
0.7504921269281495
 50
180
 51
270
  0
ARC
  8
_0-0_0
  6
CONTINUOUS
 62
    7
 10
837.15882504254523
 20
346.90017540229906
 40
4.0026246718667977
 50
184.65554944099992
 51
213.91568789290002
  0
ARC
  8
_0-0_0
  6
CONTINUOUS
 62
    7
 10
831.52377122252335
 20
346.4412906388776
 40
1.6510826761919288
 50
4.6555494412000638
 51
153.02806522819986
  0
ARC
  8
_0-0_0
  6
CONTINUOUS
 62
    7
 10
828.7145584091769
 20
347.87092321054467
 40
1.5009842513146323
 50
270
 51
333.02806522859993
  0
ARC
  8
_0-0_0
  6
CONTINUOUS
 62
    7
 10
826.61711028422701
 20
345.61944683484353
 40
0.7504921269281495
 50
90
 51
180
  0
ARC
  8
_0-0_0
  6
CONTINUOUS
 62
    7
 10
882.10349486973905
 20
333.26184469440796
 40
7.5049213959305394
 50
180.00785108662112
 51
359.9728420778373
  0
LINE
  8
_0-0_0
  6
CONTINUOUS
 62
    7
 10
280.94680267348008
 20
353.67472898602279
 11
263.26018496291067
 21
353.67472898602279
  0
LINE
  8
_0-0_0
  6
CONTINUOUS
 62
    7
 10
281.10939932735403
 20
356.316461266913
 11
263.09758830903672
 21
356.316461266913
  0
LINE
  8
_0-0_0
  6
CONTINUOUS
 62
    7
 10
242.13880660920083
 20
412.22425199191537
 11
242.13880660920083
 21
413.80370485895935
  0
LINE
  8
_0-0_0
  6
CONTINUOUS
 62
    7
 10
284.92792868326916
 20
384.9822457933941
 11
286.13349381324451
 21
385.67827914604493
  0
LINE
  8
_0-0_0
  6
CONTINUOUS
 62
    7
 10
257.80661882067466
 20
390.11270054263179
 11
257.80661882067466
 21
386.14052020571535
  0
LINE
  8
_0-0_0
  6
CONTINUOUS
 62
    7
 10
259.09636296954477
 20
393.06844102385668
 11
259.09636296954477
 21
391.74176673791283
  0
LINE
  8
_0-0_0
  6
CONTINUOUS
 62
    7
 10
259.59529172178873
 20
382.56367254727832
 11
259.59529172178873
 21
384.16472241602543
  0
LINE
  8
_0-0_0
  6
CONTINUOUS
 62
    7
 10
283.86105186209068
 20
381.81318042035053
 11
260.34593577430041
 21
381.81318042035053
  0
LINE
  8
_0-0_0
  6
CONTINUOUS
 62
    7
 10
284.67776219333484
 20
384.91521454041191
 11
283.86120378767384
 21
384.91521454041191
  0
LINE
  8
_0-0_0
  6
CONTINUOUS
 62
    7
 10
262.09693213979915
 20
379.93160056951075
 11
262.09693213979915
 21
381.06268829596382
  0
LINE
  8
_0-0_0
  6
CONTINUOUS
 62
    7
 10
263.09758830903672
 20
356.316461266913
 11
263.09758830903672
 21
358.4170587761119
  0
LINE
  8
_0-0_0
  6
CONTINUOUS
 62
    7
 10
264.5985725603515
 20
353.67472898602279
 11
264.59857430858062
 21
333.2582873981267
  0
LINE
  8
_0-0_0
  6
CONTINUOUS
 62
    7
 10
259.27905895058007
 20
384.9822457933941
 11
258.07349382060454
 21
385.67827914604493
  0
LINE
  8
_0-0_0
  6
CONTINUOUS
 62
    7
 10
256.75270333286778
 20
393.83094102365669
 11
258.33386877491137
 21
393.83094102365669
  0
LINE
  8
_0-0_0
  6
CONTINUOUS
 62
    7
 10
285.87312101681289
 20
393.83094102365669
 11
287.45428430098144
 21
393.83094102365669
  0
LINE
  8
_0-0_0
  6
CONTINUOUS
 62
    7
 10
258.07349382060454
 20
390.57494159976073
 11
258.59241815171856
 21
390.87454270318221
  0
LINE
  8
_0-0_0
  6
CONTINUOUS
 62
    7
 10
279.60841507603948
 20
353.67472898602279
 11
279.60819948695473
 21
333.26134316458558
  0
LINE
  8
_0-0_0
  6
CONTINUOUS
 62
    7
 10
281.10939932735403
 20
356.316461266913
 11
281.10939932735403
 21
358.4170587761119
  0
LINE
  8
_0-0_0
  6
CONTINUOUS
 62
    7
 10
282.1100554940499
 20
379.93160056951075
 11
282.1100554940499
 21
381.06268829596382
  0
LINE
  8
_0-0_0
  6
CONTINUOUS
 62
    7
 10
286.13349381324451
 20
390.57494159976073
 11
285.61456947958902
 21
390.87454270318221
  0
LINE
  8
_0-0_0
  6
CONTINUOUS
 62
    7
 10
284.61169591460202
 20
382.56367254727832
 11
284.61169591460202
 21
384.16472241602543
  0
LINE
  8
_0-0_0
  6
CONTINUOUS
 62
    7
 10
285.11062466684632
 20
393.06844102385668
 11
285.11062466684632
 21
391.74176673791283
  0
LINE
  8
_0-0_0
  6
CONTINUOUS
 62
    7
 10
286.40036881317457
 20
386.14052020571535
 11
286.40036881317457
 21
390.11270054263179
  0
LINE
  8
_0-0_0
  6
CONTINUOUS
 62
    7
 10
302.65839310741012
 20
414.54641841076489
 11
241.5485945264389
 21
414.54641841076489
  0
LINE
  8
_0-0_0
  6
CONTINUOUS
 62
    7
 10
233.95183737084821
 20
422.68812870421243
 11
310.2523114627935
 21
422.68812870421243
  0
LINE
  8
_0-0_0
  6
CONTINUOUS
 62
    7
 10
302.06818102719001
 20
413.80370485895935
 11
302.06818102719001
 21
412.22425199191537
  0
ARC
  8
_0-0_0
  6
CONTINUOUS
 62
    7
 10
261.59660405772217
 20
358.4170587761119
 40
1.5009842513146323
 50
0
 51
55.024854214199934
  0
ARC
  8
_0-0_0
  6
CONTINUOUS
 62
    7
 10
282.61038357866869
 20
358.4170587761119
 40
1.5009842513146323
 50
124.9751457857999
 51
179.99999999999989
  0
ARC
  8
_0-0_0
  6
CONTINUOUS
 62
    7
 10
280.94681194548031
 20
355.00059840746655
 40
1.3258694214438975
 50
269.99999999999989
 51
82.956261716200061
  0
ARC
  8
_0-0_0
  6
CONTINUOUS
 62
    7
 10
263.26017569091078
 20
355.00059840746655
 40
1.3258694214438975
 50
97.043738283799726
 51
269.99999999999989
  0
ARC
  8
_0-0_0
  6
CONTINUOUS
 62
    7
 10
274.81509855033835
 20
369.56016435518916
 40
12.098106549951728
 50
304.97514578580001
 51
49.698960011600001
  0
ARC
  8
_0-0_0
  6
CONTINUOUS
 62
    7
 10
269.39188908605246
 20
369.56016435518916
 40
12.098106549951728
 50
130.30103998839991
 51
235.02485421419993
  0
ARC
  8
_0-0_0
  6
CONTINUOUS
 62
    7
 10
260.5959478884846
 20
379.93160056951075
 40
1.5009842513146323
 50
310.30103998860022
 51
0
  0
ARC
  8
_0-0_0
  6
CONTINUOUS
 62
    7
 10
283.61103974536462
 20
379.93160056951075
 40
1.5009842513146323
 50
179.99999999999986
 51
229.69896001139981
  0
ARC
  8
_0-0_0
  6
CONTINUOUS
 62
    7
 10
285.87310579222947
 20
393.06845193014846
 40
0.7624995346750002
 50
89.998856095200068
 51
180.00008290880021
  0
ARC
  8
_0-0_0
  6
CONTINUOUS
 62
    7
 10
258.33388184161959
 20
393.06845193014846
 40
0.7624995346750002
 50
359.99991709189987
 51
90.001143905599662
  0
ARC
  8
_0-0_0
  6
CONTINUOUS
 62
    7
 10
256.77013568157133
 20
396.15125719813136
 40
0.7624985459666668
 50
97.882902210400047
 51
130.39186236340021
  0
ARC
  8
_0-0_0
  6
CONTINUOUS
 62
    7
 10
287.43685195227772
 20
396.15125719813136
 40
0.7624985459666668
 50
49.608137645299649
 51
82.117097791199754
  0
ARC
  8
_0-0_0
  6
CONTINUOUS
 62
    7
 10
287.45450283348146
 20
394.59347659662342
 40
0.7624984493833336
 50
270.00718125560002
 51
311.43740953539992
  0
ARC
  8
_0-0_0
  6
CONTINUOUS
 62
    7
 10
256.75248484865949
 20
394.59347657628967
 40
0.7624984417583335
 50
228.56258688460011
 51
269.99281535030002
  0
ARC
  8
_0-0_0
  6
CONTINUOUS
 62
    7
 10
256.55832914837703
 20
397.66248774906842
 40
0.7624973361333341
 50
278.07414764060002
 51
344.33768523849977
  0
ARC
  8
_0-0_0
  6
CONTINUOUS
 62
    7
 10
287.6486584854722
 20
397.66248775923515
 40
0.7624973361333341
 50
195.66231536430001
 51
261.92585247549971
  0
ARC
  8
_0-0_0
  6
CONTINUOUS
 62
    7
 10
283.86120378767384
 20
384.16472241602543
 40
0.7504921269281495
 50
0
 51
89.999999999999886
  0
ARC
  8
_0-0_0
  6
CONTINUOUS
 62
    7
 10
260.34578384617521
 20
384.16472241602543
 40
0.7504921269281495
 50
89.999999999999915
 51
179.99999999999989
  0
ARC
  8
_0-0_0
  6
CONTINUOUS
 62
    7
 10
260.34578384617521
 20
382.56367254727832
 40
0.7504921269281495
 50
179.99999999999986
 51
269.99999999999989
  0
ARC
  8
_0-0_0
  6
CONTINUOUS
 62
    7
 10
283.86120378767384
 20
382.56367254727832
 40
0.7504921269281495
 50
269.99999999999989
 51
0.0000000000000127
  0
ARC
  8
_0-0_0
  6
CONTINUOUS
 62
    7
 10
261.34644001541278
 20
381.06268829596382
 40
0.7504921269281495
 50
0
 51
89.999999999999886
  0
ARC
  8
_0-0_0
  6
CONTINUOUS
 62
    7
 10
282.86054762097808
 20
381.06268829596382
 40
0.7504921269281495
 50
89.999999999999915
 51
179.99999999999989
  0
ARC
  8
_0-0_0
  6
CONTINUOUS
 62
    7
 10
284.67776464095977
 20
385.41554262503041
 40
0.5003280846187664
 50
269.99999999999989
 51
300.0000000001001
  0
ARC
  8
_0-0_0
  6
CONTINUOUS
 62
    7
 10
259.52922299288946
 20
385.41554262503041
 40
0.5003280846187664
 50
239.99999999990004
 51
269.99999999999989
  0
ARC
  8
_0-0_0
  6
CONTINUOUS
 62
    7
 10
285.80834107123178
 20
386.17416688292519
 40
0.5929830909201628
 50
303.25278772740961
 51
356.74721153271139
  0
ARC
  8
_0-0_0
  6
CONTINUOUS
 62
    7
 10
285.80834106518193
 20
390.0790538660691
 40
0.5929830969235718
 50
3.2527883717159054
 51
56.747213060570942
  0
ARC
  8
_0-0_0
  6
CONTINUOUS
 62
    7
 10
286.11599904518516
 20
391.7441076895085
 40
1.0037802920455698
 50
180.1347072633921
 51
240.03035235719921
  0
ARC
  8
_0-0_0
  6
CONTINUOUS
 62
    7
 10
286.83615068775805
 20
395.36539907423077
 40
1.7510577744433342
 50
309.8897383102983
 51
51.301121257228893
  0
ARC
  8
_0-0_0
  6
CONTINUOUS
 62
    7
 10
295.59585622710102
 20
400.49864950823564
 40
9.1989262990926512
 50
112.77449850543699
 51
199.3107803942533
  0
ARC
  8
_0-0_0
  6
CONTINUOUS
 62
    7
 10
303.58789354483338
 20
384.34970281325366
 40
27.205553709737362
 50
94.644504455414435
 51
115.1288640151358
  0
ARC
  8
_0-0_0
  6
CONTINUOUS
 62
    7
 10
301.30554999943558
 20
412.22433444921182
 40
0.7626077391896903
 50
275.97897909748718
 51
359.99292741229948
  0
ARC
  8
_0-0_0
  6
CONTINUOUS
 62
    7
 10
302.83068102842765
 20
413.80363774018946
 40
0.7625000015141331
 50
103.0588285191796
 51
180.00154328380901
  0
ARC
  8
_0-0_0
  6
CONTINUOUS
 62
    7
 10
300.71789372799344
 20
425.63478945390278
 40
11.232633580217042
 50
279.87846065184567
 51
312.15677357307845
  0
ARC
  8
_0-0_0
  6
CONTINUOUS
 62
    7
 10
302.87514808313756
 20
422.36412567462872
 40
7.3842750147403908
 50
316.78584444266733
 51
2.5147990743592787
  0
LINE
  8
_0-0_0
  6
CONTINUOUS
 62
    7
 10
302.06818102719001
 20
412.22425199191537
 11
302.06818102719001
 21
413.80370485895935
  0
ARC
  8
_0-0_0
  6
CONTINUOUS
 62
    7
 10
258.3986465626175
 20
386.17416688292519
 40
0.5929830909201628
 50
183.2527884672885
 51
236.74721227259079
  0
ARC
  8
_0-0_0
  6
CONTINUOUS
 62
    7
 10
258.39864656866752
 20
390.0790538660691
 40
0.5929830969235718
 50
123.2527869394289
 51
176.7472116282843
  0
ARC
  8
_0-0_0
  6
CONTINUOUS
 62
    7
 10
258.09098858866389
 20
391.7441076895085
 40
1.0037802920455698
 50
299.96964764280068
 51
359.86529273660773
  0
ARC
  8
_0-0_0
  6
CONTINUOUS
 62
    7
 10
257.3708369460914
 20
395.36539907423077
 40
1.7510577744433342
 50
128.69887874277109
 51
230.11026168970179
  0
ARC
  8
_0-0_0
  6
CONTINUOUS
 62
    7
 10
248.61113140674817
 20
400.49864950823564
 40
9.1989262990926512
 50
340.68921960574642
 51
67.225501494562849
  0
ARC
  8
_0-0_0
  6
CONTINUOUS
 62
    7
 10
242.90143763441392
 20
412.22433444921182
 40
0.7626077391896903
 50
180.00707258770043
 51
264.0210209025131
  0
ARC
  8
_0-0_0
  6
CONTINUOUS
 62
    7
 10
241.37630660542158
 20
413.80363774018946
 40
0.7625000015141331
 50
359.9984567161909
 51
76.941171480820572
  0
ARC
  8
_0-0_0
  6
CONTINUOUS
 62
    7
 10
243.48909390585604
 20
425.63478945390278
 40
11.232633580217042
 50
227.84322642692189
 51
260.12153934815439
  0
ARC
  8
_0-0_0
  6
CONTINUOUS
 62
    7
 10
241.33183955071203
 20
422.36412567462872
 40
7.3842750147403908
 50
177.48520092564101
 51
223.21415555733259
  0
ARC
  8
_0-0_0
  6
CONTINUOUS
 62
    7
 10
240.61909408901627
 20
384.34970281325366
 40
27.205553709737362
 50
64.871135984864111
 51
85.355495544585466
  0
LINE
  8
_0-0_0
  6
CONTINUOUS
 62
    7
 10
258.33386661837835
 20
393.83095146467144
 11
285.87310579222532
 21
393.83095146482333
  0
LINE
  8
_0-0_0
  6
CONTINUOUS
 62
    7
 10
287.54142783430012
 20
396.90655046402242
 11
256.66542534242666
 21
396.9075489483497
  0
ARC
  8
_0-0_0
  6
CONTINUOUS
 62
    7
 10
281.99981091247889
 20
398.98795581016032
 40
13.305756048856001
 50
252.17421074584871
 51
287.70168744917532
  0
ARC
  8
_0-0_0
  6
CONTINUOUS
 62
    7
 10
272.13668821431611
 20
412.39811153557952
 40
26.712161565670485
 50
257.52524394458942
 51
282.51833374401031
  0
ARC
  8
_0-0_0
  6
CONTINUOUS
 62
    7
 10
262.25665912875542
 20
400.03611878618159
 40
14.321911724641243
 50
253.38479612450803
 51
286.67660273765603
  0
ARC
  8
_0-0_0
  6
CONTINUOUS
 62
    7
 10
281.99981091247867
 20
377.26526493564478
 40
13.305756048856001
 50
72.298312550822885
 51
107.8257892541496
  0
ARC
  8
_0-0_0
  6
CONTINUOUS
 62
    7
 10
272.13668821431509
 20
363.85510921022592
 40
26.712161565670485
 50
77.481666255987676
 51
102.47475605540872
  0
ARC
  8
_0-0_0
  6
CONTINUOUS
 62
    7
 10
262.25665912875485
 20
376.21710195962436
 40
14.321911724641243
 50
73.323397262342155
 51
106.6152038754902
  0
LINE
  8
_0-0_0
  6
CONTINUOUS
 62
    7
 10
286.18068311331558
 20
386.58697488984831
 11
286.18068302689892
 21
389.66624587374918
  0
ARC
  8
_0-0_0
  6
CONTINUOUS
 62
    7
 10
285.71447903294018
 20
386.64559912937546
 40
0.4698755643986858
 50
314.80078095385835
 51
352.83278857419702
  0
ARC
  8
_0-0_0
  6
CONTINUOUS
 62
    7
 10
285.76829744485099
 20
389.63408410691585
 40
0.413637821683156
 50
4.459445466393734
 51
47.906958192255743
  0
ARC
  8
_0-0_0
  6
CONTINUOUS
 62
    7
 10
258.43869022102706
 20
386.61913663938083
 40
0.4136378435175419
 50
184.4594452987468
 51
227.9069549457065
  0
ARC
  8
_0-0_0
  6
CONTINUOUS
 62
    7
 10
258.43869008949298
 20
389.63408402918435
 40
0.4136378109584614
 50
132.09302410105801
 51
175.5405457367668
  0
LINE
  8
_0-0_0
  6
CONTINUOUS
 62
    7
 10
258.02630452307528
 20
389.66624585849786
 11
258.02630461711669
 21
386.58697487205768
  0
LINE
  8
_0-0_0
  6
CONTINUOUS
 62
    7
 10
266.36660897338618
 20
386.3165900871694
 11
266.36660897053673
 21
389.93663065949056
  0
LINE
  8
_0-0_0
  6
CONTINUOUS
 62
    7
 10
277.9266027153285
 20
386.32098620356794
 11
277.92660124372304
 21
389.93223426663747
  0
LINE
  8
_0-0_0
  6
CONTINUOUS
 62
    7
 10
300.82232696051534
 20
342.66143561591122
 11
300.82232696051534
 21
323.86125071071746
  0
LINE
  8
_0-0_0
  6
CONTINUOUS
 62
    7
 10
306.22587026626479
 20
342.91767518196906
 11
306.22587026626479
 21
323.60501114466001
  0
LINE
  8
_0-0_0
  6
CONTINUOUS
 62
    7
 10
310.24324081887767
 20
324.57663297615483
 11
310.24324081887767
 21
341.94605335047385
  0
LINE
  8
_0-0_0
  6
CONTINUOUS
 62
    7
 10
321.03758332308769
 20
319.94738509278585
 11
321.03758332308803
 21
346.57530123384305
  0
LINE
  8
_0-0_0
  6
CONTINUOUS
 62
    7
 10
324.15471093493704
 20
319.33254052886338
 11
324.15471093493704
 21
347.1901457952232
  0
LINE
  8
_0-0_0
  6
CONTINUOUS
 62
    7
 10
328.34037157388082
 20
320.9032394917848
 11
328.34037157388082
 21
345.61944683484353
  0
LINE
  8
_0-0_0
  6
CONTINUOUS
 62
    7
 10
325.49243132200286
 20
320.15274736485651
 11
327.58987944695264
 21
320.15274736485651
  0
LINE
  8
_0-0_0
  6
CONTINUOUS
 62
    7
 10
306.22587026626479
 20
323.60501114466001
 11
308.93300981238792
 21
323.60501114466001
  0
LINE
  8
_0-0_0
  6
CONTINUOUS
 62
    7
 10
272.1032577504933
 20
325.75642190921883
 11
300.82232696051534
 21
325.75642190547046
  0
LINE
  8
_0-0_0
  6
CONTINUOUS
 62
    7
 10
279.60827874757672
 20
340.76625770805236
 11
300.82232696051534
 21
340.76626442115855
  0
LINE
  8
_0-0_0
  6
CONTINUOUS
 62
    7
 10
306.22587026626479
 20
342.91767518196906
 11
308.93300981238792
 21
342.91767518196906
  0
LINE
  8
_0-0_0
  6
CONTINUOUS
 62
    7
 10
325.49243132200286
 20
346.36993895923013
 11
327.58987944695264
 21
346.36993895923013
  0
ARC
  8
_0-0_0
  6
CONTINUOUS
 62
    7
 10
312.56398272506061
 20
316.60748316807855
 40
9.4061679776161391
 50
33.915687892799923
 51
72.434747072600047
  0
ARC
  8
_0-0_0
  6
CONTINUOUS
 62
    7
 10
313.74174293671001
 20
320.32808097631096
 40
5.5036089231814298
 50
72.434747072600047
 51
129.47000551130009
  0
ARC
  8
_0-0_0
  6
CONTINUOUS
 62
    7
 10
303.53017413713826
 20
323.86125071071746
 40
2.7078471766230776
 50
179.99999999999986
 51
354.57006084370011
  0
ARC
  8
_0-0_0
  6
CONTINUOUS
 62
    7
 10
311.80929561542513
 20
322.67482899977864
 40
2.4636123851454732
 50
129.47000551119999
 51
146.12670761039979
  0
ARC
  8
_0-0_0
  6
CONTINUOUS
 62
    7
 10
308.93300981238792
 20
324.60566731135555
 40
1.000656166695866
 50
269.99999999999989
 51
326.12670761039988
  0
ARC
  8
_0-0_0
  6
CONTINUOUS
 62
    7
 10
312.56398272506061
 20
349.9152031585503
 40
9.4061679776161391
 50
287.56525292740002
 51
326.08431210719999
  0
ARC
  8
_0-0_0
  6
CONTINUOUS
 62
    7
 10
313.74174293671001
 20
346.19460535031794
 40
5.5036089231814298
 50
230.52999448869991
 51
287.56525292740002
  0
ARC
  8
_0-0_0
  6
CONTINUOUS
 62
    7
 10
303.53017413713826
 20
342.66143561591122
 40
2.7078471766230776
 50
5.4299391562999881
 51
179.99999999999989
  0
ARC
  8
_0-0_0
  6
CONTINUOUS
 62
    7
 10
311.80929561542513
 20
343.8478573268502
 40
2.4636123851454732
 50
213.8732923896001
 51
230.52999448880001
  0
ARC
  8
_0-0_0
  6
CONTINUOUS
 62
    7
 10
308.93300981238792
 20
341.91701901273166
 40
1.000656166695866
 50
33.873292389600053
 51
89.999999999999929
  0
ARC
  8
_0-0_0
  6
CONTINUOUS
 62
    7
 10
317.0481646886343
 20
319.62251092432928
 40
4.0026246718667977
 50
4.6555494409998781
 51
33.915687892899911
  0
ARC
  8
_0-0_0
  6
CONTINUOUS
 62
    7
 10
322.6832185086563
 20
320.08139568775039
 40
1.6510826761919288
 50
184.65554944120004
 51
333.02806522819992
  0
ARC
  8
_0-0_0
  6
CONTINUOUS
 62
    7
 10
325.49243132200286
 20
318.6517631135423
 40
1.5009842513146323
 50
89.999999999999915
 51
153.02806522860001
  0
ARC
  8
_0-0_0
  6
CONTINUOUS
 62
    7
 10
327.58987944695264
 20
320.9032394917848
 40
0.7504921269281495
 50
269.99999999999989
 51
0.0000000000000127
  0
ARC
  8
_0-0_0
  6
CONTINUOUS
 62
    7
 10
317.0481646886343
 20
346.90017540229945
 40
4.0026246718667977
 50
326.08431210710012
 51
355.34445055899999
  0
ARC
  8
_0-0_0
  6
CONTINUOUS
 62
    7
 10
322.6832185086563
 20
346.44129063887806
 40
1.6510826761919288
 50
26.97193477179999
 51
175.34445055879991
  0
ARC
  8
_0-0_0
  6
CONTINUOUS
 62
    7
 10
325.49243132200286
 20
347.87092321054467
 40
1.5009842513146323
 50
206.97193477140013
 51
269.99999999999989
  0
ARC
  8
_0-0_0
  6
CONTINUOUS
 62
    7
 10
327.58987944695264
 20
345.61944683484353
 40
0.7504921269281495
 50
0
 51
89.999999999999886
  0
ARC
  8
_0-0_0
  6
CONTINUOUS
 62
    7
 10
272.10349486144054
 20
333.26184469440847
 40
7.5049213959305394
 50
180.02715792216267
 51
359.99214891337874
  0
LINE
  8
_0-0_0
  6
CONTINUOUS
 62
    7
 10
260.34578384617521
 20
384.91521454041191
 11
259.52922572263947
 21
384.91521454041191
  0
LINE
  8
_0-0_0
  6
CONTINUOUS
 62
    7
 10
893.86120588500432
 20
384.91521454041134
 11
894.67776400854041
 21
384.91521454041134
  0
LINE
  8
_1-0____-16
  6
CONTINUOUS
 62
    7
 10
272.10491523435894
 20
783.49096505428395
 11
272.10491523435894
 21
782.18263634107245
  0
LINE
  8
_1-0____-16
  6
CENTER1
 62
    7
 10
272.10491523435894
 20
782.18263634107245
 11
272.10491523435894
 21
674.99423302814023
  0
LINE
  8
_1-0____-16
  6
CENTER1
 62
    7
 10
882.1049153156298
 20
782.18263634107245
 11
882.1049153156298
 21
694.30251189524256
  0
LINE
  8
_f-0____-240
  6
CONTINUOUS
 62
    7
 10
72.960954729070977
 20
136.08845421350054
 11
1391.280690635117
 21
136.08845421350054
  0
LINE
  8
_f-0____-240
  6
CONTINUOUS
 62
    7
 10
46.749389292405112
 20
1020.5715019247659
 11
1417.582036974429
 21
1020.5715019247659
  0
LINE
  8
_f-0____-240
  6
CONTINUOUS
 62
    7
 10
1417.582036974429
 20
1020.5715019247659
 11
1417.582036974429
 21
51.295892452627641
  0
LINE
  8
_f-0____-240
  6
CONTINUOUS
 62
    7
 10
1417.582036974429
 20
51.295892452627641
 11
46.749389292405112
 21
51.295892452627641
  0
LINE
  8
_f-0____-240
  6
CONTINUOUS
 62
    7
 10
46.749389292405112
 20
51.295892452627641
 11
46.749389292405112
 21
1020.5715019247659
  0
TEXT
  8
_f-0____-240
 62
    7
 10
916.45209236573589
 20
94.288290398999095
 40
17.308493026288119
 41
1.0000000000000038
 50
0
  1
19/04/18
  0
LINE
  8
_f-0____-240
  6
CONTINUOUS
 62
    7
 10
72.960954729070977
 20
77.315689013500446
 11
1391.280690635117
 21
77.315689013500446
  0
LINE
  8
_f-0____-240
  6
CONTINUOUS
 62
    7
 10
72.960954729070977
 20
136.08845421350054
 11
72.960954729070977
 21
77.315689013500446
  0
LINE
  8
_f-0____-240
  6
CONTINUOUS
 62
    7
 10
542.27986562907085
 20
136.08845421350054
 11
542.27986562907085
 21
77.315689013500446
  0
LINE
  8
_f-0____-240
  6
CONTINUOUS
 62
    7
 10
760.6622185790709
 20
136.08845421350054
 11
760.6622185790709
 21
77.315689013500446
  0
LINE
  8
_f-0____-240
  6
CONTINUOUS
 62
    7
 10
877.57398327907083
 20
136.08845421350054
 11
877.57398327907083
 21
77.315689013500446
  0
LINE
  8
_f-0____-240
  6
CONTINUOUS
 62
    7
 10
1013.235747979071
 20
136.08845421350054
 11
1013.235747979071
 21
77.315689013500446
  0
LINE
  8
_f-0____-240
  6
CONTINUOUS
 62
    7
 10
1391.2806906290709
 20
136.08845421350054
 11
1391.2806906290709
 21
77.315689013500446
  0
TEXT
  8
_f-0____-240
 62
    7
 10
1087.3767701525044
 20
82.145288671023877
 40
17.308493026287977
 41
1.000000000000012
 50
0
  1
日鉄物産マテックス株式会社
  0
TEXT
  8
_f-0____-240
 62
    7
 10
785.78289870543972
 20
96.500733781166517
 40
17.308493026288048
 41
1.0000000000000095
 50
0
  1
S=1/5
  0
TEXT
  8
_1-0____-16
 62
    7
 10
199.30827886710247
 20
724.26470588235293
 40
20
 41
1
 50
90
  1
φ76
  0
TEXT
  8
_1-0____-16
 62
    7
 10
1227.7056100217865
 20
724.76511437908493
 40
20
 41
1
 50
90
  1
φ76
  0
LINE
  8
ADD_LINE
  6
DOT
 62
    9
 10
72.960954729070977
 20
106.29765795200051
 11
1391.280690635117
 21
106.29765795200051
  0
LINE
  8
ADD_LINE
  6
DOT
 62
    9
 10
72.960954729070977
 20
87.882020092000559
 11
1391.280690635117
 21
87.882020092000559
  0
LINE
  8
ADD_LINE
  6
DOT
 62
    9
 10
552.26534132157099
 20
136.08845421350054
 11
552.26534132157099
 21
77.315689013500446
  0
LINE
  8
ADD_LINE
  6
DOT
 62
    9
 10
1021.2649782135711
 20
136.08845421350054
 11
1021.2649782135711
 21
77.315689013500446
  0
LINE
  8
ADD_LINE
  6
DOT
 62
    9
 10
992.80637254901967
 20
114.19374848700052
 11
1391.280690635117
 21
114.19374848700052
  0
TEXT
  8
_f-0____-240
 62
    7
 10
552.26534132157099
 20
87.882020092000559
 40
17.308493026288048
 41
1.0000000000000056
 50
0
  1
K-72568
  0
TEXT
  8
_f-0____-240
 62
    7
 10
552.26534132157099
 20
106.29765795200051
 40
17.308493026288048
 41
1.0000000000000056
 50
0
  1
タオルバー
  0
TEXT
  8
_f-0____-240
 62
    7
 10
1021.2649782135711
 20
114.19374848700052
 40
17.308493026288048
 41
1.000000000000008
 50
0
  1
KOHLER　アーティファクツ
  0
ENDSEC
  0
EOF
