  0
SECTION
  2
HEADER
  9
$ACADVER
  1
AC1009
  9
$INSBASE
 10
0
 20
0
 30
0
  9
$EXTMIN
 10
0
 20
0
  9
$EXTMAX
 10
1485
 20
1050
  9
$LIMMIN
 10
0
 20
0
  9
$LIMMAX
 10
1485
 20
1050
  9
$LTSCALE
 40
5
  0
ENDSEC
  0
SECTION
  2
TABLES
  0
TABLE
  2
LTYPE
 70
     9
  0
LTYPE
  2
CONTINUOUS
 70
    64
  3
実線
 72
    65
 73
     0
 40
0.0
  0
LTYPE
  2
DASHED1
 70
    64
  3
--  --  --  --  --  --  --  --  
 72
    65
 73
     2
 40
2.5
 49
1.25
 49
-1.25
  0
LTYPE
  2
DASHED2
 70
    64
  3
----    ----    ----    ----    
 72
    65
 73
     2
 40
5.0
 49
2.5
 49
-2.5
  0
LTYPE
  2
DASHED3
 70
    64
  3
------  ------  ------  ------  
 72
    65
 73
     2
 40
5.0
 49
3.75
 49
-1.25
  0
LTYPE
  2
CENTER1
 70
    64
  3
----- - ----- - ----- - ----- - 
 72
    65
 73
     4
 40
10.0
 49
6.25
 49
-1.25
 49
1.25
 49
-1.25
  0
LTYPE
  2
CENTER2
 70
    64
  3
----------  --  ----------  --  
 72
    65
 73
     4
 40
20.0
 49
12.5
 49
-2.5
 49
2.5
 49
-2.5
  0
LTYPE
  2
PHANTOM1
 70
    64
  3
--- - - --- - - --- - - --- - - 
 72
    65
 73
     6
 40
10.0
 49
3.25
 49
-1.25
 49
1.25
 49
-1.25
 49
1.25
 49
-1.25
  0
LTYPE
  2
PHANTOM2
 70
    64
  3
--------  -  -  --------  -  -  
 72
    65
 73
     6
 40
20.0
 49
10.0
 49
-2.5
 49
1.25
 49
-2.5
 49
1.25
 49
-2.5
  0
LTYPE
  2
DOT
 70
    64
  3
-   -   -   -   -   -   -   -   
 72
    65
 73
     2
 40
2.5
 49
0.625
 49
-1.875
  0
LTYPE
  2
DUMMY
 70
    64
  3
ダミー
 72
    65
 73
     0
 40
0.0
  0
LTYPE
  2
RAND1
 70
    64
  3
ランダム線1
 72
    65
 73
     4
 40
10.0
 49
1.0
 49
-2.0
 49
3.0
 49
-4.0
  0
LTYPE
  2
RAND2
 70
    64
  3
ランダム線2
 72
    65
 73
     4
 40
14.0
 49
2.0
 49
-3.0
 49
4.0
 49
-5.0
  0
LTYPE
  2
RAND3
 70
    64
  3
ランダム線3
 72
    65
 73
     4
 40
18.0
 49
3.0
 49
-4.0
 49
5.0
 49
-6.0
  0
LTYPE
  2
RAND4
 70
    64
  3
ランダム線4
 72
    65
 73
     4
 40
22.0
 49
4.0
 49
-5.0
 49
6.0
 49
-7.0
  0
LTYPE
  2
RAND5
 70
    64
  3
ランダム線5
 72
    65
 73
     4
 40
26.0
 49
5.0
 49
-6.0
 49
7.0
 49
-8.0
  0
LTYPE
  2
LONG1
 70
    64
  3
----------  --  ----------  --  
 72
    65
 73
     4
 40
40.0
 49
32.5
 49
-2.5
 49
2.5
 49
-2.5
  0
LTYPE
  2
LONG2
 70
    64
  3
--------  -  -  --------  -  -  
 72
    65
 73
     6
 40
40.0
 49
30.0
 49
-2.5
 49
1.25
 49
-2.5
 49
1.25
 49
-2.5
  0
LTYPE
  2
LONG3
 70
    64
  3
+++++++++++++++..+++++++++++++++
 72
    65
 73
     2
 40
40.0
 49
37.5
 49
-2.5
  0
LTYPE
  2
LONG4
 70
    64
  3
+++++++++++++++..+++++++++++++++
 72
    65
 73
     2
 40
80.0
 49
75.0
 49
-5.0
  0
LTYPE
  2
LONG5
 70
    64
  3
----------  --  ----------  --  
 72
    65
 73
     4
 40
60.0
 49
37.5
 49
-7.5
 49
7.5
 49
-7.5
  0
LTYPE
  2
dashed
 70
   64
  3
-------   -------------   ------
 72
   65
 73
    2
 40
7.5
 49
6
 49
-1.5
  0
LTYPE
  2
dashed_spaced
 70
   64
  3
----        --------        ----
 72
   65
 73
    2
 40
12
 49
6
 49
-6
  0
LTYPE
  2
long_dashed_dotted
 70
   64
  3
------------- --- --------------
 72
   65
 73
    4
 40
15.25
 49
12
 49
-1.5
 49
0.25
 49
-1.5
  0
LTYPE
  2
long_dashed_double-dotted
 70
   64
  3
----------- --- --- ------------
 72
   65
 73
    6
 40
17
 49
12
 49
-1.5
 49
0.25
 49
-1.5
 49
0.25
 49
-1.5
  0
LTYPE
  2
long_dashed_triplicate-dotted
 70
   64
  3
--------- --- --- --- ----------
 72
   65
 73
    8
 40
18.75
 49
12
 49
-1.5
 49
0.25
 49
-1.5
 49
0.25
 49
-1.5
 49
0.25
 49
-1.5
  0
LTYPE
  2
dotted
 70
   64
  3
   -       -       -       -    
 72
   65
 73
    2
 40
1.75
 49
0.25
 49
-1.5
  0
LTYPE
  2
chain
 70
   64
  3
-------------- -- --------------
 72
   65
 73
    4
 40
18.5
 49
12
 49
-1.5
 49
3.5
 49
-1.5
  0
LTYPE
  2
chain_double_dash
 70
   64
  3
------------ -- -- -------------
 72
   65
 73
    6
 40
23.5
 49
12
 49
-1.5
 49
3.5
 49
-1.5
 49
3.5
 49
-1.5
  0
LTYPE
  2
dashed_dotted
 70
   64
  3
-----------     -     ----------
 72
   65
 73
    4
 40
9.25
 49
6
 49
-1.5
 49
0.25
 49
-1.5
  0
LTYPE
  2
double-dashed_dotted
 70
   64
  3
------   -----------   -   -----
 72
   65
 73
    6
 40
16.75
 49
6
 49
-1.5
 49
6
 49
-1.5
 49
0.25
 49
-1.5
  0
LTYPE
  2
dashed_double-dotted
 70
   64
  3
---------    -    -    ---------
 72
   65
 73
    6
 40
11
 49
6
 49
-1.5
 49
0.25
 49
-1.5
 49
0.25
 49
-1.5
  0
LTYPE
  2
double-dashed_double-dotted
 70
   64
  3
-----   ---------   -   -   ----
 72
   65
 73
    8
 40
18.5
 49
6
 49
-1.5
 49
6
 49
-1.5
 49
0.25
 49
-1.5
 49
0.25
 49
-1.5
  0
LTYPE
  2
dashed_triplicate-dotted
 70
   64
  3
-------    -    -    -    ------
 72
   65
 73
    8
 40
12.75
 49
6
 49
-1.5
 49
0.25
 49
-1.5
 49
0.25
 49
-1.5
 49
0.25
 49
-1.5
  0
LTYPE
  2
double-dashed_triplicate-dotted
 70
   64
  3
-----  ---------  -  -  -  -----
 72
   65
 73
   10
 40
20.25
 49
6
 49
-1.5
 49
6
 49
-1.5
 49
0.25
 49
-1.5
 49
0.25
 49
-1.5
 49
0.25
 49
-1.5
  0
LTYPE
  2
undefined
 70
   64
  3
--------------------------------
 72
   65
 73
    0
 40
0
  0
LTYPE
  2
_
 70
   64
  3
                                
 72
   65
 73
    0
 40
0
  0
LTYPE
  2
__18
 70
   64
  3
                                
 72
   65
 73
    0
 40
0
  0
LTYPE
  2
__19
 70
   64
  3
                                
 72
   65
 73
    0
 40
0
  0
LTYPE
  2
__20
 70
   64
  3
                                
 72
   65
 73
    0
 40
0
  0
LTYPE
  2
__21
 70
   64
  3
                                
 72
   65
 73
    0
 40
0
  0
LTYPE
  2
__22
 70
   64
  3
                                
 72
   65
 73
    0
 40
0
  0
LTYPE
  2
__23
 70
   64
  3
                                
 72
   65
 73
    0
 40
0
  0
LTYPE
  2
__24
 70
   64
  3
                                
 72
   65
 73
    0
 40
0
  0
LTYPE
  2
__25
 70
   64
  3
                                
 72
   65
 73
    0
 40
0
  0
LTYPE
  2
__26
 70
   64
  3
                                
 72
   65
 73
    0
 40
0
  0
LTYPE
  2
__27
 70
   64
  3
                                
 72
   65
 73
    0
 40
0
  0
LTYPE
  2
__28
 70
   64
  3
                                
 72
   65
 73
    0
 40
0
  0
LTYPE
  2
__29
 70
   64
  3
                                
 72
   65
 73
    0
 40
0
  0
LTYPE
  2
__30
 70
   64
  3
                                
 72
   65
 73
    0
 40
0
  0
LTYPE
  2
__31
 70
   64
  3
                                
 72
   65
 73
    0
 40
0
  0
LTYPE
  2
__32
 70
   64
  3
                                
 72
   65
 73
    0
 40
0
  0
ENDTAB
  0
TABLE
  2
STYLE
  5
3
100
AcDbSymbolTable
 70
     1
  0
STYLE
  5
10
100
AcDbSymbolTableRecord
100
AcDbTextStyleTableRecord
  2
STANDARD
 70
     0
 40
0.0
 41
1.0
 50
0.0
 71
     0
 42
0.2
  3
txt
  4
bigfont.shx
  0
STYLE
  5
26
100
AcDbSymbolTableRecord
100
AcDbTextStyleTableRecord
  2
TATEGAKI
 70
    68
 40
0.0
 41
1.0
 50
0.0
 71
     0
 42
1.0
  3
txt
  4
bigfont.shx
  0
ENDTAB
  0
TABLE
  2
LAYER
 70
    5
  0
LAYER
  2
_0-0_0
 70
   64
 62
    7
  6
CONTINUOUS
  0
LAYER
  2
_0-1_DEFPOINTS
 70
   64
 62
    7
  6
CONTINUOUS
  0
LAYER
  2
_8-0____-128
 70
   64
 62
    7
  6
CONTINUOUS
  0
LAYER
  2
_f-0____-240
 70
   64
 62
    7
  6
CONTINUOUS
  0
LAYER
  2
ADD_LINE
 70
   64
 62
    7
  6
CONTINUOUS
  0
ENDTAB
  0
ENDSEC
  0
SECTION
  2
BLOCKS
  0
ENDSEC
  0
SECTION
  2
ENTITIES
  0
TEXT
  8
_f-0____-240
 62
    7
 10
788.6214691444618
 20
94.07692583173386
 40
17.308493026288048
 41
1.0000000000000095
 50
0
  1
S=1/5
  0
LINE
  8
_0-0_0
  6
CONTINUOUS
 62
    7
 10
469.22382215812172
 20
697.57173571525504
 11
469.22382215812172
 21
646.75906353283744
  0
LINE
  8
_0-0_0
  6
CONTINUOUS
 62
    7
 10
484.96578726534773
 20
697.57173571525504
 11
484.96578726534773
 21
646.75906353283744
  0
LINE
  8
_0-0_0
  6
CONTINUOUS
 62
    7
 10
502.00297734816496
 20
613.97990834279415
 11
653.44466698586075
 21
613.97990834279415
  0
LINE
  8
_0-0_0
  6
CONTINUOUS
 62
    7
 10
502.00297734816496
 20
629.72187345002021
 11
653.44466698586075
 21
629.72187345002021
  0
LINE
  8
_0-0_0
  6
CONTINUOUS
 62
    7
 10
549.0296072899564
 20
731.09790640192796
 11
549.0296072899564
 21
713.86191030144255
  0
LINE
  8
_0-0_0
  6
CONTINUOUS
 62
    7
 10
551.02368452762437
 20
731.48045176240782
 11
551.02368452762437
 21
713.47936494349358
  0
LINE
  8
_0-0_0
  6
CONTINUOUS
 62
    7
 10
561.43163277624603
 20
713.52918591136722
 11
561.43163277624603
 21
731.43063079453418
  0
LINE
  8
_0-0_0
  6
CONTINUOUS
 62
    7
 10
564.22444373462451
 20
731.57844709725327
 11
564.22444373462451
 21
713.38136960611746
  0
LINE
  8
_0-0_0
  6
CONTINUOUS
 62
    7
 10
591.22320060193181
 20
713.38136960611746
 11
591.22320060193181
 21
731.57844709725327
  0
LINE
  8
_0-0_0
  6
CONTINUOUS
 62
    7
 10
594.0160115603104
 20
713.52918591136722
 11
594.0160115603104
 21
731.43063079453418
  0
LINE
  8
_0-0_0
  6
CONTINUOUS
 62
    7
 10
604.42395980640117
 20
713.47936494349358
 11
604.42395980640117
 21
731.48045176240782
  0
LINE
  8
_0-0_0
  6
CONTINUOUS
 62
    7
 10
606.41803704659981
 20
713.86191030144255
 11
606.41803704659981
 21
731.09790640192796
  0
LINE
  8
_0-0_0
  6
CONTINUOUS
 62
    7
 10
605.67079186633021
 20
713.11443544006363
 11
605.06599569511684
 21
713.11443544006363
  0
LINE
  8
_0-0_0
  6
CONTINUOUS
 62
    7
 10
550.38164864143926
 20
713.11443544006363
 11
549.77685246769545
 21
713.11443544006363
  0
LINE
  8
_0-0_0
  6
CONTINUOUS
 62
    7
 10
653.44466698586075
 20
714.60892579807239
 11
606.41803704659981
 21
714.60892579807239
  0
LINE
  8
_0-0_0
  6
CONTINUOUS
 62
    7
 10
549.0296072899564
 20
714.60892579807239
 11
502.00297734816496
 21
714.60892579807239
  0
LINE
  8
_0-0_0
  6
CONTINUOUS
 62
    7
 10
653.44466698586075
 20
730.35089090529834
 11
606.41803704659981
 21
730.35089090529834
  0
LINE
  8
_0-0_0
  6
CONTINUOUS
 62
    7
 10
549.0296072899564
 20
730.35089090529834
 11
502.00297734816496
 21
730.35089090529834
  0
LINE
  8
_0-0_0
  6
CONTINUOUS
 62
    7
 10
605.67079186633021
 20
731.8453812633071
 11
605.06599569511684
 21
731.8453812633071
  0
LINE
  8
_0-0_0
  6
CONTINUOUS
 62
    7
 10
550.38164864143926
 20
731.8453812633071
 11
549.77685246769545
 21
731.8453812633071
  0
LINE
  8
_0-0_0
  6
CONTINUOUS
 62
    7
 10
670.48185707120865
 20
646.75906353283744
 11
670.48185707120865
 21
697.57173571525504
  0
LINE
  8
_0-0_0
  6
CONTINUOUS
 62
    7
 10
686.2238221784346
 20
646.75906353283744
 11
686.2238221784346
 21
697.57173571525504
  0
ARC
  8
_0-0_0
  6
CONTINUOUS
 62
    7
 10
502.00297734816496
 20
646.75906353283744
 40
32.779155192574002
 50
180
 51
270
  0
ARC
  8
_0-0_0
  6
CONTINUOUS
 62
    7
 10
502.00297734816496
 20
646.75906353283744
 40
17.03719008534793
 50
180
 51
270
  0
ARC
  8
_0-0_0
  6
CONTINUOUS
 62
    7
 10
502.00297734816496
 20
697.57173571525504
 40
32.779155192574002
 50
90
 51
180
  0
ARC
  8
_0-0_0
  6
CONTINUOUS
 62
    7
 10
502.00297734816496
 20
697.57173571525504
 40
17.03719008534793
 50
90
 51
180
  0
ARC
  8
_0-0_0
  6
CONTINUOUS
 62
    7
 10
556.24265418205619
 20
710.371604216224
 40
6.0741930313706689
 50
31.321223570200001
 51
149.22730132890001
  0
ARC
  8
_0-0_0
  6
CONTINUOUS
 62
    7
 10
556.24265418205619
 20
734.58821248714673
 40
6.0741930313706689
 50
210.77269867109996
 51
328.6787764298
  0
ARC
  8
_0-0_0
  6
CONTINUOUS
 62
    7
 10
562.87855127686942
 20
730.55015628771594
 40
1.6937557404261856
 50
37.380606337300001
 51
148.6787764298
  0
ARC
  8
_0-0_0
  6
CONTINUOUS
 62
    7
 10
562.87855127686942
 20
714.40966041818547
 40
1.6937557404261856
 50
211.32122357019998
 51
322.61939366270002
  0
ARC
  8
_0-0_0
  6
CONTINUOUS
 62
    7
 10
549.77685246769545
 20
713.86168062033335
 40
0.747245180269671
 50
180
 51
270
  0
ARC
  8
_0-0_0
  6
CONTINUOUS
 62
    7
 10
549.77685246769545
 20
731.09813608556806
 40
0.747245180269671
 50
90
 51
180
  0
ARC
  8
_0-0_0
  6
CONTINUOUS
 62
    7
 10
550.38164864143926
 20
731.09813608556806
 40
0.747245180269671
 50
30.772698671099995
 51
90
  0
ARC
  8
_0-0_0
  6
CONTINUOUS
 62
    7
 10
550.38164864143926
 20
713.86168062033335
 40
0.747245180269671
 50
270
 51
329.22730132890001
  0
ARC
  8
_0-0_0
  6
CONTINUOUS
 62
    7
 10
564.62029445883343
 20
713.07893113227749
 40
0.4981634535131139
 50
64.455770086599983
 51
142.6193936626
  0
ARC
  8
_0-0_0
  6
CONTINUOUS
 62
    7
 10
564.62029445883343
 20
731.88088557109313
 40
0.4981634535131139
 50
217.3806063374
 51
295.54422991339999
  0
ARC
  8
_0-0_0
  6
CONTINUOUS
 62
    7
 10
653.44466698586075
 20
646.75906353283744
 40
32.779155192574002
 50
270
 51
0
  0
ARC
  8
_0-0_0
  6
CONTINUOUS
 62
    7
 10
653.44466698586075
 20
646.75906353283744
 40
17.03719008534793
 50
270
 51
0
  0
ARC
  8
_0-0_0
  6
CONTINUOUS
 62
    7
 10
577.72382216827816
 20
704.46325766850111
 40
29.889807165234771
 50
64.455770086599983
 51
115.5442299134
  0
ARC
  8
_0-0_0
  6
CONTINUOUS
 62
    7
 10
599.20499015196935
 20
710.371604216224
 40
6.0741930313706689
 50
30.772698671099995
 51
148.6787764298
  0
ARC
  8
_0-0_0
  6
CONTINUOUS
 62
    7
 10
592.56909305968668
 20
714.40966041818547
 40
1.6937557404261856
 50
217.38060633730001
 51
328.6787764298
  0
ARC
  8
_0-0_0
  6
CONTINUOUS
 62
    7
 10
605.06599569511684
 20
713.86168062033335
 40
0.747245180269671
 50
210.77269867109996
 51
270
  0
ARC
  8
_0-0_0
  6
CONTINUOUS
 62
    7
 10
605.67079186633021
 20
713.86168062033335
 40
0.747245180269671
 50
270
 51
0
  0
ARC
  8
_0-0_0
  6
CONTINUOUS
 62
    7
 10
590.8273498777229
 20
713.07893113227749
 40
0.4981634535131139
 50
37.380606337400003
 51
115.54422991339999
  0
ARC
  8
_0-0_0
  6
CONTINUOUS
 62
    7
 10
577.72382216827816
 20
722.4799083529507
 40
32.58144765285774
 50
194.00927958149998
 51
345.99072041849996
  0
ARC
  8
_0-0_0
  6
CONTINUOUS
 62
    7
 10
577.72382216827816
 20
722.4799083529507
 40
32.58144765285774
 50
14.0092795815
 51
165.99072041849996
  0
ARC
  8
_0-0_0
  6
CONTINUOUS
 62
    7
 10
577.72382216827816
 20
722.4799083529507
 40
24.41000918418252
 50
195.19876655655889
 51
344.8012334414048
  0
ARC
  8
_0-0_0
  6
CONTINUOUS
 62
    7
 10
577.72382216827816
 20
722.4799083529507
 40
24.41000918418252
 50
15.2009908268
 51
164.79900917320001
  0
ARC
  8
_0-0_0
  6
CONTINUOUS
 62
    7
 10
577.72382216827816
 20
722.4799083529507
 40
12.852617079886846
 50
60.633441482988701
 51
119.36655851701131
  0
ARC
  8
_0-0_0
  6
CONTINUOUS
 62
    7
 10
577.72382216827816
 20
722.4799083529507
 40
12.852617079886846
 50
240.6334415202966
 51
299.36655847970337
  0
ARC
  8
_0-0_0
  6
CONTINUOUS
 62
    7
 10
577.72382216827816
 20
740.49655903486962
 40
29.889807165234771
 50
244.45577008660001
 51
295.54422991339999
  0
ARC
  8
_0-0_0
  6
CONTINUOUS
 62
    7
 10
590.8273498777229
 20
731.88088557109313
 40
0.4981634535131139
 50
244.45577008660001
 51
322.61939366259998
  0
ARC
  8
_0-0_0
  6
CONTINUOUS
 62
    7
 10
592.56909305968668
 20
730.55015628771594
 40
1.6937557404261856
 50
31.321223570200001
 51
142.61939366269999
  0
ARC
  8
_0-0_0
  6
CONTINUOUS
 62
    7
 10
605.06599569511684
 20
731.09813608556806
 40
0.747245180269671
 50
90
 51
149.22730132890001
  0
ARC
  8
_0-0_0
  6
CONTINUOUS
 62
    7
 10
605.67079186633021
 20
731.09813608556806
 40
0.747245180269671
 50
0
 51
90
  0
ARC
  8
_0-0_0
  6
CONTINUOUS
 62
    7
 10
599.20499015196935
 20
734.58821248714673
 40
6.0741930313706689
 50
211.32122357019998
 51
329.22730132890001
  0
ARC
  8
_0-0_0
  6
CONTINUOUS
 62
    7
 10
653.44466698586075
 20
697.57173571525504
 40
32.779155192574002
 50
0
 51
90
  0
ARC
  8
_0-0_0
  6
CONTINUOUS
 62
    7
 10
653.44466698586075
 20
697.57173571525504
 40
17.03719008534793
 50
0
 51
90
  0
LINE
  8
_0-1_DEFPOINTS
  6
CONTINUOUS
 62
    7
 10
469.22382215559094
 20
780.10896082970248
 11
474.14786092065196
 21
780.97720171803712
  0
LINE
  8
_0-1_DEFPOINTS
  6
CONTINUOUS
 62
    7
 10
469.22382215559094
 20
780.10896082970248
 11
474.14786092065196
 21
779.24071994136784
  0
LINE
  8
_0-1_DEFPOINTS
  6
CONTINUOUS
 62
    7
 10
686.2238221784346
 20
780.10896082970248
 11
681.29978341337369
 21
779.24071994136784
  0
LINE
  8
_0-1_DEFPOINTS
  6
CONTINUOUS
 62
    7
 10
686.2238221784346
 20
780.10896082970248
 11
681.29978341337369
 21
780.97720171803712
  0
TEXT
  8
_0-1_DEFPOINTS
 62
    7
 10
568.34882216701283
 20
782.60896082970248
 40
20
 41
1
 50
0
  1
217
  0
LINE
  8
_0-1_DEFPOINTS
  6
CONTINUOUS
 62
    7
 10
469.22382215559094
 20
780.10896082970248
 11
469.22382215559094
 21
703.44229416303574
  0
LINE
  8
_0-1_DEFPOINTS
  6
CONTINUOUS
 62
    7
 10
469.22382215559094
 20
780.10896082970248
 11
686.2238221784346
 21
780.10896082970248
  0
LINE
  8
_0-1_DEFPOINTS
  6
CONTINUOUS
 62
    7
 10
686.2238221784346
 20
780.10896082970248
 11
686.2238221784346
 21
703.44229416303574
  0
LINE
  8
_0-1_DEFPOINTS
  6
CONTINUOUS
 62
    7
 10
398.94751100671726
 20
755.06135600580842
 11
398.94751100671726
 21
613.97990834279415
  0
LINE
  8
_0-1_DEFPOINTS
  6
CONTINUOUS
 62
    7
 10
398.94751100671726
 20
755.06135600580842
 11
399.8157518950519
 21
750.13731724074751
  0
LINE
  8
_0-1_DEFPOINTS
  6
CONTINUOUS
 62
    7
 10
398.94751100671726
 20
755.06135600580842
 11
398.07927011838262
 21
750.13731724074751
  0
LINE
  8
_0-1_DEFPOINTS
  6
CONTINUOUS
 62
    7
 10
398.94751100671726
 20
613.97990834279415
 11
398.07927011838262
 21
618.90394710785517
  0
LINE
  8
_0-1_DEFPOINTS
  6
CONTINUOUS
 62
    7
 10
398.94751100671726
 20
613.97990834279415
 11
399.8157518950519
 21
618.90394710785517
  0
LINE
  8
_0-1_DEFPOINTS
  6
CONTINUOUS
 62
    7
 10
398.94751100671726
 20
755.06135600580842
 11
469.22382215559094
 21
755.06135600580842
  0
LINE
  8
_0-1_DEFPOINTS
  6
CONTINUOUS
 62
    7
 10
398.94751100671726
 20
613.97990834279415
 11
469.22382215559094
 21
613.97990834279415
  0
TEXT
  8
_0-1_DEFPOINTS
 62
    7
 10
396.44751100671726
 20
675.14563217430123
 40
20
 41
1
 50
90
  1
141
  0
LINE
  8
_0-1_DEFPOINTS
  6
CONTINUOUS
 62
    7
 10
836.88460250998537
 20
755.06135600580842
 11
836.88460250998537
 21
613.97990834279415
  0
LINE
  8
_0-1_DEFPOINTS
  6
CONTINUOUS
 62
    7
 10
836.88460250998537
 20
755.06135600580842
 11
837.75284339832001
 21
750.13731724074751
  0
LINE
  8
_0-1_DEFPOINTS
  6
CONTINUOUS
 62
    7
 10
836.88460250998537
 20
755.06135600580842
 11
836.01636162165062
 21
750.13731724074751
  0
LINE
  8
_0-1_DEFPOINTS
  6
CONTINUOUS
 62
    7
 10
836.88460250998537
 20
613.97990834279415
 11
836.01636162165062
 21
618.90394710785517
  0
LINE
  8
_0-1_DEFPOINTS
  6
CONTINUOUS
 62
    7
 10
836.88460250998537
 20
613.97990834279415
 11
837.75284339832001
 21
618.90394710785517
  0
TEXT
  8
_0-1_DEFPOINTS
 62
    7
 10
834.38460250998537
 20
675.14563217430123
 40
20
 41
1
 50
90
  1
141
  0
LINE
  8
_0-0_0
  6
CONTINUOUS
 62
    7
 10
890.12745795201909
 20
621.85244873915065
 11
890.12745795201909
 21
722.48146619695945
  0
LINE
  8
_0-0_0
  6
CONTINUOUS
 62
    7
 10
905.86942305924504
 20
621.85244873915065
 11
905.86942305924504
 21
722.48146619695945
  0
LINE
  8
_0-0_0
  6
CONTINUOUS
 62
    7
 10
925.5959493733593
 20
733.32092964876324
 11
925.11234281140787
 21
732.32758565045867
  0
LINE
  8
_0-0_0
  6
CONTINUOUS
 62
    7
 10
938.23532885775023
 20
711.68004056775533
 11
937.78601344577601
 21
711.41930911519557
  0
LINE
  8
_0-0_0
  6
CONTINUOUS
 62
    7
 10
938.40536241392647
 20
710.98195414472889
 11
937.78637432442792
 21
710.62259159979021
  0
LINE
  8
_0-0_0
  6
CONTINUOUS
 62
    7
 10
929.70884974318835
 20
712.00521438906821
 11
929.52313648763402
 21
711.64208422514878
  0
LINE
  8
_0-0_0
  6
CONTINUOUS
 62
    7
 10
929.76054788893089
 20
712.09475820614205
 11
929.70885308114248
 21
712.00522017164985
  0
LINE
  8
_0-0_0
  6
CONTINUOUS
 62
    7
 10
937.77632609032798
 20
711.40809096738144
 11
937.7860127650257
 21
711.4194542213022
  0
LINE
  8
_0-0_0
  6
CONTINUOUS
 62
    7
 10
937.77632609032798
 20
710.61102060820258
 11
937.78637428140655
 21
710.62260055836316
  0
LINE
  8
_0-0_0
  6
CONTINUOUS
 62
    7
 10
942.00613439537187
 20
710.56788722266799
 11
942.59823019756084
 21
710.91166485701683
  0
LINE
  8
_0-0_0
  6
CONTINUOUS
 62
    7
 10
925.06864252787977
 20
712.83929551347319
 11
925.06864252787977
 21
732.12355874093771
  0
LINE
  8
_0-0_0
  6
CONTINUOUS
 62
    7
 10
942.61514456676889
 20
710.93082872689888
 11
942.59823066320428
 21
710.9115689091816
  0
LINE
  8
_0-0_0
  6
CONTINUOUS
 62
    7
 10
929.76054788893089
 20
712.09475820614205
 11
929.76054788893089
 21
732.86817418524629
  0
LINE
  8
_0-0_0
  6
CONTINUOUS
 62
    7
 10
932.53113105107991
 20
733.81966638008976
 11
932.53113105107991
 21
711.14326601129858
  0
LINE
  8
_0-0_0
  6
CONTINUOUS
 62
    7
 10
937.77632609032798
 20
710.61089380643455
 11
937.77632609032798
 21
710.56788722266799
  0
LINE
  8
_0-0_0
  6
CONTINUOUS
 62
    7
 10
937.77632609032798
 20
711.32180652717216
 11
937.77632609032798
 21
711.40809096738144
  0
LINE
  8
_0-0_0
  6
CONTINUOUS
 62
    7
 10
949.97322076085675
 20
746.0510083429557
 11
949.47126265827308
 21
742.88176961343322
  0
LINE
  8
_0-0_0
  6
CONTINUOUS
 62
    7
 10
925.59582126576538
 20
711.64201166829935
 11
925.11228478313706
 21
712.63538253726153
  0
LINE
  8
_0-0_0
  6
CONTINUOUS
 62
    7
 10
950.95728123037134
 20
746.89147538114196
 11
950.95728123037134
 21
698.07145701024626
  0
LINE
  8
_0-0_0
  6
CONTINUOUS
 62
    7
 10
953.19806878713223
 20
747.31286403863066
 11
953.19807264134329
 21
747.60793046984702
  0
LINE
  8
_0-0_0
  6
CONTINUOUS
 62
    7
 10
954.01883526530935
 20
694.9315270039142
 11
954.01881383306227
 21
694.85851359382934
  0
LINE
  8
_0-0_0
  6
CONTINUOUS
 62
    7
 10
950.95728123037134
 20
698.07145701024626
 11
952.24186185221868
 21
698.07145701024626
  0
LINE
  8
_0-0_0
  6
CONTINUOUS
 62
    7
 10
937.77632609032798
 20
711.32180652717216
 11
937.7865505830863
 21
711.31013186667406
  0
LINE
  8
_0-0_0
  6
CONTINUOUS
 62
    7
 10
929.76054788893089
 20
732.86817418524629
 11
929.70884974318835
 21
732.95771800232023
  0
LINE
  8
_0-0_0
  6
CONTINUOUS
 62
    7
 10
929.70884974318835
 20
732.95771800232023
 11
929.52313652559405
 21
733.32084809791149
  0
LINE
  8
_0-0_0
  6
CONTINUOUS
 62
    7
 10
949.97322076085675
 20
698.91192405096319
 11
949.47126265827308
 21
702.08116277795511
  0
LINE
  8
_0-0_0
  6
CONTINUOUS
 62
    7
 10
961.26519900436676
 20
689.90157638680307
 11
961.26519900436676
 21
755.06135600711605
  0
LINE
  8
_0-0_0
  6
CONTINUOUS
 62
    7
 10
937.78655264052134
 20
711.31055788984168
 11
938.37887293847621
 21
710.9665570680836
  0
LINE
  8
_0-0_0
  6
CONTINUOUS
 62
    7
 10
937.77632609032798
 20
710.56788722266799
 11
942.00625940289467
 21
710.56788722266799
  0
LINE
  8
_0-0_0
  6
CONTINUOUS
 62
    7
 10
929.16055843753213
 20
711.42223754617692
 11
925.95836114323606
 21
711.42223754617692
  0
LINE
  8
_0-0_0
  6
CONTINUOUS
 62
    7
 10
930.49396563830305
 20
712.51819714188116
 11
931.53480414405385
 21
712.51819714188116
  0
LINE
  8
_0-0_0
  6
CONTINUOUS
 62
    7
 10
922.87672333647129
 20
713.11599328407237
 11
925.06864252787977
 21
713.11599328407237
  0
LINE
  8
_0-0_0
  6
CONTINUOUS
 62
    7
 10
909.2152522814265
 20
714.90938171570747
 11
920.48553876264509
 21
714.90938171570747
  0
LINE
  8
_0-0_0
  6
CONTINUOUS
 62
    7
 10
909.21516961961061
 20
730.05355067821154
 11
920.48553876264509
 21
730.05355067821154
  0
LINE
  8
_0-0_0
  6
CONTINUOUS
 62
    7
 10
922.87672333647129
 20
731.84693910731596
 11
925.06864252787977
 21
731.84693910731596
  0
LINE
  8
_0-0_0
  6
CONTINUOUS
 62
    7
 10
930.49396563830305
 20
732.44473525203773
 11
931.53480414405385
 21
732.44473525203773
  0
LINE
  8
_0-0_0
  6
CONTINUOUS
 62
    7
 10
925.9584914828813
 20
733.54069484774209
 11
929.16055843753213
 21
733.54069484774209
  0
LINE
  8
_0-0_0
  6
CONTINUOUS
 62
    7
 10
950.95728123037134
 20
746.89147538114196
 11
952.24186185221868
 21
746.89147538114196
  0
ARC
  8
_0-0_0
  6
CONTINUOUS
 62
    7
 10
897.99844050436661
 20
621.85244873915065
 40
7.8709825523477148
 50
180
 51
0
  0
ARC
  8
_0-0_0
  6
CONTINUOUS
 62
    7
 10
897.96855069877552
 20
722.48146619695945
 40
11.873156480785163
 50
48.143210195300007
 51
228.59515479520002
  0
ARC
  8
_0-0_0
  6
CONTINUOUS
 62
    7
 10
897.96855069877552
 20
722.48146619695945
 40
9.7640036751914145
 50
324.31474453369998
 51
216.29761695380003
  0
ARC
  8
_0-0_0
  6
CONTINUOUS
 62
    7
 10
897.99844050436661
 20
722.48146619695945
 40
7.8709825523477148
 50
0
 51
180
  0
ARC
  8
_0-0_0
  6
CONTINUOUS
 62
    7
 10
938.15456727657079
 20
700.28877431539831
 40
11.457759413086928
 50
9
 51
64.803466913599991
  0
ARC
  8
_0-0_0
  6
CONTINUOUS
 62
    7
 10
939.0276538608091
 20
702.62156030027597
 40
8.9669421505827014
 50
98.823195879300016
 51
109.69971805290001
  0
ARC
  8
_0-0_0
  6
CONTINUOUS
 62
    7
 10
934.04554794530577
 20
711.14326601129858
 40
1.5144168967565568
 50
180
 51
336.09035778880002
  0
ARC
  8
_0-0_0
  6
CONTINUOUS
 62
    7
 10
920.48553876264509
 20
713.41489135516804
 40
1.4944903580086712
 50
16.260204708300002
 51
90
  0
ARC
  8
_0-0_0
  6
CONTINUOUS
 62
    7
 10
922.87672333647129
 20
714.11232019109866
 40
0.9963269044955576
 50
196.26020470830002
 51
270
  0
ARC
  8
_0-0_0
  6
CONTINUOUS
 62
    7
 10
936.34083418124249
 20
710.12567299820137
 40
0.9963269044955576
 50
109.699718053
 51
156.0903577887
  0
ARC
  8
_0-0_0
  6
CONTINUOUS
 62
    7
 10
931.53480414405385
 20
711.5218702348551
 40
0.9963269044955576
 50
0
 51
90
  0
ARC
  8
_0-0_0
  6
CONTINUOUS
 62
    7
 10
930.49396563830305
 20
711.67131927040282
 40
0.8468778689477574
 50
90
 51
149.99999999999997
  0
ARC
  8
_0-0_0
  6
CONTINUOUS
 62
    7
 10
925.56680598139292
 20
712.83928767598707
 40
0.498163453513114
 50
180
 51
204.1617314664
  0
ARC
  8
_0-0_0
  6
CONTINUOUS
 62
    7
 10
938.15456727657079
 20
744.6741580785208
 40
11.457759413086928
 50
290.51925447330001
 51
351
  0
ARC
  8
_0-0_0
  6
CONTINUOUS
 62
    7
 10
939.0276538608091
 20
742.34137209111225
 40
8.9669421505827014
 50
250.30028194709999
 51
290.51925447330001
  0
ARC
  8
_0-0_0
  6
CONTINUOUS
 62
    7
 10
934.04554794530577
 20
733.81966638008976
 40
1.5144168967565568
 50
23.909642211200001
 51
179.99999999999997
  0
ARC
  8
_0-0_0
  6
CONTINUOUS
 62
    7
 10
920.48553876264509
 20
731.5480410362203
 40
1.4944903580086712
 50
270
 51
343.73979529169998
  0
ARC
  8
_0-0_0
  6
CONTINUOUS
 62
    7
 10
922.87672333647129
 20
730.85061220282023
 40
0.9963269044955576
 50
90
 51
163.73979529169998
  0
ARC
  8
_0-0_0
  6
CONTINUOUS
 62
    7
 10
936.34083418124249
 20
734.83725939318697
 40
0.9963269044955576
 50
203.90964221129997
 51
250.30028194699997
  0
ARC
  8
_0-0_0
  6
CONTINUOUS
 62
    7
 10
931.53480414405385
 20
733.44106215653323
 40
0.9963269044955576
 50
270
 51
0
  0
ARC
  8
_0-0_0
  6
CONTINUOUS
 62
    7
 10
925.56680598139292
 20
732.12355118941741
 40
0.498163453513114
 50
155.8320644065
 51
180
  0
ARC
  8
_0-0_0
  6
CONTINUOUS
 62
    7
 10
991.44744949015171
 20
736.41628828699879
 40
39.853076217782338
 50
159.9118878681
 51
163.6906972747
  0
ARC
  8
_0-0_0
  6
CONTINUOUS
 62
    7
 10
991.44744949015171
 20
708.54664410438943
 40
39.853076217782338
 50
196.3093027253
 51
200.08811213199999
  0
ARC
  8
_0-0_0
  6
CONTINUOUS
 62
    7
 10
961.11180893818391
 20
697.4524363611431
 40
7.5524178170414409
 50
200.08823909220001
 51
271.1637607966
  0
ARC
  8
_0-0_0
  6
CONTINUOUS
 62
    7
 10
961.11180893818391
 20
747.51049603024512
 40
7.5524178170414409
 50
88.836239203399984
 51
159.9117609077
  0
ARC
  8
_0-0_0
  6
CONTINUOUS
 62
    7
 10
950.95728123037134
 20
699.06778391727255
 40
0.9963269044955576
 50
188.99999999990001
 51
270
  0
ARC
  8
_0-0_0
  6
CONTINUOUS
 62
    7
 10
950.95728123037134
 20
745.89514847664645
 40
0.9963269044955576
 50
90
 51
171.00000000009999
  0
ARC
  8
_0-0_0
  6
CONTINUOUS
 62
    7
 10
952.24186185221868
 20
747.88780228563746
 40
0.9963269044955576
 50
270
 51
343.69057924650002
  0
ARC
  8
_0-0_0
  6
CONTINUOUS
 62
    7
 10
952.24186185221868
 20
697.07513010575076
 40
0.9963269044955576
 50
16.309420753799998
 51
90
  0
LINE
  8
_0-0_0
  6
CONTINUOUS
 62
    7
 10
925.5959042173431
 20
733.32095452272199
 11
925.11234995169434
 21
732.32754985665747
  0
LINE
  8
_0-0_0
  6
CONTINUOUS
 62
    7
 10
925.9584263143239
 20
733.54069484774209
 11
929.1606236060893
 21
733.54069484774209
  0
LINE
  8
_0-0_0
  6
CONTINUOUS
 62
    7
 10
925.06870769643706
 20
731.84693910984663
 11
922.87678850502857
 21
731.84693910984663
  0
LINE
  8
_0-0_0
  6
CONTINUOUS
 62
    7
 10
925.06870769643706
 20
732.12341200507944
 11
925.06870769643706
 21
712.83961380347387
  0
LINE
  8
_0-0_0
  6
CONTINUOUS
 62
    7
 10
928.68090755500111
 20
726.81927303767009
 11
926.43824273685925
 21
726.81927303767009
  0
LINE
  8
_0-0_0
  6
CONTINUOUS
 62
    7
 10
926.08544933888788
 20
726.89920294187971
 11
926.43789610841213
 21
726.81935157196278
  0
LINE
  8
_0-0_0
  6
CONTINUOUS
 62
    7
 10
929.70891491174575
 20
712.00521438906821
 11
929.5231801682695
 21
711.64204337759884
  0
LINE
  8
_0-0_0
  6
CONTINUOUS
 62
    7
 10
929.70891992753423
 20
712.00522307685958
 11
929.76061306001895
 21
712.09475820614205
  0
LINE
  8
_0-0_0
  6
CONTINUOUS
 62
    7
 10
928.68090755500111
 20
717.72870325532665
 11
926.43824273685925
 21
717.72870325532665
  0
LINE
  8
_0-0_0
  6
CONTINUOUS
 62
    7
 10
929.7089121330697
 20
732.95772281818586
 11
929.76061306001895
 21
732.86817418777696
  0
LINE
  8
_0-0_0
  6
CONTINUOUS
 62
    7
 10
929.70891491174575
 20
732.9577180048509
 11
929.52318028468039
 21
733.32088879615196
  0
LINE
  8
_0-0_0
  6
CONTINUOUS
 62
    7
 10
925.06870769643706
 20
713.11599328660327
 11
922.87678850502857
 21
713.11599328660327
  0
LINE
  8
_0-0_0
  6
CONTINUOUS
 62
    7
 10
929.1606236060893
 20
711.42223754617703
 11
925.95855665396925
 21
711.42223754617703
  0
LINE
  8
_0-0_0
  6
CONTINUOUS
 62
    7
 10
925.59603232240647
 20
711.6419689505841
 11
925.11237203432358
 21
712.63542684929917
  0
ARC
  8
_0-0_0
  6
CONTINUOUS
 62
    7
 10
930.49403080939101
 20
733.29161312098563
 40
0.8468778689477574
 50
209.9999999998999
 51
270
  0
ARC
  8
_0-0_0
  6
CONTINUOUS
 62
    7
 10
925.5668711499502
 20
732.12364471540127
 40
0.498163453513114
 50
155.83826853309989
 51
180
  0
ARC
  8
_0-0_0
  6
CONTINUOUS
 62
    7
 10
930.49403080939101
 20
711.67131927293349
 40
0.8468778689477574
 50
89.999999999999986
 51
150.0000000000999
  0
ARC
  8
_0-0_0
  6
CONTINUOUS
 62
    7
 10
925.5668711499502
 20
712.83938120450159
 40
0.498163453513114
 50
180
 51
204.16793559379991
  0
ARC
  8
_0-0_0
  6
CONTINUOUS
 62
    7
 10
929.12959391617335
 20
733.0804369447452
 40
0.4612237226328919
 50
31.421811590733856
 51
86.291437162046094
  0
ARC
  8
_0-0_0
  6
CONTINUOUS
 62
    7
 10
929.16550752550108
 20
711.79820271389985
 40
0.3759968882978839
 50
269.25574958758892
 51
335.49231472274431
  0
ARC
  8
_0-0_0
  6
CONTINUOUS
 62
    7
 10
928.65593069328213
 20
733.11227438772471
 40
0.4291481692052837
 50
29.30034631856303
 51
86.662860849426409
  0
ARC
  8
_0-0_0
  6
CONTINUOUS
 62
    7
 10
919.14277050231794
 20
730.17556905867752
 40
10.380381351367703
 50
342.33446383395358
 51
17.663732196784238
  0
ARC
  8
_0-0_0
  6
CONTINUOUS
 62
    7
 10
929.3062946520422
 20
726.96250543775943
 40
0.2798298606252274
 50
166.98206331872771
 51
193.0752241219549
  0
ARC
  8
_0-0_0
  6
CONTINUOUS
 62
    7
 10
1802.9028005333769
 20
-3131.77007110562
 40
3956.384162973111
 50
102.760472496654
 51
102.76570531410378
  0
ARC
  8
_0-0_0
  6
CONTINUOUS
 62
    7
 10
925.81275057951632
 20
726.96240337824747
 40
0.2799266127395426
 50
346.95154374530671
 51
13.021423282383084
  0
ARC
  8
_0-0_0
  6
CONTINUOUS
 62
    7
 10
936.10072013820582
 20
730.14952301318158
 40
10.49117439063329
 50
162.67917007439161
 51
197.32423358262821
  0
LINE
  8
_0-0_0
  6
CONTINUOUS
 62
    7
 10
926.08539003262854
 20
733.27310769788187
 11
926.08887848324116
 21
733.28715564633148
  0
LINE
  8
_0-0_0
  6
CONTINUOUS
 62
    7
 10
926.08887848324116
 20
733.28715564633148
 11
926.09246400530708
 21
733.30133529339616
  0
ARC
  8
_0-0_0
  6
CONTINUOUS
 62
    7
 10
926.0786730997138
 20
733.31032084198591
 40
0.0164599258971157
 50
326.91350026879905
 51
66.022184716126191
  0
ARC
  8
_0-0_0
  6
CONTINUOUS
 62
    7
 10
926.44193038245237
 20
733.13779793666822
 40
0.4029147228144931
 50
90.538748213653946
 51
152.27107350005076
  0
ARC
  8
_0-0_0
  6
CONTINUOUS
 62
    7
 10
908.52722988604592
 20
722.48130240194337
 40
20.976926430392101
 50
347.8430264853165
 51
12.157893769115116
  0
ARC
  8
_0-0_0
  6
CONTINUOUS
 62
    7
 10
929.31050423610202
 20
718.0005602395471
 40
0.2839343349879628
 50
167.1520840760721
 51
192.85078629651071
  0
ARC
  8
_0-0_0
  6
CONTINUOUS
 62
    7
 10
928.57215789757447
 20
718.31502006381925
 40
0.5963169357911074
 50
280.50777142957787
 51
320.71058967941644
  0
ARC
  8
_0-0_0
  6
CONTINUOUS
 62
    7
 10
926.54765064746266
 20
718.31600892581093
 40
0.5974183174776691
 50
219.31232981459331
 51
259.4137929899893
  0
ARC
  8
_0-0_0
  6
CONTINUOUS
 62
    7
 10
925.81205258759178
 20
718.00056506758119
 40
0.2805759370287599
 50
347.0108591954089
 51
13.023329350477082
  0
ARC
  8
_0-0_0
  6
CONTINUOUS
 62
    7
 10
946.59438112560474
 20
722.48147755038053
 40
20.979323375551946
 50
167.84396788496201
 51
192.156115120745
  0
ARC
  8
_0-0_0
  6
CONTINUOUS
 62
    7
 10
919.29378277052933
 20
714.81056285383022
 40
10.229506450725554
 50
342.07389752676733
 51
17.798439163144586
  0
ARC
  8
_0-0_0
  6
CONTINUOUS
 62
    7
 10
929.04078423705209
 20
711.65303822172655
 40
0.0167135149721879
 50
147.4854662462408
 51
245.08717475947529
  0
ARC
  8
_0-0_0
  6
CONTINUOUS
 62
    7
 10
928.64986585485099
 20
711.86974119777915
 40
0.4485790188359659
 50
273.96810677770202
 51
328.83945052429112
  0
ARC
  8
_0-0_0
  6
CONTINUOUS
 62
    7
 10
926.46782957099333
 20
711.86730888020929
 40
0.4460766255746695
 50
210.99552693952799
 51
266.152340827648
  0
ARC
  8
_0-0_0
  6
CONTINUOUS
 62
    7
 10
936.1030464590084
 20
714.81381568674988
 40
10.493342108507704
 50
162.68144608979961
 51
197.32025091440391
  0
ARC
  8
_0-0_0
  6
CONTINUOUS
 62
    7
 10
926.0496469639088
 20
711.66373678538946
 40
0.044332211080902
 50
323.86140491889148
 51
36.099250073460148
  0
ARC
  8
_0-0_0
  6
CONTINUOUS
 62
    7
 10
925.96074057899784
 20
733.12795708102249
 40
0.4127391225558236
 50
90.146860008288897
 51
152.12128159166289
  0
ARC
  8
_0-0_0
  6
CONTINUOUS
 62
    7
 10
925.96058719829762
 20
711.83482886864499
 40
0.4125926057082601
 50
207.86116696806542
 51
269.85710040347368
  0
ARC
  8
_0-0_0
  6
CONTINUOUS
 62
    7
 10
939.59573623411984
 20
706.93945846655174
 40
4.941191038637526
 50
69.945688734738397
 51
113.1614349920908
  0
ARC
  8
_0-0_0
  6
CONTINUOUS
 62
    7
 10
938.56932098796597
 20
704.35082462855462
 40
7.7252185171499876
 50
54.708912371578087
 51
69.378216534980083
  0
LINE
  8
_0-0_0
  6
CONTINUOUS
 62
    7
 10
953.19807071423782
 20
747.46039725423884
 11
953.19807264134329
 21
697.35500192407187
  0
ARC
  8
_0-0_0
  6
CONTINUOUS
 62
    7
 10
909.41542385180674
 20
735.55861846944879
 40
5.5087088454218245
 50
230.22600672428413
 51
267.91670766634741
  0
ARC
  8
_0-0_0
  6
CONTINUOUS
 62
    7
 10
909.2152469892568
 20
709.92732690555215
 40
4.9820548101580329
 50
89.999939137765239
 51
132.16872093662502
  0
LINE
  8
_0-1_DEFPOINTS
  6
CONTINUOUS
 62
    7
 10
886.09539421799036
 20
779.40550655159075
 11
961.26519900436676
 21
779.40550655159075
  0
LINE
  8
_0-1_DEFPOINTS
  6
CONTINUOUS
 62
    7
 10
886.09539421799036
 20
779.40550655159075
 11
891.0194329830515
 21
780.27374743992539
  0
LINE
  8
_0-1_DEFPOINTS
  6
CONTINUOUS
 62
    7
 10
886.09539421799036
 20
779.40550655159075
 11
891.0194329830515
 21
778.53726566325599
  0
LINE
  8
_0-1_DEFPOINTS
  6
CONTINUOUS
 62
    7
 10
961.26519900436676
 20
779.40550655159075
 11
956.34116023930574
 21
778.53726566325599
  0
LINE
  8
_0-1_DEFPOINTS
  6
CONTINUOUS
 62
    7
 10
961.26519900436676
 20
779.40550655159075
 11
956.34116023930574
 21
780.27374743992539
  0
LINE
  8
_0-1_DEFPOINTS
  6
CONTINUOUS
 62
    7
 10
886.09539421799036
 20
779.40550655159075
 11
886.09539421799036
 21
722.48146619695945
  0
TEXT
  8
_0-1_DEFPOINTS
 62
    7
 10
917.43029661117862
 20
781.90550655159075
 40
20
 41
1
 50
0
  1
76
  0
LINE
  8
_0-1_DEFPOINTS
  6
CONTINUOUS
 62
    7
 10
961.26519900436676
 20
779.40550655159075
 11
961.26519900436676
 21
755.06135600711605
  0
LINE
  8
_0-1_DEFPOINTS
  6
CONTINUOUS
 62
    7
 10
836.88460250998537
 20
755.06135600580842
 11
961.26519900501091
 21
755.06135600580842
  0
LINE
  8
_0-1_DEFPOINTS
  6
CONTINUOUS
 62
    7
 10
836.88460250998537
 20
613.97990834279415
 11
898.63206075254175
 21
613.97990834279415
  0
LINE
  8
_0-0_0
  6
CONTINUOUS
 62
    7
 10
549.77685246769545
 20
345.32673966617983
 11
550.38164864143948
 21
345.32673966617983
  0
LINE
  8
_0-0_0
  6
CONTINUOUS
 62
    7
 10
605.06599569511695
 20
345.32673966617983
 11
605.67079186633021
 21
345.32673966617983
  0
LINE
  8
_0-0_0
  6
CONTINUOUS
 62
    7
 10
603.49698812931797
 20
346.85111982977963
 11
594.91152653942413
 21
346.85111982977963
  0
LINE
  8
_0-0_0
  6
CONTINUOUS
 62
    7
 10
560.56546900081253
 20
346.85111982977963
 11
551.91983936329996
 21
346.85111982977963
  0
LINE
  8
_0-0_0
  6
CONTINUOUS
 62
    7
 10
477.09480471046936
 20
346.85111982977963
 11
549.02960728995663
 21
346.85111982977963
  0
LINE
  8
_0-0_0
  6
CONTINUOUS
 62
    7
 10
606.41803704660003
 20
346.85111982977963
 11
678.35283962355618
 21
346.85111982977963
  0
LINE
  8
_0-0_0
  6
CONTINUOUS
 62
    7
 10
603.55784358413655
 20
362.59308493700581
 11
594.84964256956596
 21
362.59308493700581
  0
LINE
  8
_0-0_0
  6
CONTINUOUS
 62
    7
 10
560.62367448009047
 20
362.59308493700581
 11
551.8616338840219
 21
362.59308493700581
  0
LINE
  8
_0-0_0
  6
CONTINUOUS
 62
    7
 10
477.09480471046936
 20
362.59308493700581
 11
549.02960728995663
 21
362.59308493700581
  0
LINE
  8
_0-0_0
  6
CONTINUOUS
 62
    7
 10
606.41803704660003
 20
362.59308493700581
 11
678.35283962355618
 21
362.59308493700581
  0
LINE
  8
_0-0_0
  6
CONTINUOUS
 62
    7
 10
549.02960728995663
 20
363.31044030915365
 11
549.02960728995663
 21
346.07398484391888
  0
LINE
  8
_0-0_0
  6
CONTINUOUS
 62
    7
 10
551.02368452762437
 20
363.69275598599336
 11
551.02368452762437
 21
345.69166916707906
  0
LINE
  8
_0-0_0
  6
CONTINUOUS
 62
    7
 10
553.31381298409565
 20
408.96552372997922
 11
553.31381298409565
 21
407.68094310813194
  0
LINE
  8
_0-0_0
  6
CONTINUOUS
 62
    7
 10
549.77685246769545
 20
364.05768548942325
 11
550.38164864143948
 21
364.05768548942325
  0
LINE
  8
_0-0_0
  6
CONTINUOUS
 62
    7
 10
605.06599569511695
 20
364.05768548942325
 11
605.67079186633021
 21
364.05768548942325
  0
LINE
  8
_0-0_0
  6
CONTINUOUS
 62
    7
 10
561.43163277624603
 20
345.74149013495287
 11
561.43163277624603
 21
363.6429350181196
  0
LINE
  8
_0-0_0
  6
CONTINUOUS
 62
    7
 10
566.88433384251573
 20
382.31950092654654
 11
567.87773850858025
 21
381.83594666089778
  0
LINE
  8
_0-0_0
  6
CONTINUOUS
 62
    7
 10
564.22444373462451
 20
363.79075132336942
 11
564.22444373462451
 21
345.59367383223366
  0
LINE
  8
_0-0_0
  6
CONTINUOUS
 62
    7
 10
566.66459351749563
 20
382.68202302352739
 11
566.66459351749563
 21
385.88422031529274
  0
LINE
  8
_0-0_0
  6
CONTINUOUS
 62
    7
 10
567.76055311319999
 20
388.25846602434501
 11
567.76055311319999
 21
387.21762751859444
  0
LINE
  8
_0-0_0
  6
CONTINUOUS
 62
    7
 10
568.35834925539109
 20
381.79230440564049
 11
568.35834925539109
 21
379.60038521423189
  0
LINE
  8
_0-0_0
  6
CONTINUOUS
 62
    7
 10
570.15173768702607
 20
377.20920064040575
 11
570.15173768702607
 21
369.20919091430244
  0
LINE
  8
_0-0_0
  6
CONTINUOUS
 62
    7
 10
568.08187636015828
 20
381.79230440564049
 11
587.36567456176385
 21
381.79230440564049
  0
LINE
  8
_0-0_0
  6
CONTINUOUS
 62
    7
 10
573.38601532756752
 20
385.40450426420455
 11
573.38601532756752
 21
383.16183944606269
  0
LINE
  8
_0-0_0
  6
CONTINUOUS
 62
    7
 10
573.3060854233579
 20
382.8090460480912
 11
573.38593679327494
 21
383.16149281761557
  0
LINE
  8
_0-0_0
  6
CONTINUOUS
 62
    7
 10
605.34685770906742
 20
410.74250604343763
 11
602.8503652335869
 21
409.92175757604139
  0
LINE
  8
_0-0_0
  6
CONTINUOUS
 62
    7
 10
589.06202235140847
 20
389.25479292884063
 11
566.38562198261729
 21
389.25479292884063
  0
LINE
  8
_0-0_0
  6
CONTINUOUS
 62
    7
 10
589.67580861512442
 20
392.15366818852351
 11
565.7718357214319
 21
392.15366818852351
  0
LINE
  8
_0-0_0
  6
CONTINUOUS
 62
    7
 10
588.20007397616939
 20
386.43251162094907
 11
588.56324498763888
 21
386.246776877473
  0
LINE
  8
_0-0_0
  6
CONTINUOUS
 62
    7
 10
588.20006528837814
 20
386.43251663673772
 11
588.11053015909556
 21
386.48420976922228
  0
LINE
  8
_0-0_0
  6
CONTINUOUS
 62
    7
 10
582.47658510991096
 20
385.40450426420455
 11
582.47658510991096
 21
383.16183944606269
  0
LINE
  8
_0-0_0
  6
CONTINUOUS
 62
    7
 10
585.29590664953025
 20
377.20920064040575
 11
585.29590664953025
 21
369.20895429156428
  0
LINE
  8
_0-0_0
  6
CONTINUOUS
 62
    7
 10
567.24756554705186
 20
386.43250884227308
 11
567.33711417746076
 21
386.48420976922228
  0
LINE
  8
_0-0_0
  6
CONTINUOUS
 62
    7
 10
567.24757036038693
 20
386.43251162094907
 11
566.88439956908576
 21
386.24677699388377
  0
LINE
  8
_0-0_0
  6
CONTINUOUS
 62
    7
 10
598.12412558475194
 20
406.19492453856429
 11
601.29336431427453
 21
406.69688264114814
  0
LINE
  8
_0-0_0
  6
CONTINUOUS
 62
    7
 10
557.32351874927372
 20
406.19492453856429
 11
554.15428002228202
 21
406.69688264114814
  0
LINE
  8
_0-0_0
  6
CONTINUOUS
 62
    7
 10
550.10078662748901
 20
410.74250604343763
 11
552.59727910296954
 21
409.92175757604139
  0
LINE
  8
_0-0_0
  6
CONTINUOUS
 62
    7
 10
587.08929507863456
 20
381.79230440564049
 11
587.08929507863456
 21
379.60038521423189
  0
LINE
  8
_0-0_0
  6
CONTINUOUS
 62
    7
 10
587.68709122335645
 20
388.25846602434501
 11
587.68709122335645
 21
387.21762751859444
  0
LINE
  8
_0-0_0
  6
CONTINUOUS
 62
    7
 10
588.78305081906069
 20
385.88422031529274
 11
588.78305081906069
 21
382.68215336317263
  0
LINE
  8
_0-0_0
  6
CONTINUOUS
 62
    7
 10
591.22320060193181
 20
345.59367383223366
 11
591.22320060193181
 21
363.79075132336942
  0
LINE
  8
_0-0_0
  6
CONTINUOUS
 62
    7
 10
594.0160115603104
 20
345.74149013495287
 11
594.0160115603104
 21
363.6429350181196
  0
LINE
  8
_0-0_0
  6
CONTINUOUS
 62
    7
 10
588.56331941465362
 20
382.31962903160985
 11
587.56986151593856
 21
381.83596874352708
  0
LINE
  8
_0-0_0
  6
CONTINUOUS
 62
    7
 10
602.13383135246067
 20
408.96552372997922
 11
602.13383135246067
 21
407.68094310813194
  0
LINE
  8
_0-0_0
  6
CONTINUOUS
 62
    7
 10
610.30342807518264
 20
417.98886088465804
 11
545.14421626137369
 21
417.98886088465804
  0
LINE
  8
_0-0_0
  6
CONTINUOUS
 62
    7
 10
604.4239598064014
 20
345.69166916707906
 11
604.4239598064014
 21
363.69275598599336
  0
LINE
  8
_0-0_0
  6
CONTINUOUS
 62
    7
 10
606.41803704660003
 20
346.07398484391888
 11
606.41803704660003
 21
363.31044030915365
  0
ARC
  8
_0-0_0
  6
CONTINUOUS
 62
    7
 10
477.09480471046936
 20
354.72210238465806
 40
7.8709825523477148
 50
90
 51
270
  0
ARC
  8
_0-0_0
  6
CONTINUOUS
 62
    7
 10
556.2426541820563
 20
366.80051671073227
 40
6.0741930313706689
 50
210.77269867109996
 51
328.6787764298
  0
ARC
  8
_0-0_0
  6
CONTINUOUS
 62
    7
 10
556.2426541820563
 20
342.5839084423402
 40
6.0741930313706689
 50
31.321223570200001
 51
149.22730132890001
  0
ARC
  8
_0-0_0
  6
CONTINUOUS
 62
    7
 10
562.87855127686964
 20
362.76246051130147
 40
1.6937557404261858
 50
37.380606337300001
 51
148.6787764298
  0
ARC
  8
_0-0_0
  6
CONTINUOUS
 62
    7
 10
562.87855127686964
 20
346.621964641771
 40
1.6937557404261858
 50
211.32122357019998
 51
322.61939366270002
  0
ARC
  8
_0-0_0
  6
CONTINUOUS
 62
    7
 10
568.65724732901731
 20
377.20920064040575
 40
1.4944903580086712
 50
0
 51
73.739795291700005
  0
ARC
  8
_0-0_0
  6
CONTINUOUS
 62
    7
 10
550.38164864143948
 20
346.07398484391888
 40
0.747245180269671
 50
270
 51
329.227301329
  0
ARC
  8
_0-0_0
  6
CONTINUOUS
 62
    7
 10
550.38164864143948
 20
363.31044030915365
 40
0.747245180269671
 50
30.772698671000001
 51
90
  0
ARC
  8
_0-0_0
  6
CONTINUOUS
 62
    7
 10
549.77685246769545
 20
363.31044030915365
 40
0.747245180269671
 50
90
 51
180
  0
ARC
  8
_0-0_0
  6
CONTINUOUS
 62
    7
 10
549.77685246769545
 20
346.07398484391888
 40
0.747245180269671
 50
180
 51
270
  0
ARC
  8
_0-0_0
  6
CONTINUOUS
 62
    7
 10
564.62029445883343
 20
364.09318979720933
 40
0.498163453513114
 50
217.3806063374
 51
295.54422991400003
  0
ARC
  8
_0-0_0
  6
CONTINUOUS
 62
    7
 10
564.62029445883343
 20
345.29123535586308
 40
0.498163453513114
 50
64.455770086000001
 51
142.61939366260003
  0
ARC
  8
_0-0_0
  6
CONTINUOUS
 62
    7
 10
555.53113028671692
 20
394.87822915686218
 40
11.457759413086928
 50
20.519254473299998
 51
81
  0
ARC
  8
_0-0_0
  6
CONTINUOUS
 62
    7
 10
557.86391627412547
 20
395.75131573856987
 40
8.9669421505826996
 50
340.30028194710007
 51
20.519254473300037
  0
ARC
  8
_0-0_0
  6
CONTINUOUS
 62
    7
 10
552.69479233246193
 20
417.83547081847507
 40
7.5524178170414409
 50
178.8362392034
 51
249.91176090759998
  0
ARC
  8
_0-0_0
  6
CONTINUOUS
 62
    7
 10
566.38562198261729
 20
390.76920982559722
 40
1.5144168967565568
 50
113.9096422113
 51
270
  0
ARC
  8
_0-0_0
  6
CONTINUOUS
 62
    7
 10
569.35467616241749
 20
379.60038521423189
 40
0.9963269044955575
 50
180
 51
253.73979529169998
  0
ARC
  8
_0-0_0
  6
CONTINUOUS
 62
    7
 10
554.31013988859127
 20
407.68094310813194
 40
0.9963269044955575
 50
180
 51
261
  0
ARC
  8
_0-0_0
  6
CONTINUOUS
 62
    7
 10
552.31748607706936
 20
408.96552372997922
 40
0.9963269044955575
 50
0
 51
73.690579246499993
  0
ARC
  8
_0-0_0
  6
CONTINUOUS
 62
    7
 10
565.36802897205075
 20
393.0644960615337
 40
0.9963269044955575
 50
293.90964221130002
 51
340.30028194699997
  0
ARC
  8
_0-0_0
  6
CONTINUOUS
 62
    7
 10
566.7642262061737
 20
388.25846602434501
 40
0.9963269044955575
 50
0
 51
90
  0
ARC
  8
_0-0_0
  6
CONTINUOUS
 62
    7
 10
566.91367524425209
 20
387.21762751859444
 40
0.8468778689477574
 50
299.99999999990001
 51
0.0000000000000127
  0
ARC
  8
_0-0_0
  6
CONTINUOUS
 62
    7
 10
568.08164364983645
 20
382.29046785915364
 40
0.498163453513114
 50
245.83826853310001
 51
270
  0
ARC
  8
_0-0_0
  6
CONTINUOUS
 62
    7
 10
577.72382216827816
 20
336.67556189461726
 40
29.889807165234771
 50
64.455806191400015
 51
68.901418007600014
  0
ARC
  8
_0-0_0
  6
CONTINUOUS
 62
    7
 10
577.72382216827816
 20
336.67556189714793
 40
29.889807165234771
 50
111.0990539607
 51
115.5441938125
  0
ARC
  8
_0-0_0
  6
CONTINUOUS
 62
    7
 10
577.72382216827816
 20
372.70886326098582
 40
29.889807165234771
 50
244.45580619319998
 51
295.54419380859997
  0
ARC
  8
_0-0_0
  6
CONTINUOUS
 62
    7
 10
678.35283962355618
 20
354.72210238465806
 40
7.8709825523477148
 50
270
 51
90
  0
ARC
  8
_0-0_0
  6
CONTINUOUS
 62
    7
 10
599.20499015196935
 20
366.80051671073227
 40
6.0741930313706689
 50
211.32122357019998
 51
329.22730132890001
  0
ARC
  8
_0-0_0
  6
CONTINUOUS
 62
    7
 10
599.20499015196935
 20
342.5839084423402
 40
6.0741930313706689
 50
30.772698671099995
 51
148.6787764298
  0
ARC
  8
_0-0_0
  6
CONTINUOUS
 62
    7
 10
592.56909305968668
 20
362.76246051130147
 40
1.6937557404261858
 50
31.321223570200001
 51
142.61939366269999
  0
ARC
  8
_0-0_0
  6
CONTINUOUS
 62
    7
 10
592.56909305968668
 20
346.621964641771
 40
1.6937557404261858
 50
217.38060633730001
 51
328.6787764298
  0
ARC
  8
_0-0_0
  6
CONTINUOUS
 62
    7
 10
586.79039700753901
 20
377.20920064040575
 40
1.4944903580086712
 50
106.26020470829999
 51
180
  0
ARC
  8
_0-0_0
  6
CONTINUOUS
 62
    7
 10
605.67079186633021
 20
346.07398484391888
 40
0.747245180269671
 50
270
 51
0
  0
ARC
  8
_0-0_0
  6
CONTINUOUS
 62
    7
 10
605.67079186633021
 20
363.31044030915365
 40
0.747245180269671
 50
0
 51
90
  0
ARC
  8
_0-0_0
  6
CONTINUOUS
 62
    7
 10
605.06599569511695
 20
346.07398484391888
 40
0.747245180269671
 50
210.77269867100003
 51
270
  0
ARC
  8
_0-0_0
  6
CONTINUOUS
 62
    7
 10
605.06599569511695
 20
363.31044030915365
 40
0.747245180269671
 50
90
 51
149.227301329
  0
ARC
  8
_0-0_0
  6
CONTINUOUS
 62
    7
 10
590.8273498777229
 20
364.09318979720933
 40
0.498163453513114
 50
244.45577008599997
 51
322.61939366259998
  0
ARC
  8
_0-0_0
  6
CONTINUOUS
 62
    7
 10
590.8273498777229
 20
345.29123535586308
 40
0.498163453513114
 50
37.380606337400003
 51
115.54422991400001
  0
ARC
  8
_0-0_0
  6
CONTINUOUS
 62
    7
 10
599.91651404983952
 20
394.87822915686218
 40
11.457759413086928
 50
99.000000000000014
 51
159.48074552670002
  0
ARC
  8
_0-0_0
  6
CONTINUOUS
 62
    7
 10
597.58372806243108
 20
395.75131573856987
 40
8.9669421505826996
 50
159.48074552670002
 51
199.69971805290004
  0
ARC
  8
_0-0_0
  6
CONTINUOUS
 62
    7
 10
602.75285200156384
 20
417.83547081847507
 40
7.5524178170414409
 50
290.0882390923
 51
1.163760796600007
  0
ARC
  8
_0-0_0
  6
CONTINUOUS
 62
    7
 10
589.06202235140847
 20
390.76920982559722
 40
1.5144168967565568
 50
270
 51
66.090357788700004
  0
ARC
  8
_0-0_0
  6
CONTINUOUS
 62
    7
 10
586.09296817413895
 20
379.60038521423189
 40
0.9963269044955575
 50
286.26020470830008
 51
0
  0
ARC
  8
_0-0_0
  6
CONTINUOUS
 62
    7
 10
601.13750444796517
 20
407.68094310813194
 40
0.9963269044955575
 50
279
 51
0
  0
ARC
  8
_0-0_0
  6
CONTINUOUS
 62
    7
 10
603.13015825948708
 20
408.96552372997922
 40
0.9963269044955575
 50
106.3094207538
 51
180
  0
ARC
  8
_0-0_0
  6
CONTINUOUS
 62
    7
 10
590.07961536450557
 20
393.0644960615337
 40
0.9963269044955575
 50
199.69971805300003
 51
246.09035778870003
  0
ARC
  8
_0-0_0
  6
CONTINUOUS
 62
    7
 10
588.68341812785195
 20
388.25846602434501
 40
0.9963269044955575
 50
90
 51
180
  0
ARC
  8
_0-0_0
  6
CONTINUOUS
 62
    7
 10
588.53396909230423
 20
387.21762751859444
 40
0.8468778689477574
 50
180
 51
240.00000000009999
  0
ARC
  8
_0-0_0
  6
CONTINUOUS
 62
    7
 10
587.36590716073613
 20
382.29046785915364
 40
0.498163453513114
 50
270
 51
294.1679355938
  0
ARC
  8
_0-0_0
  6
CONTINUOUS
 62
    7
 10
565.16907294267367
 20
369.20992184551034
 40
4.9826647988975665
 50
291.11043713088412
 51
359.99152216695211
  0
ARC
  8
_0-0_0
  6
CONTINUOUS
 62
    7
 10
590.41951159973519
 20
369.30633996401912
 40
5.124525355150257
 50
181.08890036509794
 51
247.80866569174623
  0
ARC
  8
_0-0_0
  6
CONTINUOUS
 62
    7
 10
567.12485142049252
 20
385.85319062537673
 40
0.4612237226328919
 50
121.42181159073388
 51
176.29143716204607
  0
ARC
  8
_0-0_0
  6
CONTINUOUS
 62
    7
 10
588.40708565133787
 20
385.88910423470458
 40
0.3759968882978839
 50
359.25574958758904
 51
65.492314722744396
  0
ARC
  8
_0-0_0
  6
CONTINUOUS
 62
    7
 10
567.09301397751301
 20
385.37952740248551
 40
0.4291481692052837
 50
119.30034631856302
 51
176.66286084942644
  0
ARC
  8
_0-0_0
  6
CONTINUOUS
 62
    7
 10
570.0297193065602
 20
375.86636721152138
 40
10.380381351367703
 50
72.334463833953734
 51
107.6637321967842
  0
ARC
  8
_0-0_0
  6
CONTINUOUS
 62
    7
 10
573.24278292747829
 20
386.02989136124563
 40
0.2798298606252274
 50
256.98206331872763
 51
283.07522412195482
  0
ARC
  8
_0-0_0
  6
CONTINUOUS
 62
    7
 10
4431.9753594708573
 20
1259.6263972425813
 40
3956.3841629731096
 50
192.7604724966539
 51
192.7657053141038
  0
ARC
  8
_0-0_0
  6
CONTINUOUS
 62
    7
 10
573.24288498699025
 20
382.53634728871975
 40
0.2799266127395426
 50
76.951543745306623
 51
103.0214232823831
  0
ARC
  8
_0-0_0
  6
CONTINUOUS
 62
    7
 10
570.05576535205614
 20
392.82431684740919
 40
10.491174390633288
 50
252.67917007439164
 51
287.32423358262832
  0
LINE
  8
_0-0_0
  6
CONTINUOUS
 62
    7
 10
566.93218066735608
 20
382.80898674183186
 11
566.91813271890635
 21
382.81247519244482
  0
LINE
  8
_0-0_0
  6
CONTINUOUS
 62
    7
 10
566.91813271890635
 20
382.81247519244482
 11
566.90395307184156
 21
382.81606071451057
  0
ARC
  8
_0-0_0
  6
CONTINUOUS
 62
    7
 10
566.89496752325181
 20
382.80226980891717
 40
0.0164599258971157
 50
56.91350026879914
 51
156.0221847161263
  0
ARC
  8
_0-0_0
  6
CONTINUOUS
 62
    7
 10
567.06749042856939
 20
383.16552709165597
 40
0.4029147228144931
 50
180.538748213654
 51
242.27107350005087
  0
ARC
  8
_0-0_0
  6
CONTINUOUS
 62
    7
 10
577.72398596329435
 20
365.25082659524941
 40
20.976926430392101
 50
77.843026485316557
 51
102.15789376911511
  0
ARC
  8
_0-0_0
  6
CONTINUOUS
 62
    7
 10
582.20472812569062
 20
386.0341009453054
 40
0.2839343349879628
 50
257.15208407607207
 51
282.85078629651088
  0
ARC
  8
_0-0_0
  6
CONTINUOUS
 62
    7
 10
581.89026830141836
 20
385.29575460677785
 40
0.5963169357911074
 50
10.50777142957782
 51
50.710589679416493
  0
ARC
  8
_0-0_0
  6
CONTINUOUS
 62
    7
 10
581.88927943942679
 20
383.27124735666621
 40
0.597418317477669
 50
309.3123298145934
 51
349.4137929899893
  0
ARC
  8
_0-0_0
  6
CONTINUOUS
 62
    7
 10
582.20472329765653
 20
382.53564929679521
 40
0.2805759370287599
 50
77.010859195409054
 51
103.02332935047698
  0
ARC
  8
_0-0_0
  6
CONTINUOUS
 62
    7
 10
577.7238108148573
 20
403.31797783480818
 40
20.979323375551946
 50
257.84396788496213
 51
282.15611512074508
  0
ARC
  8
_0-0_0
  6
CONTINUOUS
 62
    7
 10
585.3947255114075
 20
376.01737947973277
 40
10.229506450725554
 50
72.073897526767396
 51
107.79843916314471
  0
ARC
  8
_0-0_0
  6
CONTINUOUS
 62
    7
 10
588.55225014351117
 20
385.76438094625553
 40
0.0167135149721879
 50
237.4854662462408
 51
335.0871747594752
  0
ARC
  8
_0-0_0
  6
CONTINUOUS
 62
    7
 10
588.33554716745857
 20
385.37346256405476
 40
0.4485790188359659
 50
3.968106777701975
 51
58.839450524291152
  0
ARC
  8
_0-0_0
  6
CONTINUOUS
 62
    7
 10
588.33797948502831
 20
383.19142628019677
 40
0.4460766255746695
 50
300.99552693952819
 51
356.152340827648
  0
ARC
  8
_0-0_0
  6
CONTINUOUS
 62
    7
 10
585.39147267848784
 20
392.82664316821189
 40
10.493342108507704
 50
252.68144608979961
 51
287.32025091440391
  0
ARC
  8
_0-0_0
  6
CONTINUOUS
 62
    7
 10
588.54155157984826
 20
382.77324367311212
 40
0.044332211080902
 50
53.861404918891552
 51
126.09925007346011
  0
ARC
  8
_0-0_0
  6
CONTINUOUS
 62
    7
 10
588.3206879315228
 20
382.71454499891445
 40
0.4634961249444194
 50
301.5660509874408
 51
355.99259206714009
  0
ARC
  8
_0-0_0
  6
CONTINUOUS
 62
    7
 10
567.12695662004808
 20
382.71442319419356
 40
0.4634969359782203
 50
184.00845855158809
 51
238.4352736360326
  0
LINE
  8
_0-0_0
  6
CONTINUOUS
 62
    7
 10
602.85036523540987
 20
409.9217575739209
 11
552.59727910296954
 21
409.92175757604139
  0
LINE
  8
_0-0_0
  6
CONTINUOUS
 62
    7
 10
598.12412558475194
 20
406.19492453856429
 11
557.32351874927372
 21
406.19492453856429
  0
LINE
  8
_0-1_DEFPOINTS
  6
CONTINUOUS
 62
    7
 10
469.22382215559094
 20
466.85097244916506
 11
474.14786092065196
 21
467.7192133374997
  0
LINE
  8
_0-1_DEFPOINTS
  6
CONTINUOUS
 62
    7
 10
469.22382215559094
 20
466.85097244916506
 11
474.14786092065196
 21
465.98273156083042
  0
LINE
  8
_0-1_DEFPOINTS
  6
CONTINUOUS
 62
    7
 10
686.2238221784346
 20
466.85097244916506
 11
681.29978341337369
 21
465.98273156083042
  0
LINE
  8
_0-1_DEFPOINTS
  6
CONTINUOUS
 62
    7
 10
686.2238221784346
 20
466.85097244916506
 11
681.29978341337369
 21
467.7192133374997
  0
TEXT
  8
_0-1_DEFPOINTS
 62
    7
 10
568.34882216701283
 20
469.35097244916506
 40
20
 41
1
 50
0
  1
217
  0
LINE
  8
_0-1_DEFPOINTS
  6
CONTINUOUS
 62
    7
 10
469.22382215559094
 20
466.85097244916506
 11
686.2238221784346
 21
466.85097244916506
  0
LINE
  8
_0-1_DEFPOINTS
  6
CONTINUOUS
 62
    7
 10
686.2238221784346
 20
466.85097244916506
 11
686.2238221784346
 21
355.50293323347881
  0
LINE
  8
_0-1_DEFPOINTS
  6
CONTINUOUS
 62
    7
 10
469.22382215559094
 20
466.85097244916506
 11
469.22382215559094
 21
355.50293323347881
  0
LINE
  8
_0-1_DEFPOINTS
  6
CONTINUOUS
 62
    7
 10
429.69823722312981
 20
417.98886088465804
 11
545.14421626137369
 21
417.98886088465804
  0
LINE
  8
_8-0____-128
  6
CENTER1
 62
    7
 10
961.26519900501091
 20
609.13671023965139
 11
961.26519900501091
 21
813.71187363834429
  0
LINE
  8
_8-0____-128
  6
CENTER1
 62
    7
 10
726.52777777777783
 20
417.98886088465804
 11
345.15522875816998
 21
417.98886088465804
  0
LINE
  8
_0-1_DEFPOINTS
  6
CONTINUOUS
 62
    7
 10
510.93137254901967
 20
417.98886088465804
 11
511.79961343735437
 21
413.06482211959701
  0
LINE
  8
_0-1_DEFPOINTS
  6
CONTINUOUS
 62
    7
 10
510.93137254901967
 20
417.98886088465804
 11
510.06313166068503
 21
413.06482211959701
  0
LINE
  8
_0-1_DEFPOINTS
  6
CONTINUOUS
 62
    7
 10
510.93137254901967
 20
342.81905609575108
 11
510.06313166068503
 21
347.74309486081211
  0
LINE
  8
_0-1_DEFPOINTS
  6
CONTINUOUS
 62
    7
 10
510.93137254901967
 20
342.81905609575108
 11
511.79961343735437
 21
347.74309486081211
  0
TEXT
  8
_0-1_DEFPOINTS
 62
    7
 10
508.43137254901978
 20
374.15395849020456
 40
20
 41
1
 50
90
  1
76
  0
LINE
  8
_0-1_DEFPOINTS
  6
CONTINUOUS
 62
    7
 10
510.93137254901967
 20
342.81905609575108
 11
577.41065552378336
 21
342.81905609575108
  0
LINE
  8
_0-1_DEFPOINTS
  6
CONTINUOUS
 62
    7
 10
510.93137254901967
 20
417.98886088465804
 11
510.93137254901967
 21
342.81905609575108
  0
LINE
  8
_0-1_DEFPOINTS
  6
CENTER1
 62
    7
 10
469.22382215559094
 20
755.06135600580842
 11
576.65713507625287
 21
755.06135600580842
  0
LINE
  8
_0-1_DEFPOINTS
  6
CENTER1
 62
    7
 10
469.22382215559094
 20
613.97990834279415
 11
495.77478213507641
 21
613.97990834279415
  0
LINE
  8
_f-0____-240
  6
CONTINUOUS
 62
    7
 10
72.960954729070977
 20
136.08845421350054
 11
1391.280690635117
 21
136.08845421350054
  0
LINE
  8
_f-0____-240
  6
CONTINUOUS
 62
    7
 10
46.749389292405112
 20
1020.5715019247659
 11
1417.582036974429
 21
1020.5715019247659
  0
LINE
  8
_f-0____-240
  6
CONTINUOUS
 62
    7
 10
1417.582036974429
 20
1020.5715019247659
 11
1417.582036974429
 21
51.295892452627641
  0
LINE
  8
_f-0____-240
  6
CONTINUOUS
 62
    7
 10
1417.582036974429
 20
51.295892452627641
 11
46.749389292405112
 21
51.295892452627641
  0
LINE
  8
_f-0____-240
  6
CONTINUOUS
 62
    7
 10
46.749389292405112
 20
51.295892452627641
 11
46.749389292405112
 21
1020.5715019247659
  0
TEXT
  8
_f-0____-240
 62
    7
 10
916.45209236573589
 20
94.288290398999095
 40
17.308493026288119
 41
1.0000000000000038
 50
0
  1
19/04/18
  0
LINE
  8
_f-0____-240
  6
CONTINUOUS
 62
    7
 10
72.960954729070977
 20
77.315689013500446
 11
1391.280690635117
 21
77.315689013500446
  0
LINE
  8
_f-0____-240
  6
CONTINUOUS
 62
    7
 10
72.960954729070977
 20
136.08845421350054
 11
72.960954729070977
 21
77.315689013500446
  0
LINE
  8
_f-0____-240
  6
CONTINUOUS
 62
    7
 10
542.27986562907085
 20
136.08845421350054
 11
542.27986562907085
 21
77.315689013500446
  0
LINE
  8
_f-0____-240
  6
CONTINUOUS
 62
    7
 10
760.6622185790709
 20
136.08845421350054
 11
760.6622185790709
 21
77.315689013500446
  0
LINE
  8
_f-0____-240
  6
CONTINUOUS
 62
    7
 10
877.57398327907083
 20
136.08845421350054
 11
877.57398327907083
 21
77.315689013500446
  0
LINE
  8
_f-0____-240
  6
CONTINUOUS
 62
    7
 10
1013.235747979071
 20
136.08845421350054
 11
1013.235747979071
 21
77.315689013500446
  0
LINE
  8
_f-0____-240
  6
CONTINUOUS
 62
    7
 10
1391.2806906290709
 20
136.08845421350054
 11
1391.2806906290709
 21
77.315689013500446
  0
TEXT
  8
_f-0____-240
 62
    7
 10
1087.3767701525044
 20
82.145288671023877
 40
17.308493026287977
 41
1.000000000000012
 50
0
  1
日鉄物産マテックス株式会社
  0
LINE
  8
ADD_LINE
  6
DOT
 62
    9
 10
72.960954729070977
 20
106.29765795200051
 11
1391.280690635117
 21
106.29765795200051
  0
LINE
  8
ADD_LINE
  6
DOT
 62
    9
 10
72.960954729070977
 20
87.882020092000559
 11
1391.280690635117
 21
87.882020092000559
  0
LINE
  8
ADD_LINE
  6
DOT
 62
    9
 10
552.26534132157099
 20
136.08845421350054
 11
552.26534132157099
 21
77.315689013500446
  0
LINE
  8
ADD_LINE
  6
DOT
 62
    9
 10
1021.2649782135711
 20
136.08845421350054
 11
1021.2649782135711
 21
77.315689013500446
  0
LINE
  8
ADD_LINE
  6
DOT
 62
    9
 10
992.80637254901967
 20
114.19374848700052
 11
1391.280690635117
 21
114.19374848700052
  0
TEXT
  8
_f-0____-240
 62
    7
 10
552.26534132157099
 20
87.882020092000559
 40
17.308493026288048
 41
1.0000000000000056
 50
0
  1
K-72571
  0
TEXT
  8
_f-0____-240
 62
    7
 10
552.26534132157099
 20
106.29765795200051
 40
17.308493026288048
 41
1.0000000000000056
 50
0
  1
タオルリング
  0
TEXT
  8
_f-0____-240
 62
    7
 10
1021.2649782135711
 20
114.19374848700052
 40
17.308493026288048
 41
1.000000000000008
 50
0
  1
KOHLER　アーティファクツ
  0
ENDSEC
  0
EOF
