  0
SECTION
  2
HEADER
  9
$ACADVER
  1
AC1009
  9
$INSBASE
 10
0
 20
0
 30
0
  9
$EXTMIN
 10
0
 20
0
  9
$EXTMAX
 10
2970
 20
2100
  9
$LIMMIN
 10
0
 20
0
  9
$LIMMAX
 10
2970
 20
2100
  9
$LTSCALE
 40
10
  0
ENDSEC
  0
SECTION
  2
TABLES
  0
TABLE
  2
LTYPE
 70
     9
  0
LTYPE
  2
CONTINUOUS
 70
    64
  3
実線
 72
    65
 73
     0
 40
0.0
  0
LTYPE
  2
DASHED1
 70
    64
  3
--  --  --  --  --  --  --  --  
 72
    65
 73
     2
 40
2.5
 49
1.25
 49
-1.25
  0
LTYPE
  2
DASHED2
 70
    64
  3
----    ----    ----    ----    
 72
    65
 73
     2
 40
5.0
 49
2.5
 49
-2.5
  0
LTYPE
  2
DASHED3
 70
    64
  3
------  ------  ------  ------  
 72
    65
 73
     2
 40
5.0
 49
3.75
 49
-1.25
  0
LTYPE
  2
CENTER1
 70
    64
  3
----- - ----- - ----- - ----- - 
 72
    65
 73
     4
 40
10.0
 49
6.25
 49
-1.25
 49
1.25
 49
-1.25
  0
LTYPE
  2
CENTER2
 70
    64
  3
----------  --  ----------  --  
 72
    65
 73
     4
 40
20.0
 49
12.5
 49
-2.5
 49
2.5
 49
-2.5
  0
LTYPE
  2
PHANTOM1
 70
    64
  3
--- - - --- - - --- - - --- - - 
 72
    65
 73
     6
 40
10.0
 49
3.25
 49
-1.25
 49
1.25
 49
-1.25
 49
1.25
 49
-1.25
  0
LTYPE
  2
PHANTOM2
 70
    64
  3
--------  -  -  --------  -  -  
 72
    65
 73
     6
 40
20.0
 49
10.0
 49
-2.5
 49
1.25
 49
-2.5
 49
1.25
 49
-2.5
  0
LTYPE
  2
DOT
 70
    64
  3
-   -   -   -   -   -   -   -   
 72
    65
 73
     2
 40
2.5
 49
0.625
 49
-1.875
  0
LTYPE
  2
DUMMY
 70
    64
  3
ダミー
 72
    65
 73
     0
 40
0.0
  0
LTYPE
  2
RAND1
 70
    64
  3
ランダム線1
 72
    65
 73
     4
 40
10.0
 49
1.0
 49
-2.0
 49
3.0
 49
-4.0
  0
LTYPE
  2
RAND2
 70
    64
  3
ランダム線2
 72
    65
 73
     4
 40
14.0
 49
2.0
 49
-3.0
 49
4.0
 49
-5.0
  0
LTYPE
  2
RAND3
 70
    64
  3
ランダム線3
 72
    65
 73
     4
 40
18.0
 49
3.0
 49
-4.0
 49
5.0
 49
-6.0
  0
LTYPE
  2
RAND4
 70
    64
  3
ランダム線4
 72
    65
 73
     4
 40
22.0
 49
4.0
 49
-5.0
 49
6.0
 49
-7.0
  0
LTYPE
  2
RAND5
 70
    64
  3
ランダム線5
 72
    65
 73
     4
 40
26.0
 49
5.0
 49
-6.0
 49
7.0
 49
-8.0
  0
LTYPE
  2
LONG1
 70
    64
  3
----------  --  ----------  --  
 72
    65
 73
     4
 40
40.0
 49
32.5
 49
-2.5
 49
2.5
 49
-2.5
  0
LTYPE
  2
LONG2
 70
    64
  3
--------  -  -  --------  -  -  
 72
    65
 73
     6
 40
40.0
 49
30.0
 49
-2.5
 49
1.25
 49
-2.5
 49
1.25
 49
-2.5
  0
LTYPE
  2
LONG3
 70
    64
  3
+++++++++++++++..+++++++++++++++
 72
    65
 73
     2
 40
40.0
 49
37.5
 49
-2.5
  0
LTYPE
  2
LONG4
 70
    64
  3
+++++++++++++++..+++++++++++++++
 72
    65
 73
     2
 40
80.0
 49
75.0
 49
-5.0
  0
LTYPE
  2
LONG5
 70
    64
  3
----------  --  ----------  --  
 72
    65
 73
     4
 40
60.0
 49
37.5
 49
-7.5
 49
7.5
 49
-7.5
  0
LTYPE
  2
dashed
 70
   64
  3
-------   -------------   ------
 72
   65
 73
    2
 40
7.5
 49
6
 49
-1.5
  0
LTYPE
  2
dashed_spaced
 70
   64
  3
----        --------        ----
 72
   65
 73
    2
 40
12
 49
6
 49
-6
  0
LTYPE
  2
long_dashed_dotted
 70
   64
  3
------------- --- --------------
 72
   65
 73
    4
 40
15.25
 49
12
 49
-1.5
 49
0.25
 49
-1.5
  0
LTYPE
  2
long_dashed_double-dotted
 70
   64
  3
----------- --- --- ------------
 72
   65
 73
    6
 40
17
 49
12
 49
-1.5
 49
0.25
 49
-1.5
 49
0.25
 49
-1.5
  0
LTYPE
  2
long_dashed_triplicate-dotted
 70
   64
  3
--------- --- --- --- ----------
 72
   65
 73
    8
 40
18.75
 49
12
 49
-1.5
 49
0.25
 49
-1.5
 49
0.25
 49
-1.5
 49
0.25
 49
-1.5
  0
LTYPE
  2
dotted
 70
   64
  3
   -       -       -       -    
 72
   65
 73
    2
 40
1.75
 49
0.25
 49
-1.5
  0
LTYPE
  2
chain
 70
   64
  3
-------------- -- --------------
 72
   65
 73
    4
 40
18.5
 49
12
 49
-1.5
 49
3.5
 49
-1.5
  0
LTYPE
  2
chain_double_dash
 70
   64
  3
------------ -- -- -------------
 72
   65
 73
    6
 40
23.5
 49
12
 49
-1.5
 49
3.5
 49
-1.5
 49
3.5
 49
-1.5
  0
LTYPE
  2
dashed_dotted
 70
   64
  3
-----------     -     ----------
 72
   65
 73
    4
 40
9.25
 49
6
 49
-1.5
 49
0.25
 49
-1.5
  0
LTYPE
  2
double-dashed_dotted
 70
   64
  3
------   -----------   -   -----
 72
   65
 73
    6
 40
16.75
 49
6
 49
-1.5
 49
6
 49
-1.5
 49
0.25
 49
-1.5
  0
LTYPE
  2
dashed_double-dotted
 70
   64
  3
---------    -    -    ---------
 72
   65
 73
    6
 40
11
 49
6
 49
-1.5
 49
0.25
 49
-1.5
 49
0.25
 49
-1.5
  0
LTYPE
  2
double-dashed_double-dotted
 70
   64
  3
-----   ---------   -   -   ----
 72
   65
 73
    8
 40
18.5
 49
6
 49
-1.5
 49
6
 49
-1.5
 49
0.25
 49
-1.5
 49
0.25
 49
-1.5
  0
LTYPE
  2
dashed_triplicate-dotted
 70
   64
  3
-------    -    -    -    ------
 72
   65
 73
    8
 40
12.75
 49
6
 49
-1.5
 49
0.25
 49
-1.5
 49
0.25
 49
-1.5
 49
0.25
 49
-1.5
  0
LTYPE
  2
double-dashed_triplicate-dotted
 70
   64
  3
-----  ---------  -  -  -  -----
 72
   65
 73
   10
 40
20.25
 49
6
 49
-1.5
 49
6
 49
-1.5
 49
0.25
 49
-1.5
 49
0.25
 49
-1.5
 49
0.25
 49
-1.5
  0
LTYPE
  2
undefined
 70
   64
  3
--------------------------------
 72
   65
 73
    0
 40
0
  0
LTYPE
  2
______-6
 70
   64
  3
----------      --    ----------
 72
   65
 73
    4
 40
1.0416412353515625
 49
0.625
 49
-0.208282470703125
 49
0.069427490234375
 49
-0.1389312744140625
  0
LTYPE
  2
______-1
 70
   64
  3
------    ------------    ------
 72
   65
 73
    2
 40
0.2777269151475694
 49
0.208282470703125
 49
-0.0694444444444444
  0
LTYPE
  2
_
 70
   64
  3
                                
 72
   65
 73
    0
 40
0
  0
LTYPE
  2
__20
 70
   64
  3
                                
 72
   65
 73
    0
 40
0
  0
LTYPE
  2
__21
 70
   64
  3
                                
 72
   65
 73
    0
 40
0
  0
LTYPE
  2
__22
 70
   64
  3
                                
 72
   65
 73
    0
 40
0
  0
LTYPE
  2
__23
 70
   64
  3
                                
 72
   65
 73
    0
 40
0
  0
LTYPE
  2
__24
 70
   64
  3
                                
 72
   65
 73
    0
 40
0
  0
LTYPE
  2
__25
 70
   64
  3
                                
 72
   65
 73
    0
 40
0
  0
LTYPE
  2
__26
 70
   64
  3
                                
 72
   65
 73
    0
 40
0
  0
LTYPE
  2
__27
 70
   64
  3
                                
 72
   65
 73
    0
 40
0
  0
LTYPE
  2
__28
 70
   64
  3
                                
 72
   65
 73
    0
 40
0
  0
LTYPE
  2
__29
 70
   64
  3
                                
 72
   65
 73
    0
 40
0
  0
LTYPE
  2
__30
 70
   64
  3
                                
 72
   65
 73
    0
 40
0
  0
LTYPE
  2
__31
 70
   64
  3
                                
 72
   65
 73
    0
 40
0
  0
LTYPE
  2
__32
 70
   64
  3
                                
 72
   65
 73
    0
 40
0
  0
ENDTAB
  0
TABLE
  2
STYLE
  5
3
100
AcDbSymbolTable
 70
     1
  0
STYLE
  5
10
100
AcDbSymbolTableRecord
100
AcDbTextStyleTableRecord
  2
STANDARD
 70
     0
 40
0.0
 41
1.0
 50
0.0
 71
     0
 42
0.2
  3
txt
  4
bigfont.shx
  0
STYLE
  5
26
100
AcDbSymbolTableRecord
100
AcDbTextStyleTableRecord
  2
TATEGAKI
 70
    68
 40
0.0
 41
1.0
 50
0.0
 71
     0
 42
1.0
  3
txt
  4
bigfont.shx
  0
ENDTAB
  0
TABLE
  2
LAYER
 70
    4
  0
LAYER
  2
_0-0_0
 70
   64
 62
    7
  6
CONTINUOUS
  0
LAYER
  2
_0-2_____-2
 70
   64
 62
    7
  6
CONTINUOUS
  0
LAYER
  2
_0-3___
 70
   64
 62
    7
  6
CONTINUOUS
  0
LAYER
  2
ADD_LINE
 70
   64
 62
    7
  6
CONTINUOUS
  0
ENDTAB
  0
ENDSEC
  0
SECTION
  2
BLOCKS
  0
BLOCK
  2
-000-_DOT
 70
   64
 10
0
 20
0
 30
0
  0
CIRCLE
  8
_0-0_0
  6
CONTINUOUS
 62
    7
 10
0
 20
0
 40
0.25
  0
CIRCLE
  8
_0-0_0
  6
CONTINUOUS
 62
    7
 10
0
 20
-0
 40
0.25
  0
LINE
  8
_0-0_0
  6
CONTINUOUS
 62
    7
 10
-0.5
 20
0
 11
-1
 21
0
  0
ENDBLK
  0
ENDSEC
  0
SECTION
  2
ENTITIES
  0
POINT
  8
_0-2_____-2
 62
    2
 10
1226.2252461125024
 20
1656.3680828270319
  0
LINE
  8
_0-2_____-2
  6
CONTINUOUS
 62
    1
 10
608.36274611250224
 20
1888.143082827032
 11
1339.2627461125021
 21
1888.143082827032
  0
ARC
  8
_0-2_____-2
  6
CONTINUOUS
 62
    1
 10
1339.2627461125016
 20
1828.1430828270311
 40
60.000000000000767
 50
0.0000000000008651
 51
89.999999999999233
  0
LINE
  8
_0-2_____-2
  6
CONTINUOUS
 62
    1
 10
1399.2627461125021
 20
1828.1430828270322
 11
1399.2627461125028
 21
1483.005582827032
  0
ARC
  8
_0-2_____-2
  6
CONTINUOUS
 62
    1
 10
1339.2627461125028
 20
1483.0055828270326
 40
60.000000000000156
 50
270.00000000000011
 51
359.99999999999949
  0
LINE
  8
_0-2_____-2
  6
CONTINUOUS
 62
    1
 10
1339.2627461125028
 20
1423.0055828270324
 11
608.3627461125036
 21
1423.0055828270324
  0
ARC
  8
_0-2_____-2
  6
CONTINUOUS
 62
    1
 10
608.36274611250235
 20
1483.0055828270315
 40
59.999999999999147
 50
179.99999999999986
 51
270.00000000000125
  0
LINE
  8
_0-2_____-2
  6
CONTINUOUS
 62
    1
 10
548.36274611250315
 20
1483.0055828270315
 11
548.36274611250178
 21
1828.1430828270322
  0
ARC
  8
_0-2_____-2
  6
CONTINUOUS
 62
    1
 10
608.36274611250383
 20
1828.14308282703
 40
60.000000000002061
 50
90.000000000001592
 51
179.99999999999793
  0
LINE
  8
_0-2_____-2
  6
CONTINUOUS
 62
    2
 10
601.25190164499804
 20
1855.644332827032
 11
1346.3735905800077
 21
1855.644332827032
  0
ARC
  8
_0-2_____-2
  6
CONTINUOUS
 62
    2
 10
1346.1767679745622
 20
1835.0583896699713
 40
20.586884047950107
 50
359.46249013036845
 51
89.452210621948538
  0
LINE
  8
_0-2_____-2
  6
CONTINUOUS
 62
    2
 10
1366.7627461125014
 20
1834.8652604178267
 11
1366.7627461125021
 21
1476.2834052362364
  0
ARC
  8
_0-2_____-2
  6
CONTINUOUS
 62
    2
 10
1346.176767974566
 20
1476.0902759840901
 40
20.586884047947404
 50
270.54778937804144
 51
0.5375098696366649
  0
LINE
  8
_0-2_____-2
  6
CONTINUOUS
 62
    2
 10
1346.3735905800077
 20
1455.5043328270322
 11
601.2519016449985
 21
1455.5043328270322
  0
ARC
  8
_0-2_____-2
  6
CONTINUOUS
 62
    2
 10
601.448724250439
 20
1476.0902759840885
 40
20.586884047945986
 50
179.46249013036075
 51
269.4522106219614
  0
LINE
  8
_0-2_____-2
  6
CONTINUOUS
 62
    2
 10
580.86274611250406
 20
1476.2834052362359
 11
580.86274611250224
 21
1834.8652604178278
  0
ARC
  8
_0-2_____-2
  6
CONTINUOUS
 62
    2
 10
601.4487242504415
 20
1835.0583896699709
 40
20.586884047950399
 50
90.547789378047298
 51
180.53750986962831
  0
LINE
  8
_0-2_____-2
  6
CONTINUOUS
 62
    4
 10
608.36274611250315
 20
1870.7430828270319
 11
1339.2627461125021
 21
1870.7430828270319
  0
ARC
  8
_0-2_____-2
  6
CONTINUOUS
 62
    4
 10
1339.2627461125007
 20
1828.1430828270313
 40
42.60000000000052
 50
0.0000000000004325
 51
89.999999999997954
  0
LINE
  8
_0-2_____-2
  6
CONTINUOUS
 62
    4
 10
1381.8627461125013
 20
1828.1430828270318
 11
1381.8627461125027
 21
1483.005582827032
  0
ARC
  8
_0-2_____-2
  6
CONTINUOUS
 62
    4
 10
1339.2627461125035
 20
1483.0055828270317
 40
42.599999999999397
 50
269.99999999999932
 51
0.0000000000003053
  0
LINE
  8
_0-2_____-2
  6
CONTINUOUS
 62
    4
 10
1339.2627461125028
 20
1440.405582827032
 11
608.3627461125036
 21
1440.405582827032
  0
ARC
  8
_0-2_____-2
  6
CONTINUOUS
 62
    4
 10
608.36274611250292
 20
1483.0055828270313
 40
42.599999999999199
 50
179.99999999999963
 51
270.00000000000102
  0
LINE
  8
_0-2_____-2
  6
CONTINUOUS
 62
    4
 10
565.76274611250369
 20
1483.0055828270315
 11
565.76274611250187
 21
1828.1430828270322
  0
ARC
  8
_0-2_____-2
  6
CONTINUOUS
 62
    4
 10
608.36274611250406
 20
1828.1430828270297
 40
42.600000000002183
 50
90.000000000001151
 51
179.99999999999656
  0
POINT
  8
_0-2_____-2
 62
    2
 10
1226.2252461125024
 20
1656.3680828270319
  0
LINE
  8
_0-2_____-2
  6
______-6
 62
    3
 10
1138.7252461125024
 20
1656.3680828270319
 11
1313.7252461125024
 21
1656.3680828270319
  0
CIRCLE
  8
_0-2_____-2
  6
CONTINUOUS
 62
    1
 10
1226.2252461125024
 20
1656.3680828270319
 40
48.999999999999858
  0
LINE
  8
_0-2_____-2
  6
______-6
 62
    3
 10
1226.2252461125024
 20
1743.8680828270319
 11
1226.2252461125024
 21
1568.8680828270319
  0
CIRCLE
  8
_0-2_____-2
  6
CONTINUOUS
 62
    3
 10
1226.2252461125024
 20
1656.3680828270319
 40
72
  0
POINT
  8
_0-2_____-2
 62
    2
 10
1226.2252461125024
 20
1656.3680828270319
  0
LINE
  8
_0-2_____-2
  6
CONTINUOUS
 62
    4
 10
554.10966877596957
 20
867.43206389549823
 11
1393.6158234490349
 21
867.43206389549823
  0
ARC
  8
_0-2_____-2
  6
CONTINUOUS
 62
    4
 10
1393.6158234490363
 20
862.43206389550073
 40
4.999999999997657
 50
5.0290735817608709
 51
90.000000000015234
  0
LINE
  8
_0-2_____-2
  6
CONTINUOUS
 62
    4
 10
1398.5965751711656
 20
862.87037004704587
 11
1399.3127461125018
 21
854.7320638954983
  0
LINE
  8
_0-2_____-2
  6
CONTINUOUS
 62
    4
 10
1399.3127461125018
 20
854.7320638954983
 11
548.41274611250265
 21
854.7320638954983
  0
LINE
  8
_0-2_____-2
  6
CONTINUOUS
 62
    4
 10
548.41274611250265
 20
854.7320638954983
 11
549.12891705383754
 21
862.87037004704587
  0
ARC
  8
_0-2_____-2
  6
CONTINUOUS
 62
    4
 10
554.10966877596979
 20
862.43206389549744
 40
5.0000000000008757
 50
90.000000000002444
 51
174.97092641820535
  0
LINE
  8
_0-2_____-2
  6
CONTINUOUS
 62
    4
 10
1995.3909187759696
 20
867.43206389549823
 11
2449.1345734490355
 21
867.43206389549823
  0
ARC
  8
_0-2_____-2
  6
CONTINUOUS
 62
    4
 10
2449.1345734490369
 20
862.43206389550073
 40
4.9999999999976925
 50
5.0290735817604384
 51
90.000000000016229
  0
LINE
  8
_0-2_____-2
  6
CONTINUOUS
 62
    4
 10
2454.1153251711662
 20
862.87037004704587
 11
2454.8314961125025
 21
854.7320638954983
  0
LINE
  8
_0-2_____-2
  6
CONTINUOUS
 62
    4
 10
2454.8314961125025
 20
854.7320638954983
 11
1989.6939961125026
 21
854.7320638954983
  0
LINE
  8
_0-2_____-2
  6
CONTINUOUS
 62
    4
 10
1989.6939961125026
 20
854.7320638954983
 11
1990.4101670538375
 21
862.87037004704587
  0
ARC
  8
_0-2_____-2
  6
CONTINUOUS
 62
    4
 10
1995.3909187759698
 20
862.43206389549744
 40
5.0000000000008802
 50
90.000000000002558
 51
174.97092641820609
  0
LINE
  8
_0-2_____-2
  6
CONTINUOUS
 62
    1
 10
586.72204272563476
 20
824.94858070673877
 11
596.26567111870702
 21
638.75623629048596
  0
LINE
  8
_0-2_____-2
  6
CONTINUOUS
 62
    1
 10
1359.9717947892195
 20
826.09179919930398
 11
1349.9418071759765
 21
632.41979072263553
  0
LINE
  8
_0-2_____-2
  6
CONTINUOUS
 62
    1
 10
1299.8084928506291
 20
617.67865591697819
 11
1308.2895441616779
 21
618.12312898217567
  0
LINE
  8
_0-2_____-2
  6
CONTINUOUS
 62
    1
 10
1330.1408481777921
 20
619.26830730009885
 11
1337.1664100961534
 21
619.63650139845572
  0
LINE
  8
_0-2_____-2
  6
CONTINUOUS
 62
    1
 10
609.55216138335243
 20
625.94871636494804
 11
617.41593041436772
 21
625.83464442397951
  0
LINE
  8
_0-2_____-2
  6
CONTINUOUS
 62
    1
 10
639.73141666582637
 20
625.51093567562748
 11
1152.4422901562612
 21
618.07354474209023
  0
ARC
  8
_0-2_____-2
  6
CONTINUOUS
 62
    1
 10
1301.840294753039
 20
592.25973027020461
 40
25.50000000013414
 50
94.570086494689093
 51
135.10758523930721
  0
ARC
  8
_0-2_____-2
  6
CONTINUOUS
 62
    1
 10
1150.3179949122123
 20
592.66218173811285
 40
25.500000000074699
 50
43.629743054554403
 51
85.221397189489863
  0
LINE
  8
_0-2_____-2
  6
CONTINUOUS
 62
    1
 10
1155.3683281628232
 20
617.65706389549814
 11
1299.5543715845201
 21
617.65706389549814
  0
LINE
  8
_0-2_____-2
  6
CONTINUOUS
 62
    1
 10
1168.7752461125269
 20
610.25706389549828
 11
1283.7752461124533
 21
610.25706389549828
  0
ARC
  8
_0-2_____-2
  6
CONTINUOUS
 62
    1
 10
1437.0679741351291
 20
820.48206389553513
 40
77.299999999450122
 50
153.6995064422976
 51
175.83833180505991
  0
ARC
  8
_0-2_____-2
  6
CONTINUOUS
 62
    1
 10
505.0093938830409
 20
819.41206389574234
 40
81.899999995552619
 50
3.8762045652487767
 51
25.547399088561221
  0
ARC
  8
_0-2_____-2
  6
CONTINUOUS
 62
    1
 10
1336.4598746868737
 20
633.11800011764251
 40
13.500000000000041
 50
272.99999999999983
 51
357.03538462587704
  0
LINE
  8
_0-2_____-2
  6
CONTINUOUS
 62
    1
 10
617.23331282512663
 20
627.65013407049321
 11
617.23230359292813
 21
627.66487906426528
  0
ARC
  8
_0-2_____-2
  6
CONTINUOUS
 62
    1
 10
610.93241662801779
 20
627.23367855851461
 40
6.3146266435006524
 50
3.915545836208171
 51
5.9837227709516023
  0
LINE
  8
_0-2_____-2
  6
CONTINUOUS
 62
    1
 10
617.21263834938645
 20
627.89195264828027
 11
617.21255345468353
 21
627.89276258074676
  0
ARC
  8
_0-2_____-2
  6
CONTINUOUS
 62
    1
 10
610.93876898569067
 20
627.2351632245593
 40
6.3081541259416269
 50
5.9837227709131939
 51
8.039232571858868
  0
LINE
  8
_0-2_____-2
  6
CONTINUOUS
 62
    1
 10
617.18492997644171
 20
628.11736578307591
 11
617.1848253410559
 21
628.11810662139987
  0
ARC
  8
_0-2_____-2
  6
CONTINUOUS
 62
    1
 10
610.95910679049007
 20
627.23879133605044
 40
6.2875087945789998
 50
8.0392325718701176
 51
10.087858680838718
  0
LINE
  8
_0-2_____-2
  6
CONTINUOUS
 62
    1
 10
617.14941270564123
 20
628.34009943043316
 11
617.14929240270055
 21
628.34077563721746
  0
ARC
  8
_0-2_____-2
  6
CONTINUOUS
 62
    1
 10
610.97316679717392
 20
627.24199034057256
 40
6.2731058195573475
 50
10.087858680855831
 51
12.12864509782198
  0
LINE
  8
_0-2_____-2
  6
CONTINUOUS
 62
    1
 10
617.10624632777217
 20
628.56001617291486
 11
617.10611400550511
 21
628.56063189907775
  0
ARC
  8
_0-2_____-2
  6
CONTINUOUS
 62
    1
 10
610.98168291167894
 20
627.24446465392759
 40
6.2642599275756563
 50
12.12864509783677
 51
14.160795800836489
  0
LINE
  8
_0-2_____-2
  6
CONTINUOUS
 62
    1
 10
617.0555906014738
 20
628.77697821539482
 11
617.05544945195606
 21
628.77753764218437
  0
ARC
  8
_0-2_____-2
  6
CONTINUOUS
 62
    1
 10
610.98549251620966
 20
627.24602089931568
 40
6.2601853595163872
 50
14.160795800844291
 51
16.183711073401508
  0
LINE
  8
_0-2_____-2
  6
CONTINUOUS
 62
    1
 10
616.99760527733542
 20
628.99084779130578
 11
616.99745805410294
 21
628.99135507525432
  0
ARC
  8
_0-2_____-2
  6
CONTINUOUS
 62
    1
 10
610.98542141252187
 20
627.24655027457163
 40
6.260106099116741
 50
16.183711073397639
 51
18.196985939089696
  0
LINE
  8
_0-2_____-2
  6
CONTINUOUS
 62
    1
 10
616.93245009450584
 20
629.20148716047333
 11
616.93229913665141
 21
629.20194638281271
  0
ARC
  8
_0-2_____-2
  6
CONTINUOUS
 62
    1
 10
610.98227573576139
 20
627.24602505800021
 40
6.2632584730310352
 50
18.196985939069531
 51
20.200406254909272
  0
LINE
  8
_0-2_____-2
  6
CONTINUOUS
 62
    1
 10
616.86028477775699
 20
629.40875860659401
 11
616.86013203955872
 21
629.40917372777801
  0
ARC
  8
_0-2_____-2
  6
CONTINUOUS
 62
    1
 10
610.9768337590707
 20
627.24449407575617
 40
6.2688943724606894
 50
20.200406254927533
 51
22.193942771147359
  0
LINE
  8
_0-2_____-2
  6
CONTINUOUS
 62
    1
 10
616.78126903507246
 20
629.61252443446699
 11
616.78111612019006
 21
629.61289925421295
  0
ARC
  8
_0-2_____-2
  6
CONTINUOUS
 62
    1
 10
610.96983779201946
 20
627.2420771415259
 40
6.2762849917344496
 50
22.193942771118483
 51
24.177743497127267
  0
LINE
  8
_0-2_____-2
  6
CONTINUOUS
 62
    1
 10
616.69556255570478
 20
629.81264696706876
 11
616.69541075497534
 21
629.81298509023009
  0
ARC
  8
_0-2_____-2
  6
CONTINUOUS
 62
    1
 10
610.96198600549201
 20
627.23895834840641
 40
6.2847253739213436
 50
24.177743497135307
 51
26.152124598096716
  0
LINE
  8
_0-2_____-2
  6
CONTINUOUS
 62
    1
 10
616.60332500869936
 20
630.00898854255627
 11
616.60317534063938
 21
630.00929335088142
  0
ARC
  8
_0-2_____-2
  6
CONTINUOUS
 62
    1
 10
610.95392479392274
 20
627.23537840270717
 40
6.2935392172673668
 50
26.152124598086072
 51
28.117560181153689
  0
LINE
  8
_0-2_____-2
  6
CONTINUOUS
 62
    1
 10
616.50471604186123
 20
630.20141151127018
 11
616.50456929500615
 21
630.20168614109684
  0
ARC
  8
_0-2_____-2
  6
CONTINUOUS
 62
    1
 10
610.94624144045258
 20
627.2316258905023
 40
6.3020842925867102
 50
28.117560181146509
 51
30.074671161618483
  0
LINE
  8
_0-2_____-2
  6
CONTINUOUS
 62
    1
 10
616.39989528112437
 20
630.38977823277366
 11
616.39975205754172
 21
630.39002555834804
  0
ARC
  8
_0-2_____-2
  6
CONTINUOUS
 62
    1
 10
610.93945764543082
 20
627.22802773250248
 40
6.3097579444524978
 50
30.074671161647082
 51
32.024213500475781
  0
LINE
  8
_0-2_____-2
  6
CONTINUOUS
 62
    1
 10
616.28902233021745
 20
630.57395107305649
 11
616.28888308914247
 21
630.57417369595055
  0
ARC
  8
_0-2_____-2
  6
CONTINUOUS
 62
    1
 10
610.93402368274508
 20
627.22493873404926
 40
6.316003015539521
 50
32.024213500461038
 51
33.967065906564535
  0
LINE
  8
_0-2_____-2
  6
CONTINUOUS
 62
    1
 10
616.17225677086753
 20
630.75379240157406
 11
616.17212187355847
 21
630.75399264324301
  0
ARC
  8
_0-2_____-2
  6
CONTINUOUS
 62
    1
 10
610.93031411859374
 20
627.2227308209109
 40
6.3203131724519306
 50
33.96706590655954
 51
35.904217387441669
  0
LINE
  8
_0-2_____-2
  6
CONTINUOUS
 62
    1
 10
616.04975816223669
 20
630.92916458962679
 11
616.04962791024661
 21
630.92934449781251
  0
ARC
  8
_0-2_____-2
  6
CONTINUOUS
 62
    1
 10
610.92862343544107
 20
627.22178099025791
 40
6.3222396343010967
 50
35.904217387461138
 51
37.836754090045446
  0
LINE
  8
_0-2_____-2
  6
CONTINUOUS
 62
    1
 10
615.92168604482595
 20
631.09993000393592
 11
615.92156074306331
 21
631.10009132820255
  0
ARC
  8
_0-2_____-2
  6
CONTINUOUS
 62
    1
 10
610.92916575902893
 20
627.22246086412088
 40
6.3213942839049082
 50
37.836754090036365
 51
39.765847318128571
  0
LINE
  8
_0-2_____-2
  6
CONTINUOUS
 62
    1
 10
615.78819992703347
 20
631.26595102074918
 11
615.78807983396132
 21
631.26609533576368
  0
ARC
  8
_0-2_____-2
  6
CONTINUOUS
 62
    1
 10
610.93207533912209
 20
627.22512634964312
 40
6.3174528095339619
 50
39.765847318101585
 51
41.692739316373917
  0
LINE
  8
_0-2_____-2
  6
CONTINUOUS
 62
    1
 10
615.6494593441239
 20
631.42708995610622
 11
615.64934509851491
 21
631.42721821528664
  0
ARC
  8
_0-2_____-2
  6
CONTINUOUS
 62
    1
 10
610.9373697812664
 20
627.23007234446516
 40
6.3102095726936023
 50
41.692739316435016
 51
43.618724418623266
  0
LINE
  8
_0-2_____-2
  6
CONTINUOUS
 62
    1
 10
615.50562362038909
 20
631.58320934123606
 11
615.50095391840637
 21
631.58810980359806
  0
ARC
  8
_0-2_____-2
  6
CONTINUOUS
 62
    1
 10
611.22536175212076
 20
627.51385318442044
 40
5.9059508439638551
 50
43.618724418572818
 51
45.545215385325839
  0
LINE
  8
_0-2_____-2
  6
CONTINUOUS
 62
    1
 10
615.36157186067112
 20
631.7295407095155
 11
615.35679724866236
 21
631.73422530682888
  0
ARC
  8
_0-2_____-2
  6
CONTINUOUS
 62
    1
 10
610.95205798330755
 20
627.24484882813681
 40
6.2893743061764384
 50
45.545215385328923
 51
47.232436663619723
  0
LINE
  8
_0-2_____-2
  6
CONTINUOUS
 62
    1
 10
615.22270547491917
 20
631.86196905243082
 11
615.2129895039152
 21
631.87093693263807
  0
ARC
  8
_0-2_____-2
  6
CONTINUOUS
 62
    1
 10
611.46762676308208
 20
626.4242435451041
 40
5.8405141478700848
 50
4.0764518742517755
 51
6.2136735402430379
  0
LINE
  8
_0-2_____-2
  6
CONTINUOUS
 62
    1
 10
617.27382883532994
 20
627.05640096829472
 11
617.27381695405029
 21
627.05651009476912
  0
ARC
  8
_0-2_____-2
  6
CONTINUOUS
 62
    1
 10
612.77937380177661
 20
626.56717204444465
 40
4.5210033152515683
 50
6.2136735402545424
 51
8.9772364330561647
  0
LINE
  8
_0-2_____-2
  6
CONTINUOUS
 62
    1
 10
617.24499669778857
 20
627.27263864686415
 11
617.24253180927053
 21
627.288241458627
  0
ARC
  8
_0-2_____-2
  6
CONTINUOUS
 62
    1
 10
611.98951536596996
 20
626.45838462812674
 40
5.3181617230687213
 50
8.9772364330180299
 51
11.666886914601969
  0
LINE
  8
_0-2_____-2
  6
CONTINUOUS
 62
    1
 10
617.19780304045923
 20
627.53383040196968
 11
617.19774339131209
 21
627.53411927745321
  0
ARC
  8
_0-2_____-2
  6
CONTINUOUS
 62
    1
 10
611.83753216241769
 20
626.42730320404985
 40
5.4732902571222279
 50
11.666886914628677
 51
14.286504320154137
  0
LINE
  8
_0-2_____-2
  6
CONTINUOUS
 62
    1
 10
617.14155480835507
 20
627.77795120041799
 11
617.14147337497207
 21
627.7782709909992
  0
ARC
  8
_0-2_____-2
  6
CONTINUOUS
 62
    1
 10
611.68702571048857
 20
626.38931786973467
 40
5.6285157988283077
 50
14.28650432015907
 51
16.840616064802894
  0
LINE
  8
_0-2_____-2
  6
CONTINUOUS
 62
    1
 10
617.07415904632717
 20
628.01995716754323
 11
617.07405842433036
 21
628.02028959183485
  0
ARC
  8
_0-2_____-2
  6
CONTINUOUS
 62
    1
 10
611.54110846378273
 20
626.34551284583517
 40
5.7808660609691032
 50
16.840616064776324
 51
19.334319090533089
  0
LINE
  8
_0-2_____-2
  6
CONTINUOUS
 62
    1
 10
616.99594992548373
 20
628.25943997155673
 11
616.99583462336614
 21
628.25976859157731
  0
ARC
  8
_0-2_____-2
  6
CONTINUOUS
 62
    1
 10
611.40300359875232
 20
626.29742539924916
 40
5.9271029748402935
 50
19.334319090554843
 51
21.773244799601862
  0
LINE
  8
_0-2_____-2
  6
CONTINUOUS
 62
    1
 10
616.90726196144794
 20
628.49599073852278
 11
616.90713782908779
 21
628.4963015123576
  0
ARC
  8
_0-2_____-2
  6
CONTINUOUS
 62
    1
 10
611.27571266010204
 20
626.2469419490177
 40
6.0640389081101
 50
21.77324479956679
 51
24.163432707954623
  0
LINE
  8
_0-2_____-2
  6
CONTINUOUS
 62
    1
 10
616.80842988636778
 20
628.72920059252283
 11
616.8083036958501
 21
628.72948185912367
  0
ARC
  8
_0-2_____-2
  6
CONTINUOUS
 62
    1
 10
611.161930165998
 20
626.19623121107077
 40
6.1886099315173704
 50
24.163432707950591
 51
26.51122770470328
  0
LINE
  8
_0-2_____-2
  6
CONTINUOUS
 62
    1
 10
616.69978862377184
 20
628.95866068277473
 11
616.69966770042629
 21
628.95890309850972
  0
ARC
  8
_0-2_____-2
  6
CONTINUOUS
 62
    1
 10
611.06396499189827
 20
626.14766634073953
 40
6.2979518200085218
 50
26.511227704736438
 51
28.823199642568117
  0
LINE
  8
_0-2_____-2
  6
CONTINUOUS
 62
    1
 10
616.58167326771627
 20
629.18396219426211
 11
616.58156516048984
 21
629.18415865210636
  0
ARC
  8
_0-2_____-2
  6
CONTINUOUS
 62
    1
 10
610.98366494524669
 20
626.10373461329664
 40
6.3894834751095528
 50
28.823199642559235
 51
31.106080531789203
  0
LINE
  8
_0-2_____-2
  6
CONTINUOUS
 62
    1
 10
616.45441904783024
 20
629.40469638644129
 11
616.45433126947455
 21
629.40484186337574
  0
ARC
  8
_0-2_____-2
  6
CONTINUOUS
 62
    1
 10
610.92001266243471
 20
626.06546229910259
 40
6.4637557440323903
 50
31.106566489586378
 51
33.367205509173822
  0
ARC
  8
_0-2_____-2
  6
CONTINUOUS
 62
    1
 10
610.87992218352031
 20
626.03909995720369
 40
6.5117371830181439
 50
33.366914896625062
 51
35.61225698191322
  0
ARC
  8
_0-2_____-2
  6
CONTINUOUS
 62
    1
 10
610.85954500183686
 20
626.02454520199069
 40
6.5367785359050448
 50
35.611968609253651
 51
37.848916430406668
  0
ARC
  8
_0-2_____-2
  6
CONTINUOUS
 62
    1
 10
610.85904885587161
 20
626.02420495060517
 40
6.5373790803932881
 50
37.848603081301462
 51
40.084349686320579
  0
LINE
  8
_0-2_____-2
  6
CONTINUOUS
 62
    1
 10
615.86078003368948
 20
630.23371922966487
 11
615.8606760863471
 21
630.23384273778493
  0
ARC
  8
_0-2_____-2
  6
CONTINUOUS
 62
    1
 10
610.8800646536547
 20
626.04204286585457
 40
6.5098138536966941
 50
40.084755154411475
 51
42.326311515655007
  0
LINE
  8
_0-2_____-2
  6
CONTINUOUS
 62
    1
 10
615.69291295512994
 20
630.42543968074233
 11
615.69275962421466
 21
630.42560803384038
  0
ARC
  8
_0-2_____-2
  6
CONTINUOUS
 62
    1
 10
610.91595677132932
 20
626.07504032443467
 40
6.4610591151495438
 50
42.326311515630501
 51
44.580741068092927
  0
LINE
  8
_0-2_____-2
  6
CONTINUOUS
 62
    1
 10
615.51792379909057
 20
630.61014609661424
 11
615.49550142557518
 21
630.6328990441275
  0
ARC
  8
_0-2_____-2
  6
CONTINUOUS
 62
    1
 10
612.08229657323454
 20
627.26928410857363
 40
4.7920635219833345
 50
44.580741068135957
 51
46.856558770121474
  0
LINE
  8
_0-2_____-2
  6
CONTINUOUS
 62
    1
 10
615.35923986164971
 20
630.76578457092648
 11
615.35905827120655
 21
630.76595475868726
  0
ARC
  8
_0-2_____-2
  6
CONTINUOUS
 62
    1
 10
608.86802208452173
 20
623.8400152381256
 40
9.4922172867739611
 50
46.856558770097401
 51
48.002593993681508
  0
ARC
  8
_0-2_____-2
  6
CONTINUOUS
 62
    1
 10
612.07838865249687
 20
627.40581316489943
 40
4.6941584756132002
 50
48.002593993713205
 51
50.319792121920969
  0
LINE
  8
_0-2_____-2
  6
CONTINUOUS
 62
    1
 10
615.07561822656362
 20
631.01853217895393
 11
615.0451236256406
 21
631.04383149489297
  0
ARC
  8
_0-2_____-2
  6
CONTINUOUS
 62
    1
 10
611.38017869145688
 20
626.62627991201452
 40
5.7399114416505883
 50
50.319792121879395
 51
52.675674201436081
  0
LINE
  8
_0-2_____-2
  6
CONTINUOUS
 62
    1
 10
614.86043667279773
 20
631.1907500610356
 11
614.85401809649238
 21
631.19564401382445
  0
ARC
  8
_0-2_____-2
  6
CONTINUOUS
 62
    1
 10
611.21497170685745
 20
626.42291776609738
 40
6.0017976025235651
 50
52.675674201462478
 51
54.774733079595045
  0
LINE
  8
_0-2_____-2
  6
CONTINUOUS
 62
    1
 10
614.67676423240664
 20
631.3257299154368
 11
614.66394197713362
 21
631.33475770726454
  0
ARC
  8
_0-2_____-2
  6
CONTINUOUS
 62
    1
 10
645.82635941230308
 20
622.60511580359673
 40
6.9471967557379806
 50
115.30895594486471
 51
117.42730866263291
  0
LINE
  8
_0-2_____-2
  6
CONTINUOUS
 62
    1
 10
642.62632157597625
 20
628.77141944589437
 11
642.60737734061468
 21
628.76158822877403
  0
ARC
  8
_0-2_____-2
  6
CONTINUOUS
 62
    1
 10
644.63688894049278
 20
624.85082672828855
 40
4.4060155296730201
 50
117.42730866265286
 51
120.74513502668263
  0
LINE
  8
_0-2_____-2
  6
CONTINUOUS
 62
    1
 10
642.38444518703454
 20
628.63757599186886
 11
642.34761137340217
 21
628.61566640988781
  0
ARC
  8
_0-2_____-2
  6
CONTINUOUS
 62
    1
 10
645.37469957883957
 20
623.52660524458656
 40
5.9213010857137638
 50
120.74513502664622
 51
122.38509851732923
  0
ARC
  8
_0-2_____-2
  6
CONTINUOUS
 62
    1
 10
645.39341309764279
 20
623.49710049872488
 40
5.9562399725643642
 50
122.38509851734416
 51
124.01544339891093
  0
LINE
  8
_0-2_____-2
  6
CONTINUOUS
 62
    1
 10
642.06139512955178
 20
628.43414930049835
 11
642.02637708493683
 21
628.41051559571849
  0
ARC
  8
_0-2_____-2
  6
CONTINUOUS
 62
    1
 10
644.54797410870856
 20
624.67426696681423
 40
4.5075498186135494
 50
124.01544339891733
 51
127.23127294734846
  0
LINE
  8
_0-2_____-2
  6
CONTINUOUS
 62
    1
 10
641.82075418775639
 20
628.26317722900308
 11
641.82046948765583
 21
628.26296088484037
  0
ARC
  8
_0-2_____-2
  6
CONTINUOUS
 62
    1
 10
647.31869956793901
 20
621.02751419152389
 40
9.0874761549923981
 50
127.23127294735428
 51
128.82218931515646
  0
ARC
  8
_0-2_____-2
  6
CONTINUOUS
 62
    1
 10
644.50450165947075
 20
624.52489600587649
 40
4.5984462571869757
 50
128.82218931515277
 51
131.96558080126806
  0
LINE
  8
_0-2_____-2
  6
CONTINUOUS
 62
    1
 10
641.42959395806793
 20
627.94405534818429
 11
641.39829882771039
 21
627.91591110928846
  0
ARC
  8
_0-2_____-2
  6
CONTINUOUS
 62
    1
 10
645.54533798595276
 20
623.3045897111374
 40
6.2017915812320714
 50
131.96558080127267
 51
135.0624761221712
  0
LINE
  8
_0-2_____-2
  6
CONTINUOUS
 62
    1
 10
641.15522988722432
 20
627.68513416343103
 11
641.15506310996375
 21
627.68496702206085
  0
ARC
  8
_0-2_____-2
  6
CONTINUOUS
 62
    1
 10
645.59891082604918
 20
623.25080002166771
 40
6.2777081416016491
 50
135.06247612216404
 51
138.11763154104193
  0
LINE
  8
_0-2_____-2
  6
CONTINUOUS
 62
    1
 10
640.92505025511036
 20
627.44181981099769
 11
640.92492658432218
 21
627.44168189229288
  0
ARC
  8
_0-2_____-2
  6
CONTINUOUS
 62
    1
 10
645.65005374092391
 20
623.20469169546334
 40
6.3465669912232983
 50
138.11763154104491
 51
141.13631223362424
  0
ARC
  8
_0-2_____-2
  6
CONTINUOUS
 62
    1
 10
645.69808136525626
 20
623.16589123888502
 40
6.4083093789930201
 50
141.13563499919442
 51
144.12389212450319
  0
ARC
  8
_0-2_____-2
  6
CONTINUOUS
 62
    1
 10
645.73525376788052
 20
623.1390197708273
 40
6.4541772675211808
 50
144.12398741833334
 51
147.08851391389211
  0
ARC
  8
_0-2_____-2
  6
CONTINUOUS
 62
    1
 10
645.76167135985065
 20
623.12192774271796
 40
6.4856419551384672
 50
147.08855686944344
 51
150.03647950589317
  0
ARC
  8
_0-2_____-2
  6
CONTINUOUS
 62
    1
 10
645.7750506856853
 20
623.1142192721336
 40
6.5010830322306763
 50
150.03651564405746
 51
152.97536942251944
  0
LINE
  8
_0-2_____-2
  6
CONTINUOUS
 62
    1
 10
639.98381259936286
 20
626.06813904414605
 11
639.96483966512506
 21
626.03094130155898
  0
ARC
  8
_0-2_____-2
  6
CONTINUOUS
 62
    1
 10
644.3056359739636
 20
623.81689181416141
 40
4.8728356967449145
 50
152.97586920122367
 51
155.91364255517456
  0
ARC
  8
_0-2_____-2
  6
CONTINUOUS
 62
    1
 10
648.74342127085151
 20
621.83299936792707
 40
9.733881631389588
 50
155.91341083207149
 51
157.38385483734868
  0
ARC
  8
_0-2_____-2
  6
CONTINUOUS
 62
    1
 10
644.23284068827707
 20
623.71205688395457
 40
4.8475543459589714
 50
157.38377419474131
 51
160.33437868482611
  0
ARC
  8
_0-2_____-2
  6
CONTINUOUS
 62
    1
 10
648.76080156161674
 20
622.09389315257147
 40
9.6559723323592213
 50
160.33447064664222
 51
161.8152443238998
  0
ARC
  8
_0-2_____-2
  6
CONTINUOUS
 62
    1
 10
644.14150737997898
 20
623.61127209334029
 40
4.7938413606209664
 50
161.8151767925595
 51
164.79585167365809
  0
LINE
  8
_0-2_____-2
  6
CONTINUOUS
 62
    1
 10
639.51546240875314
 20
624.86850036020212
 11
639.50455077241884
 21
624.8283495612061
  0
ARC
  8
_0-2_____-2
  6
CONTINUOUS
 62
    1
 10
645.62383666070923
 20
623.16533353391628
 40
6.3412366372540143
 50
164.79613865625583
 51
166.29757855223693
  0
ARC
  8
_0-2_____-2
  6
CONTINUOUS
 62
    1
 10
645.60197487135963
 20
623.1706638425386
 40
6.3187344146176807
 50
166.29757855221638
 51
167.80436474782732
  0
LINE
  8
_0-2_____-2
  6
CONTINUOUS
 62
    1
 10
639.4258417181461
 20
624.50549861742707
 11
639.41706932925536
 21
624.46490974239862
  0
ARC
  8
_0-2_____-2
  6
CONTINUOUS
 62
    1
 10
643.99939879007786
 20
623.47454043484595
 40
4.6881312538007833
 50
167.80436474782712
 51
170.84965102714247
  0
LINE
  8
_0-2_____-2
  6
CONTINUOUS
 62
    1
 10
639.37092661648171
 20
624.22007379500451
 11
639.36597649376506
 21
624.18934209810925
  0
ARC
  8
_0-2_____-2
  6
CONTINUOUS
 62
    1
 10
645.9719479767698
 20
623.12528209469576
 40
6.6911197063820991
 50
170.8496510271444
 51
173.16090348995357
  0
ARC
  8
_0-2_____-2
  6
CONTINUOUS
 62
    1
 10
644.95277081178187
 20
623.24751700844467
 40
5.6646385970713142
 50
173.16090348995976
 51
175.89082842781886
  0
LINE
  8
_0-2_____-2
  6
CONTINUOUS
 62
    1
 10
639.30269415806015
 20
623.6534286275172
 11
639.30195018358245
 21
623.64307289333783
  0
LINE
  8
_0-2_____-2
  6
CONTINUOUS
 62
    1
 10
639.30195018358245
 20
623.64307289333783
 11
639.30049790127487
 21
623.62235572948362
  0
LINE
  8
_0-2_____-2
  6
CONTINUOUS
 62
    1
 10
643.55132680003953
 20
628.10481405360906
 11
643.5146355476719
 21
628.09228665119224
  0
ARC
  8
_0-2_____-2
  6
CONTINUOUS
 62
    1
 10
645.35010333682158
 20
622.71642263533658
 40
5.6805682745635995
 50
108.85131565103541
 51
111.16040240654324
  0
LINE
  8
_0-2_____-2
  6
CONTINUOUS
 62
    1
 10
643.29953096614872
 20
628.01397007491755
 11
643.28699782588069
 21
628.0091187524057
  0
ARC
  8
_0-2_____-2
  6
CONTINUOUS
 62
    1
 10
645.57104060883876
 20
622.10841260332563
 40
6.3273362872677037
 50
111.16040240652626
 51
112.99019064630124
  0
LINE
  8
_0-2_____-2
  6
CONTINUOUS
 62
    1
 10
643.09975055701125
 20
627.93317954904228
 11
643.09921404609395
 21
627.93295192206506
  0
ARC
  8
_0-2_____-2
  6
CONTINUOUS
 62
    1
 10
645.56061739189568
 20
622.13148768758424
 40
6.3020229843030542
 50
112.990190646298
 51
114.81673277847449
  0
LINE
  8
_0-2_____-2
  6
CONTINUOUS
 62
    1
 10
642.91555011585388
 20
627.85154999492806
 11
642.91506387089635
 21
627.85132514586951
  0
ARC
  8
_0-2_____-2
  6
CONTINUOUS
 62
    1
 10
645.55158596341039
 20
622.14974213493224
 40
6.2816635993120968
 50
114.81673277847769
 51
116.63942371225045
  0
LINE
  8
_0-2_____-2
  6
CONTINUOUS
 62
    1
 10
642.73504991093432
 20
627.76458160191839
 11
642.73461107303683
 21
627.76436147046741
  0
ARC
  8
_0-2_____-2
  6
CONTINUOUS
 62
    1
 10
645.54437176716328
 20
622.16302886040796
 40
6.2665526541131396
 50
116.63942371228802
 51
118.45753363974644
  0
LINE
  8
_0-2_____-2
  6
CONTINUOUS
 62
    1
 10
642.55831387267381
 20
627.67239728315201
 11
642.55791957965789
 21
627.6721835777538
  0
ARC
  8
_0-2_____-2
  6
CONTINUOUS
 62
    1
 10
645.53905236842274
 20
622.17190212615787
 40
6.256216808185223
 50
118.45753363970985
 51
120.27043420480682
  0
LINE
  8
_0-2_____-2
  6
CONTINUOUS
 62
    1
 10
642.38540591913261
 20
627.57511994741026
 11
642.3850533288595
 21
627.57491415428842
  0
ARC
  8
_0-2_____-2
  6
CONTINUOUS
 62
    1
 10
645.53566160617095
 20
622.17690170568972
 40
6.2501896701052049
 50
120.27043420481809
 51
122.07759959727801
  0
LINE
  8
_0-2_____-2
  6
CONTINUOUS
 62
    1
 10
642.21638995690819
 20
627.47287249778174
 11
642.2160762688045
 21
627.47267589246223
  0
ARC
  8
_0-2_____-2
  6
CONTINUOUS
 62
    1
 10
645.5341917151261
 20
622.17854984754672
 40
6.2480125395658028
 50
122.07759959727406
 51
123.8786064875916
  0
LINE
  8
_0-2_____-2
  6
CONTINUOUS
 62
    1
 10
642.05132988219611
 20
627.36577783051519
 11
642.05105235665337
 21
627.36559149146774
  0
ARC
  8
_0-2_____-2
  6
CONTINUOUS
 62
    1
 10
645.53459582503388
 20
622.17734830931386
 40
6.249235346285408
 50
123.87860648757274
 51
125.67313289154056
  0
LINE
  8
_0-2_____-2
  6
CONTINUOUS
 62
    1
 10
641.89028958194558
 20
627.25395883404883
 11
641.89004555745896
 21
627.25378365812071
  0
ARC
  8
_0-2_____-2
  6
CONTINUOUS
 62
    1
 10
645.53679086167438
 20
622.17377545971283
 40
6.2534178342494817
 50
125.6731328915546
 51
127.4609560506985
  0
LINE
  8
_0-2_____-2
  6
CONTINUOUS
 62
    1
 10
641.73333293509768
 20
627.13753838822481
 11
641.73311984301813
 21
627.13737510751014
  0
ARC
  8
_0-2_____-2
  6
CONTINUOUS
 62
    1
 10
645.54066085060276
 20
622.16828348954346
 40
6.260130991615501
 50
127.46095605069318
 51
129.24194942021862
  0
LINE
  8
_0-2_____-2
  6
CONTINUOUS
 62
    1
 10
641.58052381385005
 20
627.01663936368516
 11
641.58033919066361
 21
627.01648856346787
  0
ARC
  8
_0-2_____-2
  6
CONTINUOUS
 62
    1
 10
645.54606054030296
 20
622.1612958713232
 40
6.2689585977929525
 50
129.24194942021953
 51
131.01607889193116
  0
LINE
  8
_0-2_____-2
  6
CONTINUOUS
 62
    1
 10
641.43192608493655
 20
626.89138462144274
 11
641.43176758207937
 21
626.89124675889934
  0
ARC
  8
_0-2_____-2
  6
CONTINUOUS
 62
    1
 10
645.55281941999942
 20
622.15320497910875
 40
6.2794990371736041
 50
131.01607889193357
 51
132.78339833176494
  0
LINE
  8
_0-2_____-2
  6
CONTINUOUS
 62
    1
 10
641.28760361090735
 20
626.76189701261842
 11
641.28746900213469
 21
626.76177243595748
  0
ARC
  8
_0-2_____-2
  6
CONTINUOUS
 62
    1
 10
645.56074600716568
 20
622.14437004143122
 40
6.2913671991629094
 50
132.78339833175721
 51
134.54404455258728
  0
LINE
  8
_0-2_____-2
  6
CONTINUOUS
 62
    1
 10
641.14762025137497
 20
626.62829937832748
 11
641.14750743773345
 21
626.62818834607219
  0
ARC
  8
_0-2_____-2
  6
CONTINUOUS
 62
    1
 10
645.56963241810604
 20
622.13511540227842
 40
6.3041965245610321
 50
134.54404455260453
 51
136.29823181128367
  0
ARC
  8
_0-2_____-2
  6
CONTINUOUS
 62
    1
 10
645.58271942766385
 20
622.12260841157945
 40
6.3222988624075498
 50
136.29823181127054
 51
138.04739717021954
  0
LINE
  8
_0-2_____-2
  6
CONTINUOUS
 62
    1
 10
640.88083777278052
 20
626.34916396061374
 11
640.84863530321286
 21
626.31333994288912
  0
ARC
  8
_0-2_____-2
  6
CONTINUOUS
 62
    1
 10
644.38449151629266
 20
623.13493312730145
 40
4.7544241549266379
 50
138.04739717024322
 51
141.52543846508192
  0
LINE
  8
_0-2_____-2
  6
CONTINUOUS
 62
    1
 10
640.66232669657393
 20
626.09297945888545
 11
640.66220289172156
 21
626.09282367293281
  0
ARC
  8
_0-2_____-2
  6
CONTINUOUS
 62
    1
 10
648.12530348076496
 20
620.16181352456147
 40
9.5328249633707145
 50
141.525438465082
 51
143.25809398909351
  0
ARC
  8
_0-2_____-2
  6
CONTINUOUS
 62
    1
 10
644.32079992513468
 20
623.00188537243048
 40
4.7851670773353474
 50
143.25762716597484
 51
146.70764404277455
  0
ARC
  8
_0-2_____-2
  6
CONTINUOUS
 62
    1
 10
648.3387427093794
 20
620.36343197360668
 40
9.5919644054217308
 50
146.70801560604741
 51
148.42887079310373
  0
ARC
  8
_0-2_____-2
  6
CONTINUOUS
 62
    1
 10
644.26272992967006
 20
622.86819181941314
 40
4.8078550770972122
 50
148.42897616141985
 51
151.86106419771443
  0
ARC
  8
_0-2_____-2
  6
CONTINUOUS
 62
    1
 10
648.51570821367034
 20
620.59366480371682
 40
9.6308518039826243
 50
151.86141769757734
 51
153.57588849186425
  0
ARC
  8
_0-2_____-2
  6
CONTINUOUS
 62
    1
 10
644.2098544053124
 20
622.73337722607403
 40
4.822656064496897
 50
153.57598461398763
 51
157.00139901003672
  0
ARC
  8
_0-2_____-2
  6
CONTINUOUS
 62
    1
 10
648.64760687243245
 20
620.8497065366995
 40
9.6436375229159328
 50
157.00093738295581
 51
158.7147858886797
  0
LINE
  8
_0-2_____-2
  6
CONTINUOUS
 62
    1
 10
639.6618106804699
 20
624.35045095323471
 11
639.66171089603313
 21
624.35019482410758
  0
ARC
  8
_0-2_____-2
  6
CONTINUOUS
 62
    1
 10
644.15906427000198
 20
622.59808689991564
 40
4.8266002059799336
 50
158.71478588867518
 51
162.14484394331146
  0
LINE
  8
_0-2_____-2
  6
CONTINUOUS
 62
    1
 10
639.5649388433344
 20
624.07797916370112
 11
639.56489126605811
 21
624.07783146648012
  0
ARC
  8
_0-2_____-2
  6
CONTINUOUS
 62
    1
 10
648.74492080841048
 20
621.12069524590379
 40
9.6445630811098031
 50
162.14484394328665
 51
163.86363649376651
  0
LINE
  8
_0-2_____-2
  6
CONTINUOUS
 62
    1
 10
639.48032497110967
 20
623.8011543478068
 11
639.48020362045281
 21
623.80073491787027
  0
ARC
  8
_0-2_____-2
  6
CONTINUOUS
 62
    1
 10
644.11540997128338
 20
622.45966389108662
 40
4.8253092557533259
 50
163.86363649378907
 51
167.30865317429704
  0
LINE
  8
_0-2_____-2
  6
CONTINUOUS
 62
    1
 10
639.4079939480572
 20
623.51977888387364
 11
639.40794121134195
 21
623.51954470771364
  0
ARC
  8
_0-2_____-2
  6
CONTINUOUS
 62
    1
 10
648.80822064733081
 20
621.40259198517776
 40
9.6357014432852335
 50
167.30865317430008
 51
169.0370716423889
  0
LINE
  8
_0-2_____-2
  6
CONTINUOUS
 62
    1
 10
639.34836655782817
 20
623.23505014553189
 11
639.34824937990243
 21
623.23444522799309
  0
ARC
  8
_0-2_____-2
  6
CONTINUOUS
 62
    1
 10
644.08086836662824
 20
622.31769469462949
 40
4.8205927035935252
 50
169.03707164236204
 51
172.50579144597842
  0
LINE
  8
_0-2_____-2
  6
CONTINUOUS
 62
    1
 10
639.30145292550367
 20
622.94642520532545
 11
639.29507560331831
 21
622.89794676884537
  0
ARC
  8
_0-2_____-2
  6
CONTINUOUS
 62
    1
 10
645.67467577537377
 20
622.05871248933772
 40
6.4345638959598794
 50
172.50579144600104
 51
175.55589982714486
  0
LINE
  8
_0-2_____-2
  6
CONTINUOUS
 62
    1
 10
639.25945799562032
 20
622.55730387466861
 11
639.25760356324918
 21
622.53283954352423
  0
LINE
  8
_0-2_____-2
  6
CONTINUOUS
 62
    1
 10
643.55132680003953
 20
628.10481405360906
 11
643.915928673292
 21
628.18202386206349
  0
LINE
  8
_0-2_____-2
  6
CONTINUOUS
 62
    1
 10
617.23306051707686
 20
627.65382031893625
 11
618.79356335455395
 21
612.13005622215417
  0
LINE
  8
_0-2_____-2
  6
CONTINUOUS
 62
    1
 10
639.30049790127487
 20
623.62235572948362
 11
638.02915934708744
 21
612.13320340827568
  0
ARC
  8
_0-2_____-2
  6
CONTINUOUS
 62
    1
 10
622.63636145677765
 20
567.01521940735984
 40
66.652492536096986
 50
69.631381304530038
 51
97.928588622219053
  0
LINE
  8
_0-2_____-2
  6
CONTINUOUS
 62
    1
 10
620.78952654332079
 20
610.25706389549828
 11
636.03299838671774
 21
610.25706389549828
  0
LINE
  8
_0-2_____-2
  6
CONTINUOUS
 62
    1
 10
1330.4921793998774
 20
621.65013407049332
 11
1330.493188632076
 21
621.66487906426528
  0
ARC
  8
_0-2_____-2
  6
CONTINUOUS
 62
    1
 10
1336.7930755969869
 20
621.23367855851495
 40
6.3146266435011702
 50
174.01627722905295
 51
176.08445416379618
  0
LINE
  8
_0-2_____-2
  6
CONTINUOUS
 62
    1
 10
1330.5128538756176
 20
621.89195264828027
 11
1330.5129387703205
 21
621.89276258074688
  0
ARC
  8
_0-2_____-2
  6
CONTINUOUS
 62
    1
 10
1336.7867232393132
 20
621.23516322455475
 40
6.3081541259418934
 50
171.96076742809905
 51
174.01627722904416
  0
LINE
  8
_0-2_____-2
  6
CONTINUOUS
 62
    1
 10
1330.5405622485623
 20
622.11736578307591
 11
1330.5406668839482
 21
622.11810662139987
  0
ARC
  8
_0-2_____-2
  6
CONTINUOUS
 62
    1
 10
1336.7663854345121
 20
621.23879133604919
 40
6.2875087945776178
 50
169.91214131914762
 51
171.96076742811675
  0
LINE
  8
_0-2_____-2
  6
CONTINUOUS
 62
    1
 10
1330.5760795193628
 20
622.34009943043316
 11
1330.5761998223034
 21
622.34077563721735
  0
ARC
  8
_0-2_____-2
  6
CONTINUOUS
 62
    1
 10
1336.7523254278299
 20
621.24199034057301
 40
6.2731058195572516
 50
167.8713549021825
 51
169.91214131914865
  0
LINE
  8
_0-2_____-2
  6
CONTINUOUS
 62
    1
 10
1330.6192458972318
 20
622.56001617291486
 11
1330.6193782194989
 21
622.56063189907775
  0
ARC
  8
_0-2_____-2
  6
CONTINUOUS
 62
    1
 10
1336.743809313326
 20
621.2444646539293
 40
6.2642599275761359
 50
165.8392041991809
 51
167.87135490218097
  0
LINE
  8
_0-2_____-2
  6
CONTINUOUS
 62
    1
 10
1330.6699016235302
 20
622.77697821539493
 11
1330.6700427730482
 21
622.77753764218437
  0
ARC
  8
_0-2_____-2
  6
CONTINUOUS
 62
    1
 10
1336.7399997087923
 20
621.24602089932137
 40
6.2601853595128718
 50
163.81628892664256
 51
165.83920419920051
  0
LINE
  8
_0-2_____-2
  6
CONTINUOUS
 62
    1
 10
1330.7278869476686
 20
622.99084779130578
 11
1330.7280341709011
 21
622.99135507525432
  0
ARC
  8
_0-2_____-2
  6
CONTINUOUS
 62
    1
 10
1336.740070812486
 20
621.24655027457402
 40
6.2601060991196142
 50
161.8030140609419
 51
163.81628892663269
  0
LINE
  8
_0-2_____-2
  6
CONTINUOUS
 62
    1
 10
1330.7930421304982
 20
623.20148716047333
 11
1330.7931930883526
 21
623.20194638281259
  0
ARC
  8
_0-2_____-2
  6
CONTINUOUS
 62
    1
 10
1336.7432164892407
 20
621.24602505800192
 40
6.2632584730284799
 50
159.79959374509914
 51
161.8030140609396
  0
LINE
  8
_0-2_____-2
  6
CONTINUOUS
 62
    1
 10
1330.865207447247
 20
623.40875860659389
 11
1330.8653601854453
 21
623.4091737277779
  0
ARC
  8
_0-2_____-2
  6
CONTINUOUS
 62
    1
 10
1336.748658465933
 20
621.24449407575844
 40
6.268894372459374
 50
157.80605722886997
 51
159.79959374508999
  0
LINE
  8
_0-2_____-2
  6
CONTINUOUS
 62
    1
 10
1330.9442231899316
 20
623.61252443446699
 11
1330.9443761048142
 21
623.61289925421283
  0
ARC
  8
_0-2_____-2
  6
CONTINUOUS
 62
    1
 10
1336.7556544329841
 20
621.24207714152453
 40
6.2762849917344754
 50
155.82225650285974
 51
157.8060572288687
  0
LINE
  8
_0-2_____-2
  6
CONTINUOUS
 62
    1
 10
1331.0299296692992
 20
623.81264696706876
 11
1331.0300814700286
 21
623.81298509023009
  0
ARC
  8
_0-2_____-2
  6
CONTINUOUS
 62
    1
 10
1336.763506219512
 20
621.2389583484038
 40
6.2847253739224387
 50
153.84787540188202
 51
155.82225650284346
  0
LINE
  8
_0-2_____-2
  6
CONTINUOUS
 62
    1
 10
1331.1221672163047
 20
624.00898854255627
 11
1331.1223168843644
 21
624.00929335088153
  0
ARC
  8
_0-2_____-2
  6
CONTINUOUS
 62
    1
 10
1336.7715674310807
 20
621.23537840270853
 40
6.2935392172663072
 50
151.88243981885461
 51
153.84787540192241
  0
LINE
  8
_0-2_____-2
  6
CONTINUOUS
 62
    1
 10
1331.2207761831428
 20
624.20141151127029
 11
1331.2209229299979
 21
624.20168614109673
  0
ARC
  8
_0-2_____-2
  6
CONTINUOUS
 62
    1
 10
1336.7792507845545
 20
621.231625890499
 40
6.302084292591009
 50
149.92532883836967
 51
151.88243981884054
  0
LINE
  8
_0-2_____-2
  6
CONTINUOUS
 62
    1
 10
1331.3255969438796
 20
624.38977823277366
 11
1331.3257401674625
 21
624.39002555834793
  0
ARC
  8
_0-2_____-2
  6
CONTINUOUS
 62
    1
 10
1336.7860345795659
 20
621.22802773250805
 40
6.3097579444434571
 50
147.97578649953232
 51
149.92532883836438
  0
LINE
  8
_0-2_____-2
  6
CONTINUOUS
 62
    1
 10
1331.4364698947866
 20
624.57395107305661
 11
1331.4366091358615
 21
624.57417369595066
  0
ARC
  8
_0-2_____-2
  6
CONTINUOUS
 62
    1
 10
1336.7914685422606
 20
621.22493873404665
 40
6.3160030155426048
 50
146.03293409342587
 51
147.97578649952789
  0
LINE
  8
_0-2_____-2
  6
CONTINUOUS
 62
    1
 10
1331.5532354541365
 20
624.75379240157406
 11
1331.5533703514457
 21
624.75399264324312
  0
ARC
  8
_0-2_____-2
  6
CONTINUOUS
 62
    1
 10
1336.795178106403
 20
621.22273082091272
 40
6.3203131724449788
 50
144.09578261253478
 51
146.03293409341879
  0
LINE
  8
_0-2_____-2
  6
CONTINUOUS
 62
    1
 10
1331.6757340627673
 20
624.92916458962679
 11
1331.6758643147573
 21
624.92934449781251
  0
ARC
  8
_0-2_____-2
  6
CONTINUOUS
 62
    1
 10
1336.7968687895698
 20
621.22178099025541
 40
6.3222396343081364
 50
142.16324590997496
 51
144.09578261255663
  0
LINE
  8
_0-2_____-2
  6
CONTINUOUS
 62
    1
 10
1331.8038061801781
 20
625.09993000393581
 11
1331.8039314819407
 21
625.10009132820255
  0
ARC
  8
_0-2_____-2
  6
CONTINUOUS
 62
    1
 10
1336.7963264659684
 20
621.22246086412576
 40
6.3213942838966037
 50
140.23415268186639
 51
142.1632459099612
  0
LINE
  8
_0-2_____-2
  6
CONTINUOUS
 62
    1
 10
1331.9372922979705
 20
625.26595102074918
 11
1331.9374123910427
 21
625.26609533576379
  0
ARC
  8
_0-2_____-2
  6
CONTINUOUS
 62
    1
 10
1336.7934168858833
 20
621.22512634963709
 40
6.3174528095387847
 50
138.30726068359246
 51
140.23415268186346
  0
LINE
  8
_0-2_____-2
  6
CONTINUOUS
 62
    1
 10
1332.0760328808801
 20
625.42708995610622
 11
1332.0761471264891
 21
625.42721821528676
  0
ARC
  8
_0-2_____-2
  6
CONTINUOUS
 62
    1
 10
1336.7881224437419
 20
621.23007234446345
 40
6.3102095726978913
 50
136.38127558139331
 51
138.30726068357887
  0
LINE
  8
_0-2_____-2
  6
CONTINUOUS
 62
    1
 10
1332.2198686046149
 20
625.58320934123594
 11
1332.2245383065977
 21
625.58810980359806
  0
ARC
  8
_0-2_____-2
  6
CONTINUOUS
 62
    1
 10
1336.5001304728823
 20
621.51385318442124
 40
5.9059508439626605
 50
134.45478461467397
 51
136.38127558142736
  0
LINE
  8
_0-2_____-2
  6
CONTINUOUS
 62
    1
 10
1332.3639203643327
 20
625.7295407095155
 11
1332.3686949763417
 21
625.73422530682888
  0
ARC
  8
_0-2_____-2
  6
CONTINUOUS
 62
    1
 10
1336.7734342416925
 20
621.24484882814033
 40
6.2893743061712373
 50
132.76756333637573
 51
134.45478461466806
  0
LINE
  8
_0-2_____-2
  6
CONTINUOUS
 62
    1
 10
1332.5027867500849
 20
625.86196905243082
 11
1332.5125027210888
 21
625.87093693263807
  0
ARC
  8
_0-2_____-2
  6
CONTINUOUS
 62
    1
 10
1336.257865461921
 20
620.42424354510422
 40
5.840514147869146
 50
173.78632645975682
 51
175.92354812574843
  0
LINE
  8
_0-2_____-2
  6
CONTINUOUS
 62
    1
 10
1330.4516633896742
 20
621.05640096829472
 11
1330.4516752709537
 21
621.05651009476912
  0
ARC
  8
_0-2_____-2
  6
CONTINUOUS
 62
    1
 10
1334.9461184232282
 20
620.56717204444817
 40
4.5210033152519422
 50
171.02276356699036
 51
173.78632645979147
  0
LINE
  8
_0-2_____-2
  6
CONTINUOUS
 62
    1
 10
1330.4804955272152
 20
621.27263864686415
 11
1330.4829604157335
 21
621.288241458627
  0
ARC
  8
_0-2_____-2
  6
CONTINUOUS
 62
    1
 10
1335.7359768590334
 20
620.45838462812571
 40
5.318161723068382
 50
168.33311308538586
 51
171.0227635669701
  0
LINE
  8
_0-2_____-2
  6
CONTINUOUS
 62
    1
 10
1330.5276891845449
 20
621.53383040196968
 11
1330.5277488336919
 21
621.53411927745321
  0
ARC
  8
_0-2_____-2
  6
CONTINUOUS
 62
    1
 10
1335.8879600625883
 20
620.42730320405087
 40
5.4732902571240549
 50
165.71349567986155
 51
168.33311308538674
  0
LINE
  8
_0-2_____-2
  6
CONTINUOUS
 62
    1
 10
1330.583937416649
 20
621.7779512004181
 11
1330.584018850032
 21
621.77827099099932
  0
ARC
  8
_0-2_____-2
  6
CONTINUOUS
 62
    1
 10
1336.0384665145145
 20
620.3893178697366
 40
5.6285157988268919
 50
163.15938393521245
 51
165.71349567985595
  0
LINE
  8
_0-2_____-2
  6
CONTINUOUS
 62
    1
 10
1330.6513331786769
 20
622.01995716754323
 11
1330.6514338006737
 21
622.02028959183485
  0
ARC
  8
_0-2_____-2
  6
CONTINUOUS
 62
    1
 10
1336.1843837612223
 20
620.3455128458337
 40
5.7808660609707898
 50
160.66568090945648
 51
163.15938393521341
  0
LINE
  8
_0-2_____-2
  6
CONTINUOUS
 62
    1
 10
1330.7295422995205
 20
622.25943997155684
 11
1330.7296576016379
 21
622.25976859157743
  0
ARC
  8
_0-2_____-2
  6
CONTINUOUS
 62
    1
 10
1336.3224886262524
 20
620.29742539924996
 40
5.9271029748406487
 50
158.22675520040812
 51
160.66568090945412
  0
LINE
  8
_0-2_____-2
  6
CONTINUOUS
 62
    1
 10
1330.818230263556
 20
622.49599073852278
 11
1330.8183543959162
 21
622.4963015123576
  0
ARC
  8
_0-2_____-2
  6
CONTINUOUS
 62
    1
 10
1336.4497795648983
 20
620.24694194901713
 40
6.0640389081070358
 50
155.83656729202607
 51
158.22675520041545
  0
LINE
  8
_0-2_____-2
  6
CONTINUOUS
 62
    1
 10
1330.9170623386362
 20
622.72920059252283
 11
1330.9171885291539
 21
622.72948185912367
  0
ARC
  8
_0-2_____-2
  6
CONTINUOUS
 62
    1
 10
1336.5635620590065
 20
620.19623121106883
 40
6.1886099315184753
 50
153.48877229528227
 51
155.83656729203483
  0
LINE
  8
_0-2_____-2
  6
CONTINUOUS
 62
    1
 10
1331.0257036012322
 20
622.95866068277473
 11
1331.0258245245777
 21
622.95890309850972
  0
ARC
  8
_0-2_____-2
  6
CONTINUOUS
 62
    1
 10
1336.6615272331101
 20
620.14766634074044
 40
6.2979518200117726
 50
151.17680035745758
 51
153.48877229528753
  0
LINE
  8
_0-2_____-2
  6
CONTINUOUS
 62
    1
 10
1331.1438189572877
 20
623.18396219426199
 11
1331.1439270645142
 21
623.18415865210636
  0
ARC
  8
_0-2_____-2
  6
CONTINUOUS
 62
    1
 10
1336.7418272797536
 20
620.10373461329971
 40
6.3894834751046181
 50
148.89391946821695
 51
151.17680035744849
  0
LINE
  8
_0-2_____-2
  6
CONTINUOUS
 62
    1
 10
1331.271073177174
 20
623.40469638644117
 11
1331.2711609555295
 21
623.40484186337574
  0
ARC
  8
_0-2_____-2
  6
CONTINUOUS
 62
    1
 10
1336.8054795625735
 20
620.06546229910168
 40
6.4637557440364741
 50
146.63279449084061
 51
148.89343351042626
  0
ARC
  8
_0-2_____-2
  6
CONTINUOUS
 62
    1
 10
1336.845570041479
 20
620.03909995720323
 40
6.5117371830145494
 50
144.3877430180595
 51
146.6330851033496
  0
ARC
  8
_0-2_____-2
  6
CONTINUOUS
 62
    1
 10
1336.8659472231705
 20
620.02454520198955
 40
6.5367785359084447
 50
142.15108356960323
 51
144.38803139075557
  0
ARC
  8
_0-2_____-2
  6
CONTINUOUS
 62
    1
 10
1336.8664433691299
 20
620.02420495060449
 40
6.5373790803917249
 50
139.91565031365991
 51
142.15139691867935
  0
LINE
  8
_0-2_____-2
  6
CONTINUOUS
 62
    1
 10
1331.8647121913145
 20
624.23371922966476
 11
1331.8648161386568
 21
624.23384273778493
  0
ARC
  8
_0-2_____-2
  6
CONTINUOUS
 62
    1
 10
1336.8454275713443
 20
620.04204286585662
 40
6.5098138536916021
 50
137.67368848432881
 51
139.91524484557462
  0
LINE
  8
_0-2_____-2
  6
CONTINUOUS
 62
    1
 10
1332.0325792698741
 20
624.42543968074222
 11
1332.0327326007891
 21
624.42560803384038
  0
ARC
  8
_0-2_____-2
  6
CONTINUOUS
 62
    1
 10
1336.8095354536767
 20
620.07504032442796
 40
6.4610591151559298
 50
135.4192589318786
 51
137.67368848433986
  0
LINE
  8
_0-2_____-2
  6
CONTINUOUS
 62
    1
 10
1332.2075684259135
 20
624.61014609661424
 11
1332.2299907994288
 21
624.6328990441275
  0
ARC
  8
_0-2_____-2
  6
CONTINUOUS
 62
    1
 10
1335.6431956517747
 20
621.2692841085692
 40
4.792063521990241
 50
133.14344122988757
 51
135.4192589318707
  0
LINE
  8
_0-2_____-2
  6
CONTINUOUS
 62
    1
 10
1332.3662523633543
 20
624.7657845709266
 11
1332.3664339537977
 21
624.76595475868726
  0
ARC
  8
_0-2_____-2
  6
CONTINUOUS
 62
    1
 10
1338.8574701404718
 20
617.8400152381372
 40
9.4922172867582084
 50
131.99740600631756
 51
133.14344122990354
  0
ARC
  8
_0-2_____-2
  6
CONTINUOUS
 62
    1
 10
1335.647103572504
 20
621.40581316490614
 40
4.6941584756060264
 50
129.68020787810039
 51
131.99740600631193
  0
LINE
  8
_0-2_____-2
  6
CONTINUOUS
 62
    1
 10
1332.6498739984404
 20
625.01853217895405
 11
1332.6803685993632
 21
625.04383149489297
  0
ARC
  8
_0-2_____-2
  6
CONTINUOUS
 62
    1
 10
1336.345313533549
 20
620.62627991201089
 40
5.739911441654618
 50
127.32432579855649
 51
129.68020787811193
  0
LINE
  8
_0-2_____-2
  6
CONTINUOUS
 62
    1
 10
1332.8650555522063
 20
625.1907500610356
 11
1332.8714741285116
 21
625.19564401382456
  0
ARC
  8
_0-2_____-2
  6
CONTINUOUS
 62
    1
 10
1336.5105205181421
 20
620.42291776610352
 40
6.0017976025160733
 50
125.22526692040576
 51
127.32432579853972
  0
LINE
  8
_0-2_____-2
  6
CONTINUOUS
 62
    1
 10
1333.0487279925974
 20
625.3257299154368
 11
1333.0615502478704
 21
625.33475770726443
  0
ARC
  8
_0-2_____-2
  6
CONTINUOUS
 62
    1
 10
1302.1309578615239
 20
615.62066880533757
 40
6.9471967559842245
 50
71.355004597462241
 51
73.473357315155425
  0
LINE
  8
_0-2_____-2
  6
CONTINUOUS
 62
    1
 10
1304.3520010517502
 20
622.20326023375742
 11
1304.3722242143672
 21
622.19643670261416
  0
ARC
  8
_0-2_____-2
  6
CONTINUOUS
 62
    1
 10
1302.9636055827082
 20
618.02165929554303
 40
4.40601552971036
 50
68.037178233480233
 51
71.355004597488261
  0
LINE
  8
_0-2_____-2
  6
CONTINUOUS
 62
    1
 10
1304.6114768971925
 20
622.1079158928394
 11
1304.6512240268498
 21
622.09188700350364
  0
ARC
  8
_0-2_____-2
  6
CONTINUOUS
 62
    1
 10
1302.4366285182487
 20
616.60031407069596
 40
5.9213010853243988
 50
66.39721474271137
 51
68.037178233497272
  0
ARC
  8
_0-2_____-2
  6
CONTINUOUS
 62
    1
 10
1302.4226392120981
 20
616.56829805648408
 40
5.9562399727219599
 50
64.766869861132136
 51
66.397214742650377
  0
LINE
  8
_0-2_____-2
  6
CONTINUOUS
 62
    1
 10
1304.9617987176794
 20
621.95619779737274
 11
1305.0000146075924
 21
621.93818776659941
  0
ARC
  8
_0-2_____-2
  6
CONTINUOUS
 62
    1
 10
1303.0784352183857
 20
617.86074518354496
 40
4.5075498185965692
 50
61.551040312731544
 51
64.766869861174484
  0
LINE
  8
_0-2_____-2
  6
CONTINUOUS
 62
    1
 10
1305.2257224268415
 20
621.82397152221574
 11
1305.2260368205859
 21
621.82380118279798
  0
ARC
  8
_0-2_____-2
  6
CONTINUOUS
 62
    1
 10
1300.8969839889915
 20
613.83371204329353
 40
9.0874761554550059
 50
59.960123945014743
 51
61.551040312737634
  0
ARC
  8
_0-2_____-2
  6
CONTINUOUS
 62
    1
 10
1303.1442040510351
 20
617.71976292066529
 40
4.5984462570501021
 50
56.816732458799741
 51
59.960123945012505
  0
LINE
  8
_0-2_____-2
  6
CONTINUOUS
 62
    1
 10
1305.6610202966176
 20
621.56831381222833
 11
1305.6962455931839
 21
621.5452777134077
  0
ARC
  8
_0-2_____-2
  6
CONTINUOUS
 62
    1
 10
1302.3018882535223
 20
616.3548483410766
 40
6.2017915813475213
 50
53.719837137943173
 51
56.81673245878661
  0
LINE
  8
_0-2_____-2
  6
CONTINUOUS
 62
    1
 10
1305.9716998884358
 20
621.35431845127084
 11
1305.9718902295999
 21
621.35417873322024
  0
ARC
  8
_0-2_____-2
  6
CONTINUOUS
 62
    1
 10
1302.2571561763459
 20
616.29350976321655
 40
6.2777081415403213
 50
50.664681719039898
 51
53.719837137946548
  0
LINE
  8
_0-2_____-2
  6
CONTINUOUS
 62
    1
 10
1306.2363302161418
 20
621.1490008270921
 11
1306.2364734944933
 21
621.14888340755829
  0
ARC
  8
_0-2_____-2
  6
CONTINUOUS
 62
    1
 10
1302.2136527382499
 20
616.24013349157758
 40
6.3465669912562319
 50
47.646001026487809
 51
50.664681719051899
  0
ARC
  8
_0-2_____-2
  6
CONTINUOUS
 62
    1
 10
1302.1721122946192
 20
616.19445505399904
 40
6.4083093789203822
 50
44.658421135564559
 51
47.64667826090713
  0
ARC
  8
_0-2_____-2
  6
CONTINUOUS
 62
    1
 10
1302.1394784740037
 20
616.16222312770697
 40
6.4541772675361262
 50
41.693799346195206
 51
44.658325841745395
  0
ARC
  8
_0-2_____-2
  6
CONTINUOUS
 62
    1
 10
1302.1159802374666
 20
616.14129803568721
 40
6.4856419552486999
 50
38.745833754232308
 51
41.693756390633951
  0
ARC
  8
_0-2_____-2
  6
CONTINUOUS
 62
    1
 10
1302.1039347122644
 20
616.13163717705493
 40
6.5010830319642734
 50
35.806943837514034
 51
38.745797616094116
  0
LINE
  8
_0-2_____-2
  6
CONTINUOUS
 62
    1
 10
1307.3762670258516
 20
619.93513458912207
 11
1307.400696893073
 21
619.90126977146883
  0
ARC
  8
_0-2_____-2
  6
CONTINUOUS
 62
    1
 10
1303.4488367732056
 20
617.05042264760993
 40
4.8728356970673561
 50
32.8686707050284
 51
35.806444058787804
  0
ARC
  8
_0-2_____-2
  6
CONTINUOUS
 62
    1
 10
1299.3659842536731
 20
614.41222574981862
 40
9.7338816305050297
 50
31.39845842271907
 51
32.868902428130866
  0
ARC
  8
_0-2_____-2
  6
CONTINUOUS
 62
    1
 10
1303.5367848532419
 20
616.95793128884577
 40
4.8475543458561123
 50
28.447934575206236
 51
31.398539065352935
  0
ARC
  8
_0-2_____-2
  6
CONTINUOUS
 62
    1
 10
1299.3089742716197
 20
614.66740706395444
 40
9.6559723329670124
 50
26.967068936254424
 51
28.4478426134187
  0
ARC
  8
_0-2_____-2
  6
CONTINUOUS
 62
    1
 10
1303.6424352291976
 20
616.87227298340656
 40
4.7938413604870602
 50
23.986461586400441
 51
26.96713646758197
  0
LINE
  8
_0-2_____-2
  6
CONTINUOUS
 62
    1
 10
1308.0222878318127
 20
618.82106906532022
 11
1308.039201790265
 21
618.78305500901229
  0
ARC
  8
_0-2_____-2
  6
CONTINUOUS
 62
    1
 10
1302.2455716721779
 20
616.20523962641789
 40
6.3412366374349896
 50
22.484734707842335
 51
23.986174603781674
  0
ARC
  8
_0-2_____-2
  6
CONTINUOUS
 62
    1
 10
1302.2663633091142
 20
616.21384531519061
 40
6.3187344143060464
 50
20.977948512236015
 51
22.484734707920222
  0
LINE
  8
_0-2_____-2
  6
CONTINUOUS
 62
    1
 10
1308.1662811559413
 20
618.47600667089137
 11
1308.1811478342152
 21
618.43723305279821
  0
ARC
  8
_0-2_____-2
  6
CONTINUOUS
 62
    1
 10
1303.8037539702036
 20
616.75884167601521
 40
4.6881312539585842
 50
17.932662233013794
 51
20.977948512227005
  0
LINE
  8
_0-2_____-2
  6
CONTINUOUS
 62
    1
 10
1308.2641312907206
 20
618.20231277477842
 11
1308.2737155151945
 21
618.17269717837678
  0
ARC
  8
_0-2_____-2
  6
CONTINUOUS
 62
    1
 10
1301.9076568515654
 20
616.11250786396465
 40
6.691119705997127
 50
15.621409770063273
 51
17.932662233004443
  0
ARC
  8
_0-2_____-2
  6
CONTINUOUS
 62
    1
 10
1302.8962218132267
 20
616.38891839685516
 40
5.6646385974924796
 50
12.891484832411859
 51
15.621409770066071
  0
LINE
  8
_0-2_____-2
  6
CONTINUOUS
 62
    1
 10
1308.4180795827976
 20
617.65272898900457
 11
1308.4203959560696
 21
617.64260826060752
  0
LINE
  8
_0-2_____-2
  6
CONTINUOUS
 62
    1
 10
1308.4203959560696
 20
617.64260826060752
 11
1308.4249943237292
 21
617.62235572948362
  0
LINE
  8
_0-2_____-2
  6
CONTINUOUS
 62
    1
 10
1303.5396188213017
 20
621.40323990575394
 11
1303.5777925827356
 21
621.39646142881611
  0
ARC
  8
_0-2_____-2
  6
CONTINUOUS
 62
    1
 10
1302.5846356883678
 20
615.80338577191753
 40
5.6805682744442567
 50
77.621910853529911
 51
79.930997609083533
  0
LINE
  8
_0-2_____-2
  6
CONTINUOUS
 62
    1
 10
1303.802332618709
 20
621.35190540389681
 11
1303.8154595185852
 21
621.34902452994413
  0
ARC
  8
_0-2_____-2
  6
CONTINUOUS
 62
    1
 10
1302.4591202225338
 20
615.16877144376372
 40
6.3273362875111285
 50
75.792122613835858
 51
77.621910853540939
  0
LINE
  8
_0-2_____-2
  6
CONTINUOUS
 62
    1
 10
1304.0121058741713
 20
621.30256472859674
 11
1304.0126708490609
 21
621.3024216853189
  0
ARC
  8
_0-2_____-2
  6
CONTINUOUS
 62
    1
 10
1302.4658981114974
 20
615.19316741063551
 40
6.3020229842810593
 50
73.965580481592738
 51
75.792122613776797
  0
LINE
  8
_0-2_____-2
  6
CONTINUOUS
 62
    1
 10
1304.2066099315343
 20
621.25001610067147
 11
1304.2071248056698
 21
621.24986812809721
  0
ARC
  8
_0-2_____-2
  6
CONTINUOUS
 62
    1
 10
1302.4720365485384
 20
615.21258676057118
 40
6.2816635989769374
 50
72.142889547782644
 51
73.96558048164961
  0
LINE
  8
_0-2_____-2
  6
CONTINUOUS
 62
    1
 10
1304.3982722738963
 20
621.19162627382639
 11
1304.3987395765046
 21
621.19147572540192
  0
ARC
  8
_0-2_____-2
  6
CONTINUOUS
 62
    1
 10
1302.4771375347539
 20
615.2268191752562
 40
6.2665526542155705
 50
70.324779620354931
 51
72.142889547780868
  0
LINE
  8
_0-2_____-2
  6
CONTINUOUS
 62
    1
 10
1304.5870109539114
 20
621.12750695916657
 11
1304.5874332527671
 21
621.1273559603062
  0
ARC
  8
_0-2_____-2
  6
CONTINUOUS
 62
    1
 10
1302.4810397893609
 20
615.23640057654791
 40
6.2562168085921899
 50
68.511879055378358
 51
70.324779620363131
  0
LINE
  8
_0-2_____-2
  6
CONTINUOUS
 62
    1
 10
1304.7727440371164
 20
621.05776986537774
 11
1304.773123914119
 21
621.05762031881954
  0
ARC
  8
_0-2_____-2
  6
CONTINUOUS
 62
    1
 10
1302.4836274574996
 20
615.24185924384767
 40
6.2501896696045565
 50
66.704713662769521
 51
68.511879055371011
  0
LINE
  8
_0-2_____-2
  6
CONTINUOUS
 62
    1
 10
1304.9553896012437
 20
620.98252669727015
 11
1304.9557296293815
 21
620.98238029117977
  0
ARC
  8
_0-2_____-2
  6
CONTINUOUS
 62
    1
 10
1302.484828475041
 20
615.24371248560828
 40
6.2480125397780739
 50
64.903706772495653
 51
66.70471366275288
  0
LINE
  8
_0-2_____-2
  6
CONTINUOUS
 62
    1
 10
1305.134865735351
 20
620.90188915448255
 11
1305.1351684574513
 21
620.90174737297002
  0
ARC
  8
_0-2_____-2
  6
CONTINUOUS
 62
    1
 10
1302.4846125550807
 20
615.24246333535007
 40
6.2492353460285353
 50
63.109180368498805
 51
64.903706772538328
  0
LINE
  8
_0-2_____-2
  6
CONTINUOUS
 62
    1
 10
1305.311090538826
 20
620.81596893034646
 11
1305.311358448258
 21
620.8158330661048
  0
ARC
  8
_0-2_____-2
  6
CONTINUOUS
 62
    1
 10
1302.4829887591654
 20
615.23859723496673
 40
6.2534178346171334
 50
61.321357209448188
 51
63.109180368485461
  0
LINE
  8
_0-2_____-2
  6
CONTINUOUS
 62
    1
 10
1305.4839821202838
 20
620.7248777109204
 11
1305.4842176438033
 21
620.72474887964358
  0
ARC
  8
_0-2_____-2
  6
CONTINUOUS
 62
    1
 10
1302.4800026619425
 20
615.23257878221796
 40
6.2601309919436412
 50
59.540363839951091
 51
61.32135720938772
  0
LINE
  8
_0-2_____-2
  6
CONTINUOUS
 62
    1
 10
1305.6534585964087
 20
620.62872717420032
 11
1305.6536640792854
 21
620.62860633044147
  0
ARC
  8
_0-2_____-2
  6
CONTINUOUS
 62
    1
 10
1302.4757331560111
 20
615.22484866195896
 40
6.2689585971505801
 50
57.766234368067146
 51
59.540363839956946
  0
LINE
  8
_0-2_____-2
  6
CONTINUOUS
 62
    1
 10
1305.8194380907535
 20
620.52762898950095
 11
1305.8196157842126
 21
620.52751694365713
  0
ARC
  8
_0-2_____-2
  6
CONTINUOUS
 62
    1
 10
1302.4702888437041
 20
615.21582067939153
 40
6.2794990372026174
 50
55.998914928308935
 51
57.766234368131244
  0
LINE
  8
_0-2_____-2
  6
CONTINUOUS
 62
    1
 10
1305.9818387325167
 20
620.42169481699898
 11
1305.9819907835372
 21
620.4215922531007
  0
ARC
  8
_0-2_____-2
  6
CONTINUOUS
 62
    1
 10
1302.4638041162848
 20
615.2058790887595
 40
6.2913671994501765
 50
54.238268707551342
 51
55.998914928301112
  0
LINE
  8
_0-2_____-2
  6
CONTINUOUS
 62
    1
 10
1306.1405786553287
 20
620.31103630743121
 11
1306.1407070987839
 21
620.31094380144066
  0
ARC
  8
_0-2_____-2
  6
CONTINUOUS
 62
    1
 10
1302.4564348991728
 20
615.19537617126593
 40
6.304196524515703
 50
52.484081448840961
 51
54.238268707534665
  0
ARC
  8
_0-2_____-2
  6
CONTINUOUS
 62
    1
 10
1302.4454109045405
 20
615.18101768343035
 40
6.3222988622259937
 50
50.734916089850579
 51
52.484081448851704
  0
LINE
  8
_0-2_____-2
  6
CONTINUOUS
 62
    1
 10
1306.4468518694957
 20
620.07590615072797
 11
1306.4841464217809
 21
620.04541884743571
  0
ARC
  8
_0-2_____-2
  6
CONTINUOUS
 62
    1
 10
1303.4750277462874
 20
616.36441981973326
 40
4.754424154947861
 50
47.256874795040183
 51
50.734916089860569
  0
LINE
  8
_0-2_____-2
  6
CONTINUOUS
 62
    1
 10
1306.7019154728964
 20
619.85608770843794
 11
1306.7020616117256
 21
619.8559526516085
  0
ARC
  8
_0-2_____-2
  6
CONTINUOUS
 62
    1
 10
1300.2320129008081
 20
612.85500832499179
 40
9.5328249635683875
 50
45.524219271022538
 51
47.256874794999135
  0
ARC
  8
_0-2_____-2
  6
CONTINUOUS
 62
    1
 10
1303.5582864230728
 20
616.24265645663331
 40
4.7851670772305983
 50
42.074669217287692
 51
45.524686094161595
  0
ARC
  8
_0-2_____-2
  6
CONTINUOUS
 62
    1
 10
1299.990292867192
 20
613.02167484444863
 40
9.5919644059004554
 50
40.353442467022091
 51
42.074297653992843
  0
ARC
  8
_0-2_____-2
  6
CONTINUOUS
 62
    1
 10
1303.63608801501
 20
616.11939655727065
 40
4.8078550771133655
 50
36.921249062416145
 51
40.353337098698695
  0
ARC
  8
_0-2_____-2
  6
CONTINUOUS
 62
    1
 10
1299.7802500584635
 20
613.2221890940084
 40
9.630851804311817
 50
35.206424768285189
 51
36.920895562514453
  0
ARC
  8
_0-2_____-2
  6
CONTINUOUS
 62
    1
 10
1303.7089271996072
 20
615.99423566546534
 40
4.822656064375602
 50
31.780914250029237
 51
35.206328646165758
  0
ARC
  8
_0-2_____-2
  6
CONTINUOUS
 62
    1
 10
1299.6108051885508
 20
613.45509049221278
 40
9.6436375230971176
 50
30.067527371416677
 51
31.781375877107823
  0
LINE
  8
_0-2_____-2
  6
CONTINUOUS
 62
    1
 10
1307.9567515944998
 20
618.28674893067
 11
1307.9568893150124
 21
618.28651103967809
  0
ARC
  8
_0-2_____-2
  6
CONTINUOUS
 62
    1
 10
1303.7797780800947
 20
615.86828621952293
 40
4.8266002061171571
 50
26.637469316861665
 51
30.067527371400562
  0
LINE
  8
_0-2_____-2
  6
CONTINUOUS
 62
    1
 10
1308.0940888664677
 20
618.03226218710552
 11
1308.0941584364527
 21
618.03212348568695
  0
ARC
  8
_0-2_____-2
  6
CONTINUOUS
 62
    1
 10
1299.473257439703
 20
613.7080440441232
 40
9.6445630804466038
 50
24.918676766258539
 51
26.637469316857992
  0
LINE
  8
_0-2_____-2
  6
CONTINUOUS
 62
    1
 10
1308.219976514722
 20
617.77160189844426
 11
1308.2201604814964
 21
617.7712059140008
  0
ARC
  8
_0-2_____-2
  6
CONTINUOUS
 62
    1
 10
1303.8440550883142
 20
615.73815131498213
 40
4.8253092558743518
 50
21.47366008582588
 51
24.918676766246506
  0
LINE
  8
_0-2_____-2
  6
CONTINUOUS
 62
    1
 10
1308.3344201197847
 20
617.50456896066407
 11
1308.3345079923881
 21
617.5043455819706
  0
ARC
  8
_0-2_____-2
  6
CONTINUOUS
 62
    1
 10
1299.3676595439399
 20
613.97697103346695
 40
9.6357014432198049
 50
19.745241617731665
 51
21.473660085831678
  0
LINE
  8
_0-2_____-2
  6
CONTINUOUS
 62
    1
 10
1308.4368210155289
 20
617.23228246328677
 11
1308.4370291788853
 21
617.23170252888349
  0
ARC
  8
_0-2_____-2
  6
CONTINUOUS
 62
    1
 10
1303.8998676785386
 20
615.60312046677348
 40
4.8205927035226779
 50
16.276521814056565
 51
19.745241617722577
  0
LINE
  8
_0-2_____-2
  6
CONTINUOUS
 62
    1
 10
1308.5272520901665
 20
616.95420429847172
 11
1308.5409563668761
 21
616.90726793898716
  0
ARC
  8
_0-2_____-2
  6
CONTINUOUS
 62
    1
 10
1302.3642883721177
 20
615.10383093891255
 40
6.4345638959228024
 50
13.226413432916933
 51
16.276521814078659
  0
LINE
  8
_0-2_____-2
  6
CONTINUOUS
 62
    1
 10
1308.6281659977681
 20
616.57605701584134
 11
1308.6337339208981
 21
616.5521626514477
  0
LINE
  8
_0-2_____-2
  6
CONTINUOUS
 62
    1
 10
1303.5396188213017
 20
621.40323990575394
 11
1303.1675032478133
 21
621.42387677732904
  0
LINE
  8
_0-2_____-2
  6
CONTINUOUS
 62
    1
 10
1327.0859066751777
 20
610.25706389549828
 11
1311.471102231988
 21
610.25706389549828
  0
LINE
  8
_0-2_____-2
  6
CONTINUOUS
 62
    1
 10
1330.4924317079272
 20
621.65382031893625
 11
1329.0645325800365
 21
611.9654485176095
  0
LINE
  8
_0-2_____-2
  6
CONTINUOUS
 62
    1
 10
1308.4249943237292
 20
617.62235572948362
 11
1309.5056853530214
 21
611.88674444978585
  0
ARC
  8
_0-2_____-2
  6
CONTINUOUS
 62
    1
 10
1326.9442501534472
 20
560.78319296238749
 40
66.652492536097014
 50
83.678501129672298
 51
111.9757084473615
  0
ARC
  8
_0-2_____-2
  6
CONTINUOUS
 62
    1
 10
620.78952654332079
 20
612.25706389549816
 40
2.0000000000001399
 50
183.64095179316249
 51
270
  0
ARC
  8
_0-2_____-2
  6
CONTINUOUS
 62
    1
 10
636.03299838671774
 20
612.25706389549816
 40
1.9999999999998861
 50
270
 51
356.44938630155792
  0
ARC
  8
_0-2_____-2
  6
CONTINUOUS
 62
    1
 10
1311.471102231988
 20
612.25706389549816
 40
1.9999999999998992
 50
190.67044472789237
 51
270
  0
ARC
  8
_0-2_____-2
  6
CONTINUOUS
 62
    1
 10
1327.0859066751777
 20
612.25706389549816
 40
2
 50
270
 51
351.6159465432828
  0
ARC
  8
_0-2_____-2
  6
CONTINUOUS
 62
    1
 10
609.74797196715576
 20
639.4472962241507
 40
13.49999999999995
 50
182.93423186972529
 51
269.16892492939121
  0
LINE
  8
_0-2_____-2
  6
CONTINUOUS
 62
    1
 10
2028.8757885618779
 20
825.95132235742426
 11
2039.0126244552121
 21
633.22745908353409
  0
LINE
  8
_0-2_____-2
  6
CONTINUOUS
 62
    1
 10
2149.5232493743633
 20
617.67865591697819
 11
2081.2213743361817
 21
619.29209609146835
  0
LINE
  8
_0-2_____-2
  6
CONTINUOUS
 62
    1
 10
2058.7842731182809
 20
619.82210965967306
 11
2052.6626804114849
 21
619.96671511302975
  0
ARC
  8
_0-2_____-2
  6
CONTINUOUS
 62
    1
 10
2147.4914474719535
 20
592.25973027020461
 40
25.500000000134051
 50
44.89241476069278
 51
85.429913505310907
  0
LINE
  8
_0-2_____-2
  6
CONTINUOUS
 62
    1
 10
2293.9634140621692
 20
617.65706389549814
 11
2149.7773706404723
 21
617.65706389549814
  0
LINE
  8
_0-2_____-2
  6
CONTINUOUS
 62
    1
 10
2280.5564961124655
 20
610.25706389549828
 11
2165.5564961125392
 21
610.25706389549828
  0
LINE
  8
_0-2_____-2
  6
CONTINUOUS
 62
    1
 10
2296.5897428506414
 20
617.67865591697819
 11
2363.3118889738248
 21
619.2778952403396
  0
LINE
  8
_0-2_____-2
  6
CONTINUOUS
 62
    1
 10
2385.7402408901712
 20
619.81547240814518
 11
2391.8674214061925
 21
619.96233261261852
  0
ARC
  8
_0-2_____-2
  6
CONTINUOUS
 62
    1
 10
2298.6215447530512
 20
592.25973027020461
 40
25.50000000013414
 50
94.570086494689093
 51
135.10758523930721
  0
LINE
  8
_0-2_____-2
  6
CONTINUOUS
 62
    1
 10
2415.6497036631276
 20
825.95132235743165
 11
2405.5126311948716
 21
633.22296126653828
  0
ARC
  8
_0-2_____-2
  6
CONTINUOUS
 62
    1
 10
1952.0929768678275
 20
820.17206389549392
 40
77.000000000089742
 50
4.3043999870363887
 51
26.668717654844421
  0
ARC
  8
_0-2_____-2
  6
CONTINUOUS
 62
    1
 10
2492.4325153571772
 20
820.17206389549392
 40
77.000000000089685
 50
153.33128234515561
 51
175.69560001296361
  0
ARC
  8
_0-2_____-2
  6
CONTINUOUS
 62
    1
 10
2052.9932989029689
 20
633.96281069047882
 40
13.99999999999994
 50
183.01085291333359
 51
268.64679961577627
  0
ARC
  8
_0-2_____-2
  6
CONTINUOUS
 62
    1
 10
2391.5319567471147
 20
633.9583128734829
 40
13.999999999999829
 50
271.37303920923722
 51
356.98914708666683
  0
LINE
  8
_0-2_____-2
  6
CONTINUOUS
 62
    1
 10
2058.5145628251275
 20
621.65013407049332
 11
2058.5135535929289
 21
621.66487906426528
  0
ARC
  8
_0-2_____-2
  6
CONTINUOUS
 62
    1
 10
2052.2136666280185
 20
621.23367855851643
 40
6.3146266435004827
 50
3.9155458361903728
 51
5.9837227709338041
  0
LINE
  8
_0-2_____-2
  6
CONTINUOUS
 62
    1
 10
2058.4938883493874
 20
621.89195264828027
 11
2058.4938034546844
 21
621.89276258074688
  0
ARC
  8
_0-2_____-2
  6
CONTINUOUS
 62
    1
 10
2052.2200189856935
 20
621.23516322455544
 40
6.3081541259401437
 50
5.9837227709511058
 51
8.0392325718967808
  0
LINE
  8
_0-2_____-2
  6
CONTINUOUS
 62
    1
 10
2058.4661799764426
 20
622.11736578307591
 11
2058.4660753410567
 21
622.11810662139987
  0
ARC
  8
_0-2_____-2
  6
CONTINUOUS
 62
    1
 10
2052.2403567904912
 20
621.23879133605044
 40
6.2875087945789998
 50
8.0392325718701176
 51
10.087858680838718
  0
LINE
  8
_0-2_____-2
  6
CONTINUOUS
 62
    1
 10
2058.4306627056421
 20
622.34009943043316
 11
2058.4305424027016
 21
622.34077563721735
  0
ARC
  8
_0-2_____-2
  6
CONTINUOUS
 62
    1
 10
2052.2544167971751
 20
621.24199034057244
 40
6.2731058195573475
 50
10.087858680855831
 51
12.12864509782198
  0
LINE
  8
_0-2_____-2
  6
CONTINUOUS
 62
    1
 10
2058.3874963277731
 20
622.56001617291486
 11
2058.3873640055062
 21
622.56063189907775
  0
ARC
  8
_0-2_____-2
  6
CONTINUOUS
 62
    1
 10
2052.262932911678
 20
621.24446465392953
 40
6.264259927577152
 50
12.128645097814761
 51
14.16079580081448
  0
LINE
  8
_0-2_____-2
  6
CONTINUOUS
 62
    1
 10
2058.3368406014747
 20
622.77697821539493
 11
2058.336699451957
 21
622.77753764218437
  0
ARC
  8
_0-2_____-2
  6
CONTINUOUS
 62
    1
 10
2052.2667425162108
 20
621.24602089931773
 40
6.2601853595158605
 50
14.160795800826506
 51
16.183711073383723
  0
LINE
  8
_0-2_____-2
  6
CONTINUOUS
 62
    1
 10
2058.2788552773363
 20
622.99084779130578
 11
2058.2787080541038
 21
622.99135507525432
  0
ARC
  8
_0-2_____-2
  6
CONTINUOUS
 62
    1
 10
2052.2666714125226
 20
621.24655027457572
 40
6.2601060991155455
 50
16.183711073362282
 51
18.196985939054343
  0
LINE
  8
_0-2_____-2
  6
CONTINUOUS
 62
    1
 10
2058.2137000945067
 20
623.20148716047333
 11
2058.2135491366525
 21
623.20194638281259
  0
ARC
  8
_0-2_____-2
  6
CONTINUOUS
 62
    1
 10
2052.2635257357624
 20
621.24602505800021
 40
6.2632584730310352
 50
18.196985939069531
 51
20.200406254909272
  0
LINE
  8
_0-2_____-2
  6
CONTINUOUS
 62
    1
 10
2058.1415347777579
 20
623.40875860659389
 11
2058.1413820395596
 21
623.4091737277779
  0
ARC
  8
_0-2_____-2
  6
CONTINUOUS
 62
    1
 10
2052.2580837590713
 20
621.24449407575821
 40
6.2688943724599504
 50
20.200406254910128
 51
22.193942771129958
  0
LINE
  8
_0-2_____-2
  6
CONTINUOUS
 62
    1
 10
2058.0625190350734
 20
623.61252443446699
 11
2058.0623661201907
 21
623.61289925421283
  0
ARC
  8
_0-2_____-2
  6
CONTINUOUS
 62
    1
 10
2052.2510877920204
 20
621.24207714152374
 40
6.276284991735257
 50
22.193942771135706
 51
24.177743497144494
  0
LINE
  8
_0-2_____-2
  6
CONTINUOUS
 62
    1
 10
2057.9768125557057
 20
623.81264696706876
 11
2057.9766607549764
 21
623.81298509023009
  0
ARC
  8
_0-2_____-2
  6
CONTINUOUS
 62
    1
 10
2052.2432360054931
 20
621.23895834840437
 40
6.2847253739222211
 50
24.177743497152303
 51
26.152124598113712
  0
LINE
  8
_0-2_____-2
  6
CONTINUOUS
 62
    1
 10
2057.8845750087003
 20
624.00898854255627
 11
2057.8844253406401
 21
624.00929335088153
  0
ARC
  8
_0-2_____-2
  6
CONTINUOUS
 62
    1
 10
2052.2351747939238
 20
621.23537840270512
 40
6.2935392172683127
 50
26.152124598102866
 51
28.117560181170482
  0
LINE
  8
_0-2_____-2
  6
CONTINUOUS
 62
    1
 10
2057.7859660418621
 20
624.20141151127029
 11
2057.7858192950071
 21
624.20168614109673
  0
ARC
  8
_0-2_____-2
  6
CONTINUOUS
 62
    1
 10
2052.2274914404534
 20
621.23162589050025
 40
6.3020842925877218
 50
28.11756018116305
 51
30.07467116163502
  0
LINE
  8
_0-2_____-2
  6
CONTINUOUS
 62
    1
 10
2057.6811452811253
 20
624.38977823277366
 11
2057.6810020575426
 21
624.39002555834793
  0
ARC
  8
_0-2_____-2
  6
CONTINUOUS
 62
    1
 10
2052.2207076454297
 20
621.22802773250032
 40
6.3097579444553631
 50
30.074671161653569
 51
32.024213500482269
  0
LINE
  8
_0-2_____-2
  6
CONTINUOUS
 62
    1
 10
2057.5702723302184
 20
624.57395107305661
 11
2057.5701330891434
 21
624.57417369595066
  0
ARC
  8
_0-2_____-2
  6
CONTINUOUS
 62
    1
 10
2052.2152736827484
 20
621.22493873404926
 40
6.3160030155377642
 50
32.024213500471397
 51
33.967065906574888
  0
LINE
  8
_0-2_____-2
  6
CONTINUOUS
 62
    1
 10
2057.4535067708684
 20
624.75379240157406
 11
2057.4533718735593
 21
624.75399264324312
  0
ARC
  8
_0-2_____-2
  6
CONTINUOUS
 62
    1
 10
2052.2115641185969
 20
621.22273082091078
 40
6.3203131724502084
 50
33.967065906570433
 51
35.904217387452562
  0
LINE
  8
_0-2_____-2
  6
CONTINUOUS
 62
    1
 10
2057.3310081622376
 20
624.92916458962679
 11
2057.3308779102476
 21
624.92934449781251
  0
ARC
  8
_0-2_____-2
  6
CONTINUOUS
 62
    1
 10
2052.2098734354422
 20
621.22178099025791
 40
6.3222396343010967
 50
35.904217387461138
 51
37.836754090045446
  0
LINE
  8
_0-2_____-2
  6
CONTINUOUS
 62
    1
 10
2057.2029360448269
 20
625.09993000393581
 11
2057.2028107430642
 21
625.10009132820255
  0
ARC
  8
_0-2_____-2
  6
CONTINUOUS
 62
    1
 10
2052.2104157590297
 20
621.22246086412304
 40
6.3213942839035875
 50
37.836754090021458
 51
39.765847318113664
  0
LINE
  8
_0-2_____-2
  6
CONTINUOUS
 62
    1
 10
2057.0694499270344
 20
625.26595102074918
 11
2057.0693298339625
 21
625.26609533576379
  0
ARC
  8
_0-2_____-2
  6
CONTINUOUS
 62
    1
 10
2052.2133253391253
 20
621.22512634964312
 40
6.3174528095323605
 50
39.765847318114105
 51
41.692739316386437
  0
LINE
  8
_0-2_____-2
  6
CONTINUOUS
 62
    1
 10
2056.9307093441248
 20
625.42708995610622
 11
2056.9305950985158
 21
625.42721821528676
  0
ARC
  8
_0-2_____-2
  6
CONTINUOUS
 62
    1
 10
2052.2186197812694
 20
621.23007234446936
 40
6.3102095726891827
 50
41.692739316419804
 51
43.618724418608053
  0
LINE
  8
_0-2_____-2
  6
CONTINUOUS
 62
    1
 10
2056.78687362039
 20
625.58320934123594
 11
2056.7822039184075
 21
625.58810980359806
  0
ARC
  8
_0-2_____-2
  6
CONTINUOUS
 62
    1
 10
2052.5066117521219
 20
621.51385318441828
 40
5.9059508439653392
 50
43.618724418587419
 51
45.545215385340448
  0
LINE
  8
_0-2_____-2
  6
CONTINUOUS
 62
    1
 10
2056.642821860672
 20
625.7295407095155
 11
2056.6380472486635
 21
625.73422530682888
  0
ARC
  8
_0-2_____-2
  6
CONTINUOUS
 62
    1
 10
2052.2333079833088
 20
621.24484882813681
 40
6.2893743061764384
 50
45.545215385328923
 51
47.232436663619723
  0
LINE
  8
_0-2_____-2
  6
CONTINUOUS
 62
    1
 10
2056.5039554749201
 20
625.86196905243082
 11
2056.4942395039161
 21
625.87093693263807
  0
ARC
  8
_0-2_____-2
  6
CONTINUOUS
 62
    1
 10
2052.748876763083
 20
620.4242435451041
 40
5.8405141478700848
 50
4.0764518742517755
 51
6.2136735402430379
  0
LINE
  8
_0-2_____-2
  6
CONTINUOUS
 62
    1
 10
2058.5550788353307
 20
621.05640096829472
 11
2058.5550669540512
 21
621.05651009476912
  0
ARC
  8
_0-2_____-2
  6
CONTINUOUS
 62
    1
 10
2054.0606238017776
 20
620.56717204444612
 40
4.521003315251372
 50
6.213673540236031
 51
8.9772364330376533
  0
LINE
  8
_0-2_____-2
  6
CONTINUOUS
 62
    1
 10
2058.5262466977892
 20
621.27263864686415
 11
2058.5237818092714
 21
621.288241458627
  0
ARC
  8
_0-2_____-2
  6
CONTINUOUS
 62
    1
 10
2053.2707653659709
 20
620.45838462812526
 40
5.3181617230689939
 50
8.9772364330340721
 51
11.666886914618011
  0
LINE
  8
_0-2_____-2
  6
CONTINUOUS
 62
    1
 10
2058.4790530404603
 20
621.53383040196968
 11
2058.478993391313
 21
621.53411927745321
  0
ARC
  8
_0-2_____-2
  6
CONTINUOUS
 62
    1
 10
2053.1187821624171
 20
620.42730320404996
 40
5.4732902571237414
 50
11.666886914625024
 51
14.286504320150485
  0
LINE
  8
_0-2_____-2
  6
CONTINUOUS
 62
    1
 10
2058.422804808356
 20
621.7779512004181
 11
2058.422723374973
 21
621.77827099099932
  0
ARC
  8
_0-2_____-2
  6
CONTINUOUS
 62
    1
 10
2052.9682757104911
 20
620.38931786973637
 40
5.6285157988263439
 50
14.286504320147797
 51
16.840616064791622
  0
LINE
  8
_0-2_____-2
  6
CONTINUOUS
 62
    1
 10
2058.3554090463281
 20
622.01995716754323
 11
2058.3553084243313
 21
622.02028959183485
  0
ARC
  8
_0-2_____-2
  6
CONTINUOUS
 62
    1
 10
2052.8223584637822
 20
620.34551284583517
 40
5.7808660609706539
 50
16.840616064771297
 51
19.334319090528066
  0
LINE
  8
_0-2_____-2
  6
CONTINUOUS
 62
    1
 10
2058.2771999254846
 20
622.25943997155684
 11
2058.277084623367
 21
622.25976859157743
  0
ARC
  8
_0-2_____-2
  6
CONTINUOUS
 62
    1
 10
2052.6842535987548
 20
620.29742539925087
 40
5.9271029748381441
 50
19.334319090545403
 51
21.773244799592423
  0
LINE
  8
_0-2_____-2
  6
CONTINUOUS
 62
    1
 10
2058.188511961449
 20
622.49599073852278
 11
2058.1883878290887
 21
622.4963015123576
  0
ARC
  8
_0-2_____-2
  6
CONTINUOUS
 62
    1
 10
2052.5569626601032
 20
620.24694194901429
 40
6.0640389081114288
 50
21.77324479959643
 51
24.163432707984267
  0
LINE
  8
_0-2_____-2
  6
CONTINUOUS
 62
    1
 10
2058.0896798863687
 20
622.72920059252283
 11
2058.089553695851
 21
622.72948185912367
  0
ARC
  8
_0-2_____-2
  6
CONTINUOUS
 62
    1
 10
2052.4431801659989
 20
620.19623121106895
 40
6.188609931518112
 50
24.163432707965093
 51
26.511227704717783
  0
LINE
  8
_0-2_____-2
  6
CONTINUOUS
 62
    1
 10
2057.9810386237727
 20
622.95866068277473
 11
2057.9809177004272
 21
622.95890309850972
  0
ARC
  8
_0-2_____-2
  6
CONTINUOUS
 62
    1
 10
2052.3452149918994
 20
620.14766634074306
 40
6.2979518200068867
 50
26.511227704708041
 51
28.82319964253972
  0
LINE
  8
_0-2_____-2
  6
CONTINUOUS
 62
    1
 10
2057.8629232677172
 20
623.18396219426199
 11
2057.8628151604908
 21
623.18415865210636
  0
ARC
  8
_0-2_____-2
  6
CONTINUOUS
 62
    1
 10
2052.2649149452473
 20
620.10373461329834
 40
6.3894834751086629
 50
28.823199642545394
 51
31.106080531775358
  0
LINE
  8
_0-2_____-2
  6
CONTINUOUS
 62
    1
 10
2057.7356690478309
 20
623.40469638644117
 11
2057.7355812694755
 21
623.40484186337574
  0
ARC
  8
_0-2_____-2
  6
CONTINUOUS
 62
    1
 10
2052.2012626624355
 20
620.06546229910259
 40
6.4637557440323903
 50
31.106566489586378
 51
33.367205509173822
  0
ARC
  8
_0-2_____-2
  6
CONTINUOUS
 62
    1
 10
2052.1611721835211
 20
620.03909995720005
 40
6.5117371830201973
 50
33.366914896651373
 51
35.612256981939531
  0
ARC
  8
_0-2_____-2
  6
CONTINUOUS
 62
    1
 10
2052.1407950018361
 20
620.02454520199251
 40
6.5367785359054142
 50
35.611968609231312
 51
37.848916430384328
  0
ARC
  8
_0-2_____-2
  6
CONTINUOUS
 62
    1
 10
2052.1402988558743
 20
620.02420495060346
 40
6.537379080393019
 50
37.848603081323908
 51
40.084349686343025
  0
LINE
  8
_0-2_____-2
  6
CONTINUOUS
 62
    1
 10
2057.1420300336904
 20
624.23371922966476
 11
2057.1419260863477
 21
624.23384273778493
  0
ARC
  8
_0-2_____-2
  6
CONTINUOUS
 62
    1
 10
2052.1613146536556
 20
620.04204286585275
 40
6.5098138536978905
 50
40.084755154423512
 51
42.326311515667037
  0
LINE
  8
_0-2_____-2
  6
CONTINUOUS
 62
    1
 10
2056.9741629551309
 20
624.42543968074222
 11
2056.9740096242158
 21
624.42560803384038
  0
ARC
  8
_0-2_____-2
  6
CONTINUOUS
 62
    1
 10
2052.19720677133
 20
620.07504032443296
 40
6.4610591151507846
 50
42.326311515642132
 51
44.580741068104551
  0
LINE
  8
_0-2_____-2
  6
CONTINUOUS
 62
    1
 10
2056.7991737990915
 20
624.61014609661424
 11
2056.7767514255761
 21
624.6328990441275
  0
ARC
  8
_0-2_____-2
  6
CONTINUOUS
 62
    1
 10
2053.3635465732336
 20
621.26928410857363
 40
4.7920635219845833
 50
44.580741068120638
 51
46.856558770106155
  0
LINE
  8
_0-2_____-2
  6
CONTINUOUS
 62
    1
 10
2056.6404898616506
 20
624.7657845709266
 11
2056.6403082712072
 21
624.76595475868726
  0
ARC
  8
_0-2_____-2
  6
CONTINUOUS
 62
    1
 10
2050.1492720845226
 20
617.84001523812196
 40
9.4922172867765759
 50
46.856558770111903
 51
48.002593993696017
  0
ARC
  8
_0-2_____-2
  6
CONTINUOUS
 62
    1
 10
2053.359638652496
 20
621.40581316489943
 40
4.6941584756143495
 50
48.002593993696976
 51
50.319792121904733
  0
LINE
  8
_0-2_____-2
  6
CONTINUOUS
 62
    1
 10
2056.3568682265645
 20
625.01853217895405
 11
2056.3263736256413
 21
625.04383149489297
  0
ARC
  8
_0-2_____-2
  6
CONTINUOUS
 62
    1
 10
2052.6614286914578
 20
620.62627991201271
 40
5.739911441651941
 50
50.319792121890131
 51
52.675674201446817
  0
LINE
  8
_0-2_____-2
  6
CONTINUOUS
 62
    1
 10
2056.1416866727986
 20
625.1907500610356
 11
2056.1352680964933
 21
625.19564401382456
  0
ARC
  8
_0-2_____-2
  6
CONTINUOUS
 62
    1
 10
2052.4962217068601
 20
620.42291776610125
 40
6.0017976025192894
 50
52.675674201455507
 51
54.774733079588074
  0
LINE
  8
_0-2_____-2
  6
CONTINUOUS
 62
    1
 10
2055.9580142324075
 20
625.3257299154368
 11
2055.9451919771345
 21
625.33475770726443
  0
ARC
  8
_0-2_____-2
  6
CONTINUOUS
 62
    1
 10
2086.875784363478
 20
615.62066880534576
 40
6.9471967559755221
 50
106.5266426848407
 51
108.64499540253681
  0
LINE
  8
_0-2_____-2
  6
CONTINUOUS
 62
    1
 10
2084.6547411732545
 20
622.20326023375742
 11
2084.6345180106382
 21
622.19643670261416
  0
ARC
  8
_0-2_____-2
  6
CONTINUOUS
 62
    1
 10
2086.0431366422968
 20
618.02165929554235
 40
4.4060155297109329
 50
108.64499540250596
 51
111.96282176651441
  0
LINE
  8
_0-2_____-2
  6
CONTINUOUS
 62
    1
 10
2084.3952653278125
 20
622.1079158928394
 11
2084.3555181981551
 21
622.09188700350364
  0
ARC
  8
_0-2_____-2
  6
CONTINUOUS
 62
    1
 10
2086.570113706759
 20
616.60031407069255
 40
5.9213010853284809
 50
111.9628217665129
 51
113.60278525729704
  0
ARC
  8
_0-2_____-2
  6
CONTINUOUS
 62
    1
 10
2086.5841030129086
 20
616.56829805647703
 40
5.9562399727291728
 50
113.60278525734036
 51
115.23313013885726
  0
LINE
  8
_0-2_____-2
  6
CONTINUOUS
 62
    1
 10
2084.0449435073256
 20
621.95619779737274
 11
2084.0067276174123
 21
621.93818776659941
  0
ARC
  8
_0-2_____-2
  6
CONTINUOUS
 62
    1
 10
2085.9283070066172
 20
617.86074518354997
 40
4.5075498185911682
 50
115.23313013883123
 51
118.44895968727722
  0
LINE
  8
_0-2_____-2
  6
CONTINUOUS
 62
    1
 10
2083.7810197981635
 20
621.82397152221574
 11
2083.7807054044192
 21
621.82380118279798
  0
ARC
  8
_0-2_____-2
  6
CONTINUOUS
 62
    1
 10
2088.1097582360062
 20
613.83371204331002
 40
9.0874761554372601
 50
118.44895968727292
 51
120.03987605499833
  0
ARC
  8
_0-2_____-2
  6
CONTINUOUS
 62
    1
 10
2085.8625381739735
 20
617.71976292065949
 40
4.5984462570567857
 50
120.03987605498536
 51
123.18326754119394
  0
LINE
  8
_0-2_____-2
  6
CONTINUOUS
 62
    1
 10
2083.3457219283873
 20
621.56831381222833
 11
2083.310496631821
 21
621.5452777134077
  0
ARC
  8
_0-2_____-2
  6
CONTINUOUS
 62
    1
 10
2086.7048539714797
 20
616.35484834108149
 40
6.2017915813417961
 50
123.18326754121554
 51
126.28016286206157
  0
LINE
  8
_0-2_____-2
  6
CONTINUOUS
 62
    1
 10
2083.0350423365694
 20
621.35431845127084
 11
2083.0348519954055
 21
621.35417873322024
  0
ARC
  8
_0-2_____-2
  6
CONTINUOUS
 62
    1
 10
2086.7495860486638
 20
616.29350976320961
 40
6.2777081415487075
 50
126.2801628620516
 51
129.33531828095443
  0
LINE
  8
_0-2_____-2
  6
CONTINUOUS
 62
    1
 10
2082.7704120088633
 20
621.1490008270921
 11
2082.7702687305118
 21
621.14888340755829
  0
ARC
  8
_0-2_____-2
  6
CONTINUOUS
 62
    1
 10
2086.7930894867513
 20
616.24013349158213
 40
6.3465669912506648
 50
129.33531828095087
 51
132.35399897351735
  0
ARC
  8
_0-2_____-2
  6
CONTINUOUS
 62
    1
 10
2086.8346299303871
 20
616.19445505399676
 40
6.4083093789229881
 50
132.35332173908915
 51
135.34157886443072
  0
ARC
  8
_0-2_____-2
  6
CONTINUOUS
 62
    1
 10
2086.8672637510017
 20
616.16222312770685
 40
6.4541772675364264
 50
135.34167415825468
 51
138.30620065380469
  0
ARC
  8
_0-2_____-2
  6
CONTINUOUS
 62
    1
 10
2086.8907619875422
 20
616.14129803568403
 40
6.4856419552535893
 50
138.30624360936716
 51
141.25416624576658
  0
ARC
  8
_0-2_____-2
  6
CONTINUOUS
 62
    1
 10
2086.9028075127421
 20
616.13163717705424
 40
6.5010830319660853
 50
141.25420238391123
 51
144.19305616249031
  0
LINE
  8
_0-2_____-2
  6
CONTINUOUS
 62
    1
 10
2081.6304751991534
 20
619.93513458912207
 11
2081.6060453319319
 21
619.90126977146883
  0
ARC
  8
_0-2_____-2
  6
CONTINUOUS
 62
    1
 10
2085.5579054517993
 20
617.05042264760846
 40
4.8728356970681368
 50
144.19355594119872
 51
147.13132929495814
  0
ARC
  8
_0-2_____-2
  6
CONTINUOUS
 62
    1
 10
2089.6407579713373
 20
614.41222574981362
 40
9.7338816305124443
 50
147.13109757186274
 51
148.60154157727354
  0
ARC
  8
_0-2_____-2
  6
CONTINUOUS
 62
    1
 10
2085.4699573717644
 20
616.95793128884566
 40
4.8475543458574242
 50
148.60146093465463
 51
151.5520654248003
  0
ARC
  8
_0-2_____-2
  6
CONTINUOUS
 62
    1
 10
2089.6977679533738
 20
614.6674070639632
 40
9.6559723329528815
 50
151.55215738659476
 51
153.032931063761
  0
ARC
  8
_0-2_____-2
  6
CONTINUOUS
 62
    1
 10
2085.3643069958098
 20
616.87227298340486
 40
4.7938413604897123
 50
153.03286353241137
 51
156.01353841359142
  0
LINE
  8
_0-2_____-2
  6
CONTINUOUS
 62
    1
 10
2080.9844543931922
 20
618.82106906532022
 11
2080.9675404347399
 21
618.78305500901229
  0
ARC
  8
_0-2_____-2
  6
CONTINUOUS
 62
    1
 10
2086.7611705528243
 20
616.20523962641641
 40
6.3412366374329636
 50
156.01382539619544
 51
157.5152652921355
  0
ARC
  8
_0-2_____-2
  6
CONTINUOUS
 62
    1
 10
2086.7403789158843
 20
616.21384531519584
 40
6.3187344142979365
 50
157.51526529210167
 51
159.02205148778759
  0
LINE
  8
_0-2_____-2
  6
CONTINUOUS
 62
    1
 10
2080.8404610690636
 20
618.47600667089137
 11
2080.8255943907898
 21
618.43723305279821
  0
ARC
  8
_0-2_____-2
  6
CONTINUOUS
 62
    1
 10
2085.2029882548022
 20
616.75884167601464
 40
4.6881312539600657
 50
159.02205148777347
 51
162.0673377669857
  0
LINE
  8
_0-2_____-2
  6
CONTINUOUS
 62
    1
 10
2080.7426109342846
 20
618.20231277477842
 11
2080.7330267098105
 21
618.17269717837678
  0
ARC
  8
_0-2_____-2
  6
CONTINUOUS
 62
    1
 10
2087.0990853734379
 20
616.11250786396431
 40
6.6911197059955905
 50
162.06733776698803
 51
164.37859022992984
  0
ARC
  8
_0-2_____-2
  6
CONTINUOUS
 62
    1
 10
2086.1105204117794
 20
616.38891839685493
 40
5.6646385974932878
 50
164.37859022993413
 51
167.10851516758794
  0
LINE
  8
_0-2_____-2
  6
CONTINUOUS
 62
    1
 10
2080.5886626422075
 20
617.65272898900457
 11
2080.5863462689354
 21
617.64260826060752
  0
LINE
  8
_0-2_____-2
  6
CONTINUOUS
 62
    1
 10
2080.5863462689354
 20
617.64260826060752
 11
2080.5817479012758
 21
617.62235572948362
  0
LINE
  8
_0-2_____-2
  6
CONTINUOUS
 62
    1
 10
2085.4671234037032
 20
621.40323990575394
 11
2085.4289496422693
 21
621.39646142881611
  0
ARC
  8
_0-2_____-2
  6
CONTINUOUS
 62
    1
 10
2086.4221065366391
 20
615.80338577190537
 40
5.6805682744567143
 50
100.06900239091898
 51
102.37808914646754
  0
LINE
  8
_0-2_____-2
  6
CONTINUOUS
 62
    1
 10
2085.2044096062959
 20
621.35190540389681
 11
2085.1912827064198
 21
621.34902452994413
  0
ARC
  8
_0-2_____-2
  6
CONTINUOUS
 62
    1
 10
2086.5476220024689
 20
615.16877144377304
 40
6.3273362875015406
 50
102.37808914645767
 51
104.20787738616551
  0
LINE
  8
_0-2_____-2
  6
CONTINUOUS
 62
    1
 10
2084.9946363508338
 20
621.30256472859674
 11
2084.9940713759443
 21
621.3024216853189
  0
ARC
  8
_0-2_____-2
  6
CONTINUOUS
 62
    1
 10
2086.5408441135064
 20
615.19316741063744
 40
6.3020229842788318
 50
104.20787738621451
 51
106.03441951840014
  0
LINE
  8
_0-2_____-2
  6
CONTINUOUS
 62
    1
 10
2084.8001322934706
 20
621.25001610067147
 11
2084.7996174193354
 21
621.24986812809721
  0
ARC
  8
_0-2_____-2
  6
CONTINUOUS
 62
    1
 10
2086.5347056764649
 20
615.2125867605746
 40
6.2816635989731875
 50
106.03441951834671
 51
107.85711045221507
  0
LINE
  8
_0-2_____-2
  6
CONTINUOUS
 62
    1
 10
2084.6084699511089
 20
621.19162627382639
 11
2084.6080026485006
 21
621.19147572540192
  0
ARC
  8
_0-2_____-2
  6
CONTINUOUS
 62
    1
 10
2086.5296046902495
 20
615.2268191752637
 40
6.2665526542079224
 50
107.85711045222493
 51
109.67522037965249
  0
LINE
  8
_0-2_____-2
  6
CONTINUOUS
 62
    1
 10
2084.4197312710935
 20
621.12750695916657
 11
2084.419308972238
 21
621.1273559603062
  0
ARC
  8
_0-2_____-2
  6
CONTINUOUS
 62
    1
 10
2086.5257024356442
 20
615.23640057654836
 40
6.2562168085918488
 50
109.67522037964061
 51
111.48812094462517
  0
LINE
  8
_0-2_____-2
  6
CONTINUOUS
 62
    1
 10
2084.2339981878886
 20
621.05776986537774
 11
2084.233618310886
 21
621.05762031881954
  0
ARC
  8
_0-2_____-2
  6
CONTINUOUS
 62
    1
 10
2086.5231147675036
 20
615.24185924385006
 40
6.2501896696017258
 50
111.48812094462039
 51
113.2952863372233
  0
LINE
  8
_0-2_____-2
  6
CONTINUOUS
 62
    1
 10
2084.051352623761
 20
620.98252669727015
 11
2084.0510125956234
 21
620.98238029117977
  0
ARC
  8
_0-2_____-2
  6
CONTINUOUS
 62
    1
 10
2086.5219137499666
 20
615.24371248560021
 40
6.2480125397864947
 50
113.29528633723952
 51
115.09629322749491
  0
LINE
  8
_0-2_____-2
  6
CONTINUOUS
 62
    1
 10
2083.8718764896539
 20
620.90188915448255
 11
2083.8715737675534
 21
620.90174737297002
  0
ARC
  8
_0-2_____-2
  6
CONTINUOUS
 62
    1
 10
2086.5221296699251
 20
615.24246333534813
 40
6.2492353460306918
 50
115.09629322746196
 51
116.89081963150088
  0
LINE
  8
_0-2_____-2
  6
CONTINUOUS
 62
    1
 10
2083.6956516861792
 20
620.81596893034646
 11
2083.6953837767469
 21
620.8158330661048
  0
ARC
  8
_0-2_____-2
  6
CONTINUOUS
 62
    1
 10
2086.5237534658372
 20
615.23859723497344
 40
6.2534178346101505
 50
116.89081963152353
 51
118.67864279056221
  0
LINE
  8
_0-2_____-2
  6
CONTINUOUS
 62
    1
 10
2083.5227601047209
 20
620.7248777109204
 11
2083.5225245812017
 21
620.72474887964358
  0
ARC
  8
_0-2_____-2
  6
CONTINUOUS
 62
    1
 10
2086.5267395630694
 20
615.23257878220534
 40
6.2601309919580572
 50
118.67864279061432
 51
120.45963616004683
  0
LINE
  8
_0-2_____-2
  6
CONTINUOUS
 62
    1
 10
2083.3532836285963
 20
620.62872717420032
 11
2083.3530781457193
 21
620.62860633044147
  0
ARC
  8
_0-2_____-2
  6
CONTINUOUS
 62
    1
 10
2086.5310090689891
 20
615.2248486619676
 40
6.2689585971404584
 50
120.45963616004161
 51
122.23376563193429
  0
LINE
  8
_0-2_____-2
  6
CONTINUOUS
 62
    1
 10
2083.1873041342515
 20
620.52762898950095
 11
2083.1871264407923
 21
620.52751694365713
  0
ARC
  8
_0-2_____-2
  6
CONTINUOUS
 62
    1
 10
2086.5364533813004
 20
615.21582067939619
 40
6.2794990371987582
 50
122.23376563189171
 51
124.00108507171404
  0
LINE
  8
_0-2_____-2
  6
CONTINUOUS
 62
    1
 10
2083.0249034924882
 20
620.42169481699898
 11
2083.0247514414673
 21
620.4215922531007
  0
ARC
  8
_0-2_____-2
  6
CONTINUOUS
 62
    1
 10
2086.5429381087179
 20
615.20587908876075
 40
6.2913671994476523
 50
124.00108507168621
 51
125.7617312924372
  0
LINE
  8
_0-2_____-2
  6
CONTINUOUS
 62
    1
 10
2082.8661635696762
 20
620.31103630743121
 11
2082.866035126221
 21
620.31094380144066
  0
ARC
  8
_0-2_____-2
  6
CONTINUOUS
 62
    1
 10
2086.5503073258401
 20
615.19537617125525
 40
6.3041965245291278
 50
125.76173129246718
 51
127.51591855115714
  0
ARC
  8
_0-2_____-2
  6
CONTINUOUS
 62
    1
 10
2086.5613313204549
 20
615.18101768344332
 40
6.3222988622100909
 50
127.51591855115277
 51
129.26508391015807
  0
LINE
  8
_0-2_____-2
  6
CONTINUOUS
 62
    1
 10
2082.5598903555092
 20
620.07590615072797
 11
2082.5225958032242
 21
620.04541884743571
  0
ARC
  8
_0-2_____-2
  6
CONTINUOUS
 62
    1
 10
2085.53171447872
 20
616.36441981973098
 40
4.7544241549513009
 50
129.26508391014548
 51
132.74312520496301
  0
LINE
  8
_0-2_____-2
  6
CONTINUOUS
 62
    1
 10
2082.3048267521085
 20
619.85608770843794
 11
2082.3046806132793
 21
619.8559526516085
  0
ARC
  8
_0-2_____-2
  6
CONTINUOUS
 62
    1
 10
2088.7747293241946
 20
612.85500832499554
 40
9.532824963564007
 50
132.74312520500541
 51
134.47578072898264
  0
ARC
  8
_0-2_____-2
  6
CONTINUOUS
 62
    1
 10
2085.4484558019285
 20
616.24265645663615
 40
4.7851670772260189
 50
134.47531390583148
 51
137.92533078270898
  0
ARC
  8
_0-2_____-2
  6
CONTINUOUS
 62
    1
 10
2089.0164493578286
 20
613.02167484443703
 40
9.5919644059200966
 50
137.9257023460197
 51
139.64655753298663
  0
ARC
  8
_0-2_____-2
  6
CONTINUOUS
 62
    1
 10
2085.3706542099958
 20
616.11939655726871
 40
4.8078550771152928
 50
139.64666290129068
 51
143.07875093757238
  0
ARC
  8
_0-2_____-2
  6
CONTINUOUS
 62
    1
 10
2089.2264921665396
 20
613.22218909401101
 40
9.630851804308671
 50
143.07910443749103
 51
144.79357523172072
  0
ARC
  8
_0-2_____-2
  6
CONTINUOUS
 62
    1
 10
2085.2978150253944
 20
615.99423566546875
 40
4.8226560643709142
 50
144.79367135384459
 51
148.21908574998398
  0
ARC
  8
_0-2_____-2
  6
CONTINUOUS
 62
    1
 10
2089.3959370364623
 20
613.45509049221027
 40
9.6436375231054399
 50
148.21862412290511
 51
149.93247262859455
  0
LINE
  8
_0-2_____-2
  6
CONTINUOUS
 62
    1
 10
2081.0499906305049
 20
618.28674893067
 11
2081.0498529099923
 21
618.28651103967809
  0
ARC
  8
_0-2_____-2
  6
CONTINUOUS
 62
    1
 10
2085.226964144912
 20
615.86828621952338
 40
4.8266002061182371
 50
149.93247262861243
 51
153.36253068315014
  0
LINE
  8
_0-2_____-2
  6
CONTINUOUS
 62
    1
 10
2080.9126533585372
 20
618.03226218710552
 11
2080.9125837885522
 21
618.03212348568695
  0
ARC
  8
_0-2_____-2
  6
CONTINUOUS
 62
    1
 10
2089.5334847852946
 20
613.70804404412911
 40
9.6445630804372176
 50
153.36253068315392
 51
155.08132323375486
  0
LINE
  8
_0-2_____-2
  6
CONTINUOUS
 62
    1
 10
2080.7867657102829
 20
617.77160189844426
 11
2080.7865817435086
 21
617.7712059140008
  0
ARC
  8
_0-2_____-2
  6
CONTINUOUS
 62
    1
 10
2085.1626871366916
 20
615.738151314981
 40
4.8253092558760606
 50
155.08132323374755
 51
158.52633991416712
  0
LINE
  8
_0-2_____-2
  6
CONTINUOUS
 62
    1
 10
2080.6723221052202
 20
617.50456896066407
 11
2080.6722342326166
 21
617.5043455819706
  0
ARC
  8
_0-2_____-2
  6
CONTINUOUS
 62
    1
 10
2089.6390826810648
 20
613.97697103346582
 40
9.6357014432202188
 50
158.52633991416175
 51
160.25475838226177
  0
LINE
  8
_0-2_____-2
  6
CONTINUOUS
 62
    1
 10
2080.569921209476
 20
617.23228246328677
 11
2080.5697130461199
 21
617.23170252888349
  0
ARC
  8
_0-2_____-2
  6
CONTINUOUS
 62
    1
 10
2085.1068745464663
 20
615.60312046677291
 40
4.8205927035227329
 50
160.25475838227072
 51
163.72347818593684
  0
LINE
  8
_0-2_____-2
  6
CONTINUOUS
 62
    1
 10
2080.4794901348382
 20
616.95420429847172
 11
2080.4657858581286
 21
616.90726793898716
  0
ARC
  8
_0-2_____-2
  6
CONTINUOUS
 62
    1
 10
2086.6424538528854
 20
615.10383093891301
 40
6.4345638959207712
 50
163.72347818592084
 51
166.77358656708353
  0
LINE
  8
_0-2_____-2
  6
CONTINUOUS
 62
    1
 10
2080.3785762272369
 20
616.57605701584134
 11
2080.3730083041069
 21
616.5521626514477
  0
LINE
  8
_0-2_____-2
  6
CONTINUOUS
 62
    1
 10
2085.4671234037032
 20
621.40323990575394
 11
2085.8392389771916
 21
621.42387677732904
  0
LINE
  8
_0-2_____-2
  6
CONTINUOUS
 62
    1
 10
2061.9208355498272
 20
610.25706389549828
 11
2077.535639993017
 21
610.25706389549828
  0
LINE
  8
_0-2_____-2
  6
CONTINUOUS
 62
    1
 10
2058.5143105170778
 20
621.65382031893625
 11
2059.9422096449684
 21
611.9654485176095
  0
LINE
  8
_0-2_____-2
  6
CONTINUOUS
 62
    1
 10
2080.5817479012758
 20
617.62235572948362
 11
2079.5010568719836
 21
611.88674444978585
  0
ARC
  8
_0-2_____-2
  6
CONTINUOUS
 62
    1
 10
2062.0624920715577
 20
560.78319296238749
 40
66.652492536096901
 50
68.024291552638488
 51
96.32149887032773
  0
ARC
  8
_0-2_____-2
  6
CONTINUOUS
 62
    1
 10
2077.535639993017
 20
612.25706389549816
 40
2
 50
270
 51
349.32955527211078
  0
ARC
  8
_0-2_____-2
  6
CONTINUOUS
 62
    1
 10
2061.9208355498272
 20
612.25706389549816
 40
1.999999999999809
 50
188.38405345671711
 51
270
  0
LINE
  8
_0-2_____-2
  6
CONTINUOUS
 62
    1
 10
2386.0109293998776
 20
621.65013407049332
 11
2386.0119386320762
 21
621.66487906426528
  0
ARC
  8
_0-2_____-2
  6
CONTINUOUS
 62
    1
 10
2392.3118255969875
 20
621.23367855851836
 40
6.3146266435014331
 50
174.01627722908418
 51
176.08445416382725
  0
LINE
  8
_0-2_____-2
  6
CONTINUOUS
 62
    1
 10
2386.0316038756177
 20
621.89195264828027
 11
2386.0316887703207
 21
621.89276258074688
  0
ARC
  8
_0-2_____-2
  6
CONTINUOUS
 62
    1
 10
2392.3054732393116
 20
621.23516322455544
 40
6.3081541259401437
 50
171.96076742810325
 51
174.01627722904891
  0
LINE
  8
_0-2_____-2
  6
CONTINUOUS
 62
    1
 10
2386.0593122485625
 20
622.11736578307591
 11
2386.0594168839484
 21
622.11810662139987
  0
ARC
  8
_0-2_____-2
  6
CONTINUOUS
 62
    1
 10
2392.2851354345148
 20
621.23879133605033
 40
6.2875087945795629
 50
169.91214131916138
 51
171.96076742812977
  0
LINE
  8
_0-2_____-2
  6
CONTINUOUS
 62
    1
 10
2386.094829519363
 20
622.34009943043316
 11
2386.0949498223035
 21
622.34077563721735
  0
ARC
  8
_0-2_____-2
  6
CONTINUOUS
 62
    1
 10
2392.2710754278301
 20
621.24199034057244
 40
6.2731058195573475
 50
167.87135490217804
 51
169.91214131914418
  0
LINE
  8
_0-2_____-2
  6
CONTINUOUS
 62
    1
 10
2386.137995897232
 20
622.56001617291486
 11
2386.1381282194993
 21
622.56063189907775
  0
ARC
  8
_0-2_____-2
  6
CONTINUOUS
 62
    1
 10
2392.2625593133262
 20
621.24446465392782
 40
6.2642599275764788
 50
165.83920419916751
 51
167.87135490216758
  0
LINE
  8
_0-2_____-2
  6
CONTINUOUS
 62
    1
 10
2386.1886516235304
 20
622.77697821539493
 11
2386.1887927730481
 21
622.77753764218437
  0
ARC
  8
_0-2_____-2
  6
CONTINUOUS
 62
    1
 10
2392.2587497087948
 20
621.24602089931568
 40
6.2601853595163872
 50
163.8162889265985
 51
165.83920419915572
  0
LINE
  8
_0-2_____-2
  6
CONTINUOUS
 62
    1
 10
2386.2466369476688
 20
622.99084779130578
 11
2386.2467841709013
 21
622.99135507525432
  0
ARC
  8
_0-2_____-2
  6
CONTINUOUS
 62
    1
 10
2392.258820812483
 20
621.24655027457561
 40
6.2601060991161148
 50
161.80301406094577
 51
163.81628892663764
  0
LINE
  8
_0-2_____-2
  6
CONTINUOUS
 62
    1
 10
2386.3117921304984
 20
623.20148716047333
 11
2386.311943088353
 21
623.20194638281259
  0
ARC
  8
_0-2_____-2
  6
CONTINUOUS
 62
    1
 10
2392.2619664892427
 20
621.24602505800021
 40
6.2632584730310352
 50
159.79959374509073
 51
161.80301406093048
  0
LINE
  8
_0-2_____-2
  6
CONTINUOUS
 62
    1
 10
2386.3839574472472
 20
623.40875860659389
 11
2386.3841101854455
 21
623.4091737277779
  0
ARC
  8
_0-2_____-2
  6
CONTINUOUS
 62
    1
 10
2392.2674084659338
 20
621.24449407575617
 40
6.2688943724606894
 50
157.80605722885267
 51
159.79959374507249
  0
LINE
  8
_0-2_____-2
  6
CONTINUOUS
 62
    1
 10
2386.4629731899317
 20
623.61252443446699
 11
2386.4631261048139
 21
623.61289925421283
  0
ARC
  8
_0-2_____-2
  6
CONTINUOUS
 62
    1
 10
2392.2744044329834
 20
621.24207714152624
 40
6.2762849917332897
 50
155.82225650287256
 51
157.80605722888171
  0
LINE
  8
_0-2_____-2
  6
CONTINUOUS
 62
    1
 10
2386.5486796692994
 20
623.81264696706876
 11
2386.5488314700287
 21
623.81298509023009
  0
ARC
  8
_0-2_____-2
  6
CONTINUOUS
 62
    1
 10
2392.2822562195124
 20
621.23895834840641
 40
6.2847253739213436
 50
153.84787540190331
 51
155.82225650286472
  0
LINE
  8
_0-2_____-2
  6
CONTINUOUS
 62
    1
 10
2386.6409172163048
 20
624.00898854255627
 11
2386.6410668843646
 21
624.00929335088153
  0
ARC
  8
_0-2_____-2
  6
CONTINUOUS
 62
    1
 10
2392.2903174310813
 20
621.23537840270308
 40
6.2935392172692577
 50
151.88243981881274
 51
153.84787540188034
  0
LINE
  8
_0-2_____-2
  6
CONTINUOUS
 62
    1
 10
2386.739526183143
 20
624.20141151127029
 11
2386.7396729299981
 21
624.20168614109673
  0
ARC
  8
_0-2_____-2
  6
CONTINUOUS
 62
    1
 10
2392.2980007845508
 20
621.23162589049878
 40
6.3020842925874812
 50
149.92532883834826
 51
151.88243981882064
  0
LINE
  8
_0-2_____-2
  6
CONTINUOUS
 62
    1
 10
2386.8443469438798
 20
624.38977823277366
 11
2386.8444901674625
 21
624.39002555834793
  0
ARC
  8
_0-2_____-2
  6
CONTINUOUS
 62
    1
 10
2392.3047845795754
 20
621.22802773249828
 40
6.3097579444564413
 50
147.97578649950148
 51
149.92532883833019
  0
LINE
  8
_0-2_____-2
  6
CONTINUOUS
 62
    1
 10
2386.9552198947868
 20
624.57395107305661
 11
2386.9553591358617
 21
624.57417369595066
  0
ARC
  8
_0-2_____-2
  6
CONTINUOUS
 62
    1
 10
2392.3102185422563
 20
621.2249387340496
 40
6.3160030155370936
 50
146.03293409342501
 51
147.97578649952871
  0
LINE
  8
_0-2_____-2
  6
CONTINUOUS
 62
    1
 10
2387.0719854541367
 20
624.75379240157406
 11
2387.0721203514458
 21
624.75399264324312
  0
ARC
  8
_0-2_____-2
  6
CONTINUOUS
 62
    1
 10
2392.3139281064086
 20
621.22273082091078
 40
6.3203131724502084
 50
144.09578261254742
 51
146.03293409342956
  0
LINE
  8
_0-2_____-2
  6
CONTINUOUS
 62
    1
 10
2387.1944840627675
 20
624.92916458962679
 11
2387.1946143147575
 21
624.92934449781251
  0
ARC
  8
_0-2_____-2
  6
CONTINUOUS
 62
    1
 10
2392.3156187895624
 20
621.22178099025837
 40
6.3222396343004972
 50
142.16324590995447
 51
144.09578261253895
  0
LINE
  8
_0-2_____-2
  6
CONTINUOUS
 62
    1
 10
2387.3225561801783
 20
625.09993000393581
 11
2387.3226814819409
 21
625.10009132820255
  0
ARC
  8
_0-2_____-2
  6
CONTINUOUS
 62
    1
 10
2392.3150764659754
 20
621.22246086412508
 40
6.321394283902265
 50
140.23415268190124
 51
142.16324590999346
  0
LINE
  8
_0-2_____-2
  6
CONTINUOUS
 62
    1
 10
2387.4560422979707
 20
625.26595102074918
 11
2387.4561623910431
 21
625.26609533576379
  0
ARC
  8
_0-2_____-2
  6
CONTINUOUS
 62
    1
 10
2392.3121668858789
 20
621.22512634964426
 40
6.3174528095304812
 50
138.30726068361329
 51
140.2341526818862
  0
LINE
  8
_0-2_____-2
  6
CONTINUOUS
 62
    1
 10
2387.5947828808803
 20
625.42708995610622
 11
2387.5948971264893
 21
625.42721821528676
  0
ARC
  8
_0-2_____-2
  6
CONTINUOUS
 62
    1
 10
2392.3068724437358
 20
621.23007234446936
 40
6.3102095726891827
 50
136.38127558139195
 51
138.30726068358021
  0
LINE
  8
_0-2_____-2
  6
CONTINUOUS
 62
    1
 10
2387.7386186046151
 20
625.58320934123594
 11
2387.7432883065976
 21
625.58810980359806
  0
ARC
  8
_0-2_____-2
  6
CONTINUOUS
 62
    1
 10
2392.0188804728828
 20
621.51385318441703
 40
5.905950843965627
 50
134.45478461464478
 51
136.3812755813982
  0
LINE
  8
_0-2_____-2
  6
CONTINUOUS
 62
    1
 10
2387.8826703643331
 20
625.7295407095155
 11
2387.8874449763416
 21
625.73422530682888
  0
ARC
  8
_0-2_____-2
  6
CONTINUOUS
 62
    1
 10
2392.2921842416954
 20
621.24484882813795
 40
6.2893743061748157
 50
132.76756333638005
 51
134.4547846146713
  0
LINE
  8
_0-2_____-2
  6
CONTINUOUS
 62
    1
 10
2388.021536750085
 20
625.86196905243082
 11
2388.031252721089
 21
625.87093693263807
  0
ARC
  8
_0-2_____-2
  6
CONTINUOUS
 62
    1
 10
2391.7766154619212
 20
620.42424354510422
 40
5.840514147869146
 50
173.78632645975682
 51
175.92354812574843
  0
LINE
  8
_0-2_____-2
  6
CONTINUOUS
 62
    1
 10
2385.9704133896739
 20
621.05640096829472
 11
2385.9704252709539
 21
621.05651009476912
  0
ARC
  8
_0-2_____-2
  6
CONTINUOUS
 62
    1
 10
2390.4648684232275
 20
620.5671720444476
 40
4.5210033152511784
 50
171.02276356698084
 51
173.78632645978246
  0
LINE
  8
_0-2_____-2
  6
CONTINUOUS
 62
    1
 10
2385.9992455272159
 20
621.27263864686415
 11
2386.0017104157337
 21
621.288241458627
  0
ARC
  8
_0-2_____-2
  6
CONTINUOUS
 62
    1
 10
2391.2547268590342
 20
620.45838462812378
 40
5.3181617230692648
 50
168.33311308536594
 51
171.02276356694989
  0
LINE
  8
_0-2_____-2
  6
CONTINUOUS
 62
    1
 10
2386.0464391845449
 20
621.53383040196968
 11
2386.0464988336921
 21
621.53411927745321
  0
ARC
  8
_0-2_____-2
  6
CONTINUOUS
 62
    1
 10
2391.406710062588
 20
620.42730320404996
 40
5.4732902571237414
 50
165.71349567984953
 51
168.33311308537498
  0
LINE
  8
_0-2_____-2
  6
CONTINUOUS
 62
    1
 10
2386.1026874166491
 20
621.7779512004181
 11
2386.1027688500321
 21
621.77827099099932
  0
ARC
  8
_0-2_____-2
  6
CONTINUOUS
 62
    1
 10
2391.557216514514
 20
620.38931786973797
 40
5.6285157988259158
 50
163.15938393522404
 51
165.71349567986786
  0
LINE
  8
_0-2_____-2
  6
CONTINUOUS
 62
    1
 10
2386.170083178677
 20
622.01995716754323
 11
2386.1701838006738
 21
622.02028959183485
  0
ARC
  8
_0-2_____-2
  6
CONTINUOUS
 62
    1
 10
2391.7031337612225
 20
620.3455128458354
 40
5.7808660609699638
 50
160.6656809094718
 51
163.15938393522885
  0
LINE
  8
_0-2_____-2
  6
CONTINUOUS
 62
    1
 10
2386.2482922995205
 20
622.25943997155684
 11
2386.2484076016381
 21
622.25976859157743
  0
ARC
  8
_0-2_____-2
  6
CONTINUOUS
 62
    1
 10
2391.8412386262507
 20
620.29742539924894
 40
5.9271029748394533
 50
158.22675520039263
 51
160.66568090943935
  0
LINE
  8
_0-2_____-2
  6
CONTINUOUS
 62
    1
 10
2386.3369802635561
 20
622.49599073852278
 11
2386.3371043959164
 21
622.4963015123576
  0
ARC
  8
_0-2_____-2
  6
CONTINUOUS
 62
    1
 10
2391.9685295649019
 20
620.24694194901429
 40
6.0640389081114288
 50
155.83656729201576
 51
158.2267552004036
  0
LINE
  8
_0-2_____-2
  6
CONTINUOUS
 62
    1
 10
2386.4358123386364
 20
622.72920059252283
 11
2386.4359385291541
 21
622.72948185912367
  0
ARC
  8
_0-2_____-2
  6
CONTINUOUS
 62
    1
 10
2392.0823120590062
 20
620.19623121107077
 40
6.1886099315173704
 50
153.48877229529674
 51
155.83656729204944
  0
LINE
  8
_0-2_____-2
  6
CONTINUOUS
 62
    1
 10
2386.5444536012324
 20
622.95866068277473
 11
2386.5445745245779
 21
622.95890309850972
  0
ARC
  8
_0-2_____-2
  6
CONTINUOUS
 62
    1
 10
2392.1802772331057
 20
620.14766634074306
 40
6.2979518200068867
 50
151.17680035746028
 51
153.48877229529197
  0
LINE
  8
_0-2_____-2
  6
CONTINUOUS
 62
    1
 10
2386.6625689572879
 20
623.18396219426199
 11
2386.6626770645144
 21
623.18415865210636
  0
ARC
  8
_0-2_____-2
  6
CONTINUOUS
 62
    1
 10
2392.2605772797574
 20
620.10373461329652
 40
6.3894834751095528
 50
148.89391946821081
 51
151.17680035744075
  0
LINE
  8
_0-2_____-2
  6
CONTINUOUS
 62
    1
 10
2386.7898231771737
 20
623.40469638644117
 11
2386.7899109555296
 21
623.40484186337574
  0
ARC
  8
_0-2_____-2
  6
CONTINUOUS
 62
    1
 10
2392.3242295625691
 20
620.06546229910259
 40
6.4637557440323903
 50
146.6327944908262
 51
148.89343351041364
  0
ARC
  8
_0-2_____-2
  6
CONTINUOUS
 62
    1
 10
2392.3643200414831
 20
620.03909995720051
 40
6.5117371830192683
 50
144.38774301806032
 51
146.63308510334878
  0
ARC
  8
_0-2_____-2
  6
CONTINUOUS
 62
    1
 10
2392.384697223169
 20
620.02454520199069
 40
6.5367785359065049
 50
142.15108356960289
 51
144.38803139075591
  0
ARC
  8
_0-2_____-2
  6
CONTINUOUS
 62
    1
 10
2392.3851933691312
 20
620.02420495060517
 40
6.5373790803918741
 50
139.91565031366937
 51
142.1513969186885
  0
LINE
  8
_0-2_____-2
  6
CONTINUOUS
 62
    1
 10
2387.3834621913147
 20
624.23371922966476
 11
2387.383566138657
 21
624.23384273778493
  0
ARC
  8
_0-2_____-2
  6
CONTINUOUS
 62
    1
 10
2392.3641775713495
 20
620.04204286585082
 40
6.5098138536990868
 50
137.67368848432091
 51
139.91524484556444
  0
LINE
  8
_0-2_____-2
  6
CONTINUOUS
 62
    1
 10
2387.5513292698743
 20
624.42543968074222
 11
2387.5514826007893
 21
624.42560803384038
  0
ARC
  8
_0-2_____-2
  6
CONTINUOUS
 62
    1
 10
2392.3282854536747
 20
620.07504032443148
 40
6.4610591151515662
 50
135.41925893188375
 51
137.67368848434634
  0
LINE
  8
_0-2_____-2
  6
CONTINUOUS
 62
    1
 10
2387.7263184259136
 20
624.61014609661424
 11
2387.748740799429
 21
624.6328990441275
  0
ARC
  8
_0-2_____-2
  6
CONTINUOUS
 62
    1
 10
2391.1619456517719
 20
621.26928410857317
 40
4.7920635219852583
 50
133.14344122989402
 51
135.4192589318792
  0
LINE
  8
_0-2_____-2
  6
CONTINUOUS
 62
    1
 10
2387.8850023633545
 20
624.7657845709266
 11
2387.8851839537974
 21
624.76595475868726
  0
ARC
  8
_0-2_____-2
  6
CONTINUOUS
 62
    1
 10
2394.3762201404825
 20
617.8400152381256
 40
9.4922172867739611
 50
131.9974060063185
 51
133.14344122990261
  0
ARC
  8
_0-2_____-2
  6
CONTINUOUS
 62
    1
 10
2391.1658535725087
 20
621.40581316489988
 40
4.6941584756136994
 50
129.6802078780951
 51
131.99740600630318
  0
LINE
  8
_0-2_____-2
  6
CONTINUOUS
 62
    1
 10
2388.1686239984406
 20
625.01853217895405
 11
2388.1991185993634
 21
625.04383149489297
  0
ARC
  8
_0-2_____-2
  6
CONTINUOUS
 62
    1
 10
2391.8640635335469
 20
620.62627991201157
 40
5.7399114416525121
 50
127.32432579854229
 51
129.68020787809928
  0
LINE
  8
_0-2_____-2
  6
CONTINUOUS
 62
    1
 10
2388.3838055522065
 20
625.1907500610356
 11
2388.3902241285118
 21
625.19564401382456
  0
ARC
  8
_0-2_____-2
  6
CONTINUOUS
 62
    1
 10
2392.0292705181455
 20
620.42291776610045
 40
6.0017976025202726
 50
125.22526692041212
 51
127.32432579854435
  0
LINE
  8
_0-2_____-2
  6
CONTINUOUS
 62
    1
 10
2388.5674779925976
 20
625.3257299154368
 11
2388.5803002478706
 21
625.33475770726443
  0
ARC
  8
_0-2_____-2
  6
CONTINUOUS
 62
    1
 10
2357.6497078615266
 20
615.62066880534712
 40
6.9471967559742911
 50
71.355004597458461
 51
73.473357315154402
  0
LINE
  8
_0-2_____-2
  6
CONTINUOUS
 62
    1
 10
2359.8707510517506
 20
622.20326023375742
 11
2359.8909742143674
 21
622.19643670261416
  0
ARC
  8
_0-2_____-2
  6
CONTINUOUS
 62
    1
 10
2358.4823555827084
 20
618.02165929554212
 40
4.4060155297112376
 50
68.037178233485662
 51
71.355004597493888
  0
LINE
  8
_0-2_____-2
  6
CONTINUOUS
 62
    1
 10
2360.1302268971926
 20
622.1079158928394
 11
2360.16997402685
 21
622.09188700350364
  0
ARC
  8
_0-2_____-2
  6
CONTINUOUS
 62
    1
 10
2357.9553785182461
 20
616.60031407069505
 40
5.921301085326192
 50
66.397214742693649
 51
68.037178233477775
  0
ARC
  8
_0-2_____-2
  6
CONTINUOUS
 62
    1
 10
2357.9413892120965
 20
616.56829805647453
 40
5.9562399727314475
 50
64.766869861152657
 51
66.397214742669561
  0
LINE
  8
_0-2_____-2
  6
CONTINUOUS
 62
    1
 10
2360.4805487176791
 20
621.95619779737274
 11
2360.5187646075929
 21
621.93818776659941
  0
ARC
  8
_0-2_____-2
  6
CONTINUOUS
 62
    1
 10
2358.5971852183875
 20
617.86074518354872
 40
4.5075498185922989
 50
61.551040312730017
 51
64.766869861176005
  0
LINE
  8
_0-2_____-2
  6
CONTINUOUS
 62
    1
 10
2360.7444724268412
 20
621.82397152221574
 11
2360.7447868205863
 21
621.82380118279798
  0
ARC
  8
_0-2_____-2
  6
CONTINUOUS
 62
    1
 10
2356.4157339889989
 20
613.83371204331002
 40
9.0874761554372601
 50
59.960123945001648
 51
61.551040312727075
  0
ARC
  8
_0-2_____-2
  6
CONTINUOUS
 62
    1
 10
2358.6629540510321
 20
617.71976292065813
 40
4.5984462570578897
 50
56.816732458814542
 51
59.960123945023113
  0
LINE
  8
_0-2_____-2
  6
CONTINUOUS
 62
    1
 10
2361.1797702966178
 20
621.56831381222833
 11
2361.2149955931841
 21
621.5452777134077
  0
ARC
  8
_0-2_____-2
  6
CONTINUOUS
 62
    1
 10
2357.8206382535254
 20
616.35484834108149
 40
6.2017915813417961
 50
53.719837137938413
 51
56.816732458784443
  0
LINE
  8
_0-2_____-2
  6
CONTINUOUS
 62
    1
 10
2361.4904498884362
 20
621.35431845127084
 11
2361.4906402295996
 21
621.35417873322024
  0
ARC
  8
_0-2_____-2
  6
CONTINUOUS
 62
    1
 10
2357.7759061763418
 20
616.2935097632087
 40
6.2777081415492901
 50
50.664681719052886
 51
53.719837137955942
  0
LINE
  8
_0-2_____-2
  6
CONTINUOUS
 62
    1
 10
2361.7550802161422
 20
621.1490008270921
 11
2361.7552234944933
 21
621.14888340755829
  0
ARC
  8
_0-2_____-2
  6
CONTINUOUS
 62
    1
 10
2357.7324027382538
 20
616.24013349158076
 40
6.3465669912516853
 50
47.64600102649058
 51
50.664681719057079
  0
ARC
  8
_0-2_____-2
  6
CONTINUOUS
 62
    1
 10
2357.6908622946175
 20
616.19445505399779
 40
6.4083093789225458
 50
44.658421135560957
 51
47.646678260902291
  0
ARC
  8
_0-2_____-2
  6
CONTINUOUS
 62
    1
 10
2357.6582284740034
 20
616.16222312770549
 40
6.4541772675373643
 50
41.693799346204166
 51
44.658325841754213
  0
ARC
  8
_0-2_____-2
  6
CONTINUOUS
 62
    1
 10
2357.6347302374634
 20
616.1412980356854
 40
6.4856419552526967
 50
38.745833754224115
 51
41.693756390623534
  0
ARC
  8
_0-2_____-2
  6
CONTINUOUS
 62
    1
 10
2357.622684712263
 20
616.13163717705288
 40
6.5010830319669246
 50
35.806943837519384
 51
38.745797616098464
  0
LINE
  8
_0-2_____-2
  6
CONTINUOUS
 62
    1
 10
2362.8950170258513
 20
619.93513458912207
 11
2362.9194468930732
 21
619.90126977146883
  0
ARC
  8
_0-2_____-2
  6
CONTINUOUS
 62
    1
 10
2358.9675867732058
 20
617.05042264760868
 40
4.8728356970679476
 50
32.868670705041801
 51
35.806444058801318
  0
ARC
  8
_0-2_____-2
  6
CONTINUOUS
 62
    1
 10
2354.8847342536678
 20
614.41222574981634
 40
9.7338816305109717
 50
31.398458422712693
 51
32.868902428123477
  0
ARC
  8
_0-2_____-2
  6
CONTINUOUS
 62
    1
 10
2359.0555348532407
 20
616.95793128884566
 40
4.8475543458574242
 50
28.447934575199675
 51
31.398539065345368
  0
ARC
  8
_0-2_____-2
  6
CONTINUOUS
 62
    1
 10
2354.8277242716313
 20
614.6674070639632
 40
9.6559723329528815
 50
26.967068936238995
 51
28.447842613405239
  0
ARC
  8
_0-2_____-2
  6
CONTINUOUS
 62
    1
 10
2359.1611852291958
 20
616.87227298340508
 40
4.7938413604893064
 50
23.986461586408439
 51
26.967136467588752
  0
LINE
  8
_0-2_____-2
  6
CONTINUOUS
 62
    1
 10
2363.5410378318129
 20
618.82106906532022
 11
2363.5579517902652
 21
618.78305500901229
  0
ARC
  8
_0-2_____-2
  6
CONTINUOUS
 62
    1
 10
2357.7643216721808
 20
616.20523962641641
 40
6.3412366374329636
 50
22.484734707864476
 51
23.98617460380455
  0
ARC
  8
_0-2_____-2
  6
CONTINUOUS
 62
    1
 10
2357.7851133091208
 20
616.21384531519323
 40
6.3187344142989366
 50
20.977948512235173
 51
22.484734707921071
  0
LINE
  8
_0-2_____-2
  6
CONTINUOUS
 62
    1
 10
2363.6850311559415
 20
618.47600667089137
 11
2363.6998978342153
 21
618.43723305279821
  0
ARC
  8
_0-2_____-2
  6
CONTINUOUS
 62
    1
 10
2359.322503970202
 20
616.75884167601441
 40
4.6881312539606297
 50
17.932662233014462
 51
20.977948512226341
  0
LINE
  8
_0-2_____-2
  6
CONTINUOUS
 62
    1
 10
2363.782881290721
 20
618.20231277477842
 11
2363.7924655151946
 21
618.17269717837678
  0
ARC
  8
_0-2_____-2
  6
CONTINUOUS
 62
    1
 10
2357.4264068515686
 20
616.11250786396658
 40
6.6911197059936889
 50
15.621409770055505
 51
17.932662232997775
  0
ARC
  8
_0-2_____-2
  6
CONTINUOUS
 62
    1
 10
2358.4149718132262
 20
616.38891839685493
 40
5.6646385974932878
 50
12.891484832412045
 51
15.621409770065869
  0
LINE
  8
_0-2_____-2
  6
CONTINUOUS
 62
    1
 10
2363.9368295827981
 20
617.65272898900457
 11
2363.9391459560698
 21
617.64260826060752
  0
LINE
  8
_0-2_____-2
  6
CONTINUOUS
 62
    1
 10
2363.9391459560698
 20
617.64260826060752
 11
2363.9437443237293
 21
617.62235572948362
  0
LINE
  8
_0-2_____-2
  6
CONTINUOUS
 62
    1
 10
2359.0583688213019
 20
621.40323990575394
 11
2359.0965425827358
 21
621.39646142881611
  0
ARC
  8
_0-2_____-2
  6
CONTINUOUS
 62
    1
 10
2358.103385688366
 20
615.80338577190355
 40
5.6805682744584427
 50
77.621910853535908
 51
79.930997609084471
  0
LINE
  8
_0-2_____-2
  6
CONTINUOUS
 62
    1
 10
2359.3210826187092
 20
621.35190540389681
 11
2359.3342095185853
 21
621.34902452994413
  0
ARC
  8
_0-2_____-2
  6
CONTINUOUS
 62
    1
 10
2357.9778702225358
 20
615.16877144377531
 40
6.3273362874993753
 50
75.792122613829847
 51
77.621910853537685
  0
LINE
  8
_0-2_____-2
  6
CONTINUOUS
 62
    1
 10
2359.5308558741717
 20
621.30256472859674
 11
2359.5314208490609
 21
621.3024216853189
  0
ARC
  8
_0-2_____-2
  6
CONTINUOUS
 62
    1
 10
2357.9846481114987
 20
615.19316741063528
 40
6.3020229842809847
 50
73.965580481605173
 51
75.792122613790809
  0
LINE
  8
_0-2_____-2
  6
CONTINUOUS
 62
    1
 10
2359.7253599315345
 20
621.25001610067147
 11
2359.7258748056702
 21
621.24986812809721
  0
ARC
  8
_0-2_____-2
  6
CONTINUOUS
 62
    1
 10
2357.9907865485402
 20
615.2125867605746
 40
6.2816635989731875
 50
72.142889547784918
 51
73.965580481653276
  0
LINE
  8
_0-2_____-2
  6
CONTINUOUS
 62
    1
 10
2359.9170222738967
 20
621.19162627382639
 11
2359.917489576505
 21
621.19147572540192
  0
ARC
  8
_0-2_____-2
  6
CONTINUOUS
 62
    1
 10
2357.9958875347556
 20
615.22681917526302
 40
6.2665526542086329
 50
70.324779620347641
 51
72.142889547774971
  0
LINE
  8
_0-2_____-2
  6
CONTINUOUS
 62
    1
 10
2360.1057609539116
 20
621.12750695916657
 11
2360.1061832527676
 21
621.1273559603062
  0
ARC
  8
_0-2_____-2
  6
CONTINUOUS
 62
    1
 10
2357.9997897893609
 20
615.23640057654904
 40
6.2562168085911383
 50
68.511879055374749
 51
70.324779620359507
  0
LINE
  8
_0-2_____-2
  6
CONTINUOUS
 62
    1
 10
2360.2914940371165
 20
621.05776986537774
 11
2360.2918739141192
 21
621.05762031881954
  0
ARC
  8
_0-2_____-2
  6
CONTINUOUS
 62
    1
 10
2358.0023774575011
 20
615.24185924385154
 40
6.2501896696003563
 50
66.704713662768924
 51
68.511879055371622
  0
LINE
  8
_0-2_____-2
  6
CONTINUOUS
 62
    1
 10
2360.4741396012441
 20
620.98252669727015
 11
2360.4744796293817
 21
620.98238029117977
  0
ARC
  8
_0-2_____-2
  6
CONTINUOUS
 62
    1
 10
2358.0035784750389
 20
615.24371248559862
 40
6.2480125397878421
 50
64.903706772513473
 51
66.704713662769066
  0
LINE
  8
_0-2_____-2
  6
CONTINUOUS
 62
    1
 10
2360.6536157353507
 20
620.90188915448255
 11
2360.6539184574517
 21
620.90174737297002
  0
ARC
  8
_0-2_____-2
  6
CONTINUOUS
 62
    1
 10
2358.0033625550805
 20
615.24246333534938
 40
6.2492353460292547
 50
63.109180368498905
 51
64.903706772538229
  0
LINE
  8
_0-2_____-2
  6
CONTINUOUS
 62
    1
 10
2360.8298405388264
 20
620.81596893034646
 11
2360.8301084482582
 21
620.8158330661048
  0
ARC
  8
_0-2_____-2
  6
CONTINUOUS
 62
    1
 10
2358.0017387591679
 20
615.23859723497344
 40
6.2534178346101505
 50
61.321357209437743
 51
63.109180368476437
  0
LINE
  8
_0-2_____-2
  6
CONTINUOUS
 62
    1
 10
2361.0027321202842
 20
620.7248777109204
 11
2361.0029676438035
 21
620.72474887964358
  0
ARC
  8
_0-2_____-2
  6
CONTINUOUS
 62
    1
 10
2357.9987526619357
 20
615.23257878220534
 40
6.2601309919580572
 50
59.540363839953166
 51
61.321357209385681
  0
LINE
  8
_0-2_____-2
  6
CONTINUOUS
 62
    1
 10
2361.1722085964088
 20
620.62872717420032
 11
2361.1724140792858
 21
620.62860633044147
  0
ARC
  8
_0-2_____-2
  6
CONTINUOUS
 62
    1
 10
2357.994483156016
 20
615.22484866196703
 40
6.2689585971411868
 50
57.76623436806581
 51
59.540363839958268
  0
LINE
  8
_0-2_____-2
  6
CONTINUOUS
 62
    1
 10
2361.3381880907536
 20
620.52762898950095
 11
2361.3383657842128
 21
620.52751694365713
  0
ARC
  8
_0-2_____-2
  6
CONTINUOUS
 62
    1
 10
2357.9890388437043
 20
615.21582067939619
 40
6.2794990371987582
 50
55.99891492828597
 51
57.766234368108279
  0
LINE
  8
_0-2_____-2
  6
CONTINUOUS
 62
    1
 10
2361.5005887325169
 20
620.42169481699898
 11
2361.5007407835374
 21
620.4215922531007
  0
ARC
  8
_0-2_____-2
  6
CONTINUOUS
 62
    1
 10
2357.9825541162877
 20
615.20587908876075
 40
6.2913671994476523
 50
54.238268707562781
 51
55.998914928313781
  0
LINE
  8
_0-2_____-2
  6
CONTINUOUS
 62
    1
 10
2361.6593286553289
 20
620.31103630743121
 11
2361.6594570987841
 21
620.31094380144066
  0
ARC
  8
_0-2_____-2
  6
CONTINUOUS
 62
    1
 10
2357.975184899165
 20
615.19537617125525
 40
6.3041965245291278
 50
52.484081448842822
 51
54.238268707532796
  0
ARC
  8
_0-2_____-2
  6
CONTINUOUS
 62
    1
 10
2357.9641609045493
 20
615.18101768344445
 40
6.322298862209756
 50
50.734916089829042
 51
52.484081448833905
  0
LINE
  8
_0-2_____-2
  6
CONTINUOUS
 62
    1
 10
2361.9656018694959
 20
620.07590615072797
 11
2362.0028964217813
 21
620.04541884743571
  0
ARC
  8
_0-2_____-2
  6
CONTINUOUS
 62
    1
 10
2358.9937777462851
 20
616.3644198197311
 40
4.7544241549510193
 50
47.256874795036886
 51
50.734916089854629
  0
LINE
  8
_0-2_____-2
  6
CONTINUOUS
 62
    1
 10
2362.2206654728966
 20
619.85608770843794
 11
2362.2208116117258
 21
619.8559526516085
  0
ARC
  8
_0-2_____-2
  6
CONTINUOUS
 62
    1
 10
2355.7507629008096
 20
612.85500832499235
 40
9.5328249635668421
 50
45.524219271027192
 51
47.256874795004222
  0
ARC
  8
_0-2_____-2
  6
CONTINUOUS
 62
    1
 10
2359.0770364230766
 20
616.24265645663729
 40
4.7851670772252017
 50
42.074669217280778
 51
45.524686094158291
  0
ARC
  8
_0-2_____-2
  6
CONTINUOUS
 62
    1
 10
2355.5090428671765
 20
613.02167484443464
 40
9.5919644059216562
 50
40.353442467023989
 51
42.074297653990939
  0
ARC
  8
_0-2_____-2
  6
CONTINUOUS
 62
    1
 10
2359.1548380150098
 20
616.11939655726871
 40
4.8078550771152928
 50
36.92124906242762
 51
40.353337098709318
  0
ARC
  8
_0-2_____-2
  6
CONTINUOUS
 62
    1
 10
2355.2990000584659
 20
613.2221890940134
 40
9.6308518043072731
 50
35.206424768267837
 51
36.920895562497542
  0
ARC
  8
_0-2_____-2
  6
CONTINUOUS
 62
    1
 10
2359.2276771996108
 20
615.9942356654675
 40
4.8226560643715706
 50
31.780914250027813
 51
35.206328646167194
  0
ARC
  8
_0-2_____-2
  6
CONTINUOUS
 62
    1
 10
2355.1295551885437
 20
613.45509049221323
 40
9.6436375231030578
 50
30.067527371393215
 51
31.781375877082876
  0
LINE
  8
_0-2_____-2
  6
CONTINUOUS
 62
    1
 10
2363.4755015944997
 20
618.28674893067
 11
2363.4756393150128
 21
618.28651103967809
  0
ARC
  8
_0-2_____-2
  6
CONTINUOUS
 62
    1
 10
2359.2985280800935
 20
615.86828621952338
 40
4.8266002061182371
 50
26.637469316849842
 51
30.067527371387573
  0
LINE
  8
_0-2_____-2
  6
CONTINUOUS
 62
    1
 10
2363.6128388664679
 20
618.03226218710552
 11
2363.6129084364529
 21
618.03212348568695
  0
ARC
  8
_0-2_____-2
  6
CONTINUOUS
 62
    1
 10
2354.9920074397105
 20
613.70804404412684
 40
9.6445630804382478
 50
24.918676766257786
 51
26.637469316858727
  0
LINE
  8
_0-2_____-2
  6
CONTINUOUS
 62
    1
 10
2363.7387265147217
 20
617.77160189844426
 11
2363.7389104814965
 21
617.7712059140008
  0
ARC
  8
_0-2_____-2
  6
CONTINUOUS
 62
    1
 10
2359.3628050883131
 20
615.73815131498213
 40
4.8253092558755952
 50
21.473660085819965
 51
24.918676766239535
  0
LINE
  8
_0-2_____-2
  6
CONTINUOUS
 62
    1
 10
2363.8531701197849
 20
617.50456896066407
 11
2363.8532579923885
 21
617.5043455819706
  0
ARC
  8
_0-2_____-2
  6
CONTINUOUS
 62
    1
 10
2354.8864095439403
 20
613.97697103346582
 40
9.6357014432202188
 50
19.745241617738227
 51
21.47366008583824
  0
LINE
  8
_0-2_____-2
  6
CONTINUOUS
 62
    1
 10
2363.9555710155291
 20
617.23228246328677
 11
2363.9557791788857
 21
617.23170252888349
  0
ARC
  8
_0-2_____-2
  6
CONTINUOUS
 62
    1
 10
2359.4186176785388
 20
615.60312046677166
 40
4.8205927035230953
 50
16.276521814076421
 51
19.745241617742526
  0
LINE
  8
_0-2_____-2
  6
CONTINUOUS
 62
    1
 10
2364.0460020901669
 20
616.95420429847172
 11
2364.0597063668765
 21
616.90726793898716
  0
ARC
  8
_0-2_____-2
  6
CONTINUOUS
 62
    1
 10
2357.8830383721197
 20
615.10383093891164
 40
6.434563895921352
 50
13.226413432928007
 51
16.276521814090579
  0
LINE
  8
_0-2_____-2
  6
CONTINUOUS
 62
    1
 10
2364.1469159977682
 20
616.57605701584134
 11
2364.1524839208982
 21
616.5521626514477
  0
LINE
  8
_0-2_____-2
  6
CONTINUOUS
 62
    1
 10
2359.0583688213019
 20
621.40323990575394
 11
2358.6862532478135
 21
621.42387677732904
  0
LINE
  8
_0-2_____-2
  6
CONTINUOUS
 62
    1
 10
2382.6046566751779
 20
610.25706389549828
 11
2366.9898522319882
 21
610.25706389549828
  0
LINE
  8
_0-2_____-2
  6
CONTINUOUS
 62
    1
 10
2386.0111817079273
 20
621.65382031893625
 11
2384.5832825800367
 21
611.9654485176095
  0
LINE
  8
_0-2_____-2
  6
CONTINUOUS
 62
    1
 10
2363.9437443237293
 20
617.62235572948362
 11
2365.0244353530215
 21
611.88674444978585
  0
ARC
  8
_0-2_____-2
  6
CONTINUOUS
 62
    1
 10
2382.4630001534474
 20
560.78319296238749
 40
66.652492536096901
 50
83.678501129672284
 51
111.9757084473615
  0
ARC
  8
_0-2_____-2
  6
CONTINUOUS
 62
    1
 10
2366.9898522319882
 20
612.25706389549816
 40
1.9999999999998779
 50
190.67044472788919
 51
270
  0
ARC
  8
_0-2_____-2
  6
CONTINUOUS
 62
    1
 10
2382.6046566751779
 20
612.25706389549816
 40
2
 50
270
 51
351.6159465432828
  0
LINE
  8
_0-2_____-2
  6
______-6
 62
    3
 10
1226.2752461124901
 20
432.01956389549815
 11
1226.2752461124901
 21
682.0195638954981
  0
LINE
  8
_0-2_____-2
  6
______-6
 62
    3
 10
2223.0564961125024
 20
432.01956389549815
 11
2223.0564961125024
 21
682.0195638954981
  0
POINT
  8
_0-3___
 62
    2
 10
1226.2252461125024
 20
1656.3680828270319
  0
LINE
  8
_0-0_0
  6
CONTINUOUS
 62
    7
 10
145.92190945333158
 20
272.17690842746919
 11
2782.5613812654233
 21
272.17690842746919
  0
TEXT
  8
_0-0_0
 62
    7
 10
1568.588691770969
 20
188.15385166393582
 40
34.616986052576095
 41
1.0000000000000095
 50
0
  1
S=1/10
  0
LINE
  8
_0-0_0
  6
CONTINUOUS
 62
    7
 10
93.498778579999851
 20
2041.14300385
 11
2835.1640739440472
 21
2041.14300385
  0
LINE
  8
_0-0_0
  6
CONTINUOUS
 62
    7
 10
2835.1640739440472
 20
2041.14300385
 11
2835.1640739440472
 21
102.59178490572339
  0
LINE
  8
_0-0_0
  6
CONTINUOUS
 62
    7
 10
2835.1640739440472
 20
102.59178490572339
 11
93.498778579999851
 21
102.59178490572339
  0
LINE
  8
_0-0_0
  6
CONTINUOUS
 62
    7
 10
93.498778579999851
 20
102.59178490572339
 11
93.498778579999851
 21
2041.14300385
  0
LINE
  8
_0-0_0
  6
CONTINUOUS
 62
    7
 10
145.92190945333158
 20
154.631378027469
 11
2782.5613812654233
 21
154.631378027469
  0
LINE
  8
_0-0_0
  6
CONTINUOUS
 62
    7
 10
145.92190945333158
 20
272.17690842746919
 11
145.92190945333158
 21
154.631378027469
  0
LINE
  8
_0-0_0
  6
CONTINUOUS
 62
    7
 10
1084.5597312533312
 20
272.17690842746919
 11
1084.5597312533312
 21
154.631378027469
  0
LINE
  8
_0-0_0
  6
CONTINUOUS
 62
    7
 10
1521.3244371533312
 20
272.17690842746919
 11
1521.3244371533312
 21
154.631378027469
  0
LINE
  8
_0-0_0
  6
CONTINUOUS
 62
    7
 10
1755.1479665533311
 20
272.17690842746919
 11
1755.1479665533311
 21
154.631378027469
  0
LINE
  8
_0-0_0
  6
CONTINUOUS
 62
    7
 10
2026.4714959533312
 20
272.17690842746919
 11
2026.4714959533312
 21
154.631378027469
  0
LINE
  8
_0-0_0
  6
CONTINUOUS
 62
    7
 10
2782.5613812533311
 20
272.17690842746919
 11
2782.5613812533311
 21
154.631378027469
  0
TEXT
  8
_0-0_0
 62
    7
 10
1111.1467034655127
 20
216.01644236807772
 40
34.616986052576095
 41
1.0000000000000056
 50
0
  1
キッチンシンク
  0
TEXT
  8
_0-0_0
 62
    7
 10
1118.9898407204143
 20
170.91840315239153
 40
34.616986052576095
 41
1.0000000000000056
 50
0
  1
K-8206
  0
LINE
  8
_0-3___
  6
CONTINUOUS
 62
    7
 10
519.96076982653767
 20
1423.0055828270324
 11
368.70946802681914
 21
1423.0055828270324
  0
LINE
  8
_0-3___
  6
CONTINUOUS
 62
    7
 10
519.96076982653767
 20
1888.143082827032
 11
368.70946802681914
 21
1888.143082827032
  0
LINE
  8
_0-3___
  6
CONTINUOUS
 62
    7
 10
378.70946798956624
 20
1430.5090007957824
 11
378.70946798956624
 21
1880.6396648582818
  0
INSERT
  2
-000-_DOT
  8
_0-3___
 10
378.70946798956624
 20
1423.0055828270324
 41
7.5034179687499991
 42
7.5034179687499991
 50
270
  0
INSERT
  2
-000-_DOT
  8
_0-3___
 10
378.70946798956624
 20
1888.143082827032
 41
7.5034179687499991
 42
7.5034179687499991
 50
90
  0
TEXT
  8
_0-3___
 62
    7
 10
373.70946800819326
 20
1630.1805339989073
 40
33.858398437499993
 41
1
 50
90
  1
465
  0
POINT
  8
_0-3___
 62
    7
 10
378.70946798956624
 20
1888.143082827032
  0
LINE
  8
_0-3___
  6
CONTINUOUS
 62
    7
 10
1399.2627461125028
 20
1397.7776869668776
 11
1399.2627461125028
 21
1207.2041679980907
  0
LINE
  8
_0-3___
  6
CONTINUOUS
 62
    7
 10
548.36274611250269
 20
1397.7776869668776
 11
548.36274611250269
 21
1207.2041679980907
  0
LINE
  8
_0-3___
  6
CONTINUOUS
 62
    7
 10
1391.7593281437528
 20
1217.2041679608378
 11
555.86616408125269
 21
1217.2041679608378
  0
INSERT
  2
-000-_DOT
  8
_0-3___
 10
1399.2627461125028
 20
1217.2041679608378
 41
7.5034179687499991
 42
7.5034179687499991
 50
0
  0
INSERT
  2
-000-_DOT
  8
_0-3___
 10
548.36274611250269
 20
1217.2041679608378
 41
7.5034179687499991
 42
7.5034179687499991
 50
180
  0
TEXT
  8
_0-3___
 62
    7
 10
948.41894728437774
 20
1222.2888139383051
 40
33.858398437499993
 41
1
 50
0
  1
851
  0
POINT
  8
_0-3___
 62
    7
 10
548.36274611250269
 20
1217.2041679608378
  0
LINE
  8
_0-3___
  6
CONTINUOUS
 62
    7
 10
1226.2252461125024
 20
1528.8680829760435
 11
1226.2252461125024
 21
1292.4909275197369
  0
LINE
  8
_0-3___
  6
CONTINUOUS
 62
    7
 10
1399.2627461125028
 20
1377.7776870413834
 11
1399.2627461125028
 21
1292.4909275197369
  0
LINE
  8
_0-3___
  6
CONTINUOUS
 62
    7
 10
1233.7286640812524
 20
1302.490927482484
 11
1391.7593281437528
 21
1302.490927482484
  0
INSERT
  2
-000-_DOT
  8
_0-3___
 10
1226.2252461125024
 20
1302.490927482484
 41
7.5034179687499991
 42
7.5034179687499991
 50
180
  0
INSERT
  2
-000-_DOT
  8
_0-3___
 10
1399.2627461125028
 20
1302.490927482484
 41
7.5034179687499991
 42
7.5034179687499991
 50
0
  0
TEXT
  8
_0-3___
 62
    7
 10
1287.3501972843774
 20
1307.5755734599513
 40
33.858398437499993
 41
1
 50
0
  1
173
  0
POINT
  8
_0-3___
 62
    7
 10
1399.2627461125028
 20
1302.490927482484
  0
LINE
  8
_0-3___
  6
CONTINUOUS
 62
    7
 10
576.91274618700777
 20
626.13206389549816
 11
377.11144438729025
 21
626.13206389549816
  0
LINE
  8
_0-3___
  6
CONTINUOUS
 62
    7
 10
528.41274618700754
 20
867.43206389549812
 11
377.11144438729025
 21
867.43206389549812
  0
LINE
  8
_0-3___
  6
CONTINUOUS
 62
    7
 10
387.11144435003831
 20
633.63548186424805
 11
387.11144435003831
 21
859.92864592674823
  0
INSERT
  2
-000-_DOT
  8
_0-3___
 10
387.11144435003831
 20
626.13206389549816
 41
7.5034179687499991
 42
7.5034179687499991
 50
270
  0
INSERT
  2
-000-_DOT
  8
_0-3___
 10
387.11144435003831
 20
867.43206389549812
 41
7.5034179687499991
 42
7.5034179687499991
 50
90
  0
TEXT
  8
_0-3___
 62
    7
 10
382.0267983725704
 20
721.38826506737314
 40
33.858398437499993
 41
1
 50
90
  1
241
  0
POINT
  8
_0-3___
 62
    7
 10
387.11144435003831
 20
867.43206389549812
  0
LINE
  8
_0-3___
  6
CONTINUOUS
 62
    7
 10
2454.8314961125025
 20
907.43206374648651
 11
2454.8314961125025
 21
1070.4320638582453
  0
LINE
  8
_0-3___
  6
CONTINUOUS
 62
    7
 10
1989.6939961125026
 20
887.43206382099231
 11
1989.6939961125026
 21
1070.4320638582453
  0
LINE
  8
_0-3___
  6
CONTINUOUS
 62
    7
 10
2447.3280781437525
 20
1060.4320638954982
 11
1997.1974140812526
 21
1060.4320638954982
  0
INSERT
  2
-000-_DOT
  8
_0-3___
 10
2454.8314961125025
 20
1060.4320638954982
 41
7.5034179687499991
 42
7.5034179687499991
 50
0
  0
INSERT
  2
-000-_DOT
  8
_0-3___
 10
1989.6939961125026
 20
1060.4320638954982
 41
7.5034179687499991
 42
7.5034179687499991
 50
180
  0
TEXT
  8
_0-3___
 62
    7
 10
2196.868947284378
 20
1065.4320638768718
 40
33.858398437499993
 41
1
 50
0
  1
465
  0
POINT
  8
_0-3___
 62
    7
 10
1989.6939961125026
 20
1060.4320638954982
  0
LINE
  8
_0-3___
  6
CONTINUOUS
 62
    7
 10
2454.8314961125025
 20
887.43206382099231
 11
2454.8314961125025
 21
1002.4320638582453
  0
LINE
  8
_0-3___
  6
CONTINUOUS
 62
    7
 10
2223.0564961125024
 20
797.1226887557998
 11
2223.0564961125024
 21
1002.4320638582453
  0
LINE
  8
_0-3___
  6
CONTINUOUS
 62
    7
 10
2447.3280781437525
 20
992.43206389549823
 11
2230.5599140812524
 21
992.43206389549823
  0
INSERT
  2
-000-_DOT
  8
_0-3___
 10
2454.8314961125025
 20
992.43206389549823
 41
7.5034179687499991
 42
7.5034179687499991
 50
0
  0
INSERT
  2
-000-_DOT
  8
_0-3___
 10
2223.0564961125024
 20
992.43206389549823
 41
7.5034179687499991
 42
7.5034179687499991
 50
180
  0
TEXT
  8
_0-3___
 62
    7
 10
2313.5501972843776
 20
997.43206387687178
 40
33.858398437499993
 41
1
 50
0
  1
232
  0
POINT
  8
_0-3___
 62
    7
 10
2223.0564961125024
 20
992.43206389549823
  0
LINE
  8
_0-3___
  6
CONTINUOUS
 62
    7
 10
1439.2627459634912
 20
1888.143082827032
 11
1561.1114443127854
 21
1888.143082827032
  0
LINE
  8
_0-3___
  6
CONTINUOUS
 62
    7
 10
1333.7252460379966
 20
1656.3680828270319
 11
1561.1114443127854
 21
1656.3680828270319
  0
LINE
  8
_0-3___
  6
CONTINUOUS
 62
    7
 10
1551.1114443500383
 20
1880.6396648582818
 11
1551.1114443500383
 21
1663.8715007957819
  0
INSERT
  2
-000-_DOT
  8
_0-3___
 10
1551.1114443500383
 20
1888.143082827032
 41
7.5034179687499991
 42
7.5034179687499991
 50
90.000000000000014
  0
INSERT
  2
-000-_DOT
  8
_0-3___
 10
1551.1114443500383
 20
1656.3680828270319
 41
7.5034179687499991
 42
7.5034179687499991
 50
270
  0
TEXT
  8
_0-3___
 62
    7
 10
1546.1114443686647
 20
1746.861783998907
 40
33.858398437499993
 41
1
 50
90
  1
232
  0
POINT
  8
_0-3___
 62
    7
 10
1551.1114443500383
 20
1656.3680828270319
  0
LINE
  8
_0-3___
  6
CONTINUOUS
 62
    7
 10
1379.2627459634909
 20
1888.143082827032
 11
1461.4926506750676
 21
1888.143082827032
  0
LINE
  8
_0-3___
  6
CONTINUOUS
 62
    7
 10
1408.6492696137032
 20
1870.7430828270319
 11
1461.4926506750676
 21
1870.7430828270319
  0
LINE
  8
_0-3___
  6
CONTINUOUS
 62
    7
 10
1451.4926507123205
 20
1888.143082827032
 11
1451.4926507123205
 21
1954.3163027519818
  0
LINE
  8
_0-3___
  6
CONTINUOUS
 62
    7
 10
1451.4926507123205
 20
1888.143082827032
 11
1451.4926507123205
 21
1870.7430828270319
  0
LINE
  8
_0-3___
  6
CONTINUOUS
 62
    7
 10
1451.4926507123205
 20
1895.646500795782
 11
1451.4926507123205
 21
1903.1499187645318
  0
LINE
  8
_0-3___
  6
CONTINUOUS
 62
    7
 10
1451.4926507123205
 20
1863.2396648582817
 11
1451.4926507123205
 21
1855.7362468895321
  0
INSERT
  2
-000-_DOT
  8
_0-3___
 10
1451.4926507123205
 20
1888.143082827032
 41
7.5034179687499991
 42
7.5034179687499991
 50
270
  0
INSERT
  2
-000-_DOT
  8
_0-3___
 10
1451.4926507123205
 20
1870.7430828270319
 41
7.5034179687499991
 42
7.5034179687499991
 50
90.000000000000014
  0
TEXT
  8
_0-3___
 62
    7
 10
1446.408004734853
 20
1911.9027724971706
 40
33.858398437499993
 41
1
 50
90
  1
17
  0
LINE
  8
_0-3___
  6
CONTINUOUS
 62
    7
 10
1136.7830263812878
 20
1791.4805828270403
 11
1144.286444350038
 21
1791.4805828270403
  0
LINE
  8
_0-3___
  6
CONTINUOUS
 62
    7
 10
1144.286444350038
 20
1791.4805828270403
 11
1196.9257151958454
 21
1704.681370132028
  0
LINE
  8
_0-3___
  6
CONTINUOUS
 62
    7
 10
1255.5247770291594
 20
1608.0547955220356
 11
1259.4156323908226
 21
1601.6389927064574
  0
LINE
  8
_0-3___
  6
CONTINUOUS
 62
    7
 10
1251.6339216674967
 20
1614.4705983376136
 11
1200.8165705575082
 21
1698.2655673164502
  0
INSERT
  2
-000-_DOT
  8
_0-3___
 10
1251.6339216674967
 20
1614.4705983376136
 41
7.5034179687499991
 42
7.5034179687499991
 50
121.234663220766
  0
INSERT
  2
-000-_DOT
  8
_0-3___
 10
1200.8165705575082
 20
1698.2655673164502
 41
7.5034179687499991
 42
7.5034179687499991
 50
301.23466322076592
  0
POINT
  8
_0-3___
 62
    7
 10
1200.8165705575082
 20
1698.2655673164502
  0
POINT
  8
_0-3___
 62
    7
 10
1251.6339216674967
 20
1614.4705983376136
  0
LINE
  8
_0-3___
  6
CONTINUOUS
 62
    7
 10
1360.1114442755324
 20
610.25706389549839
 11
1570.6140478377133
 21
610.25706389549839
  0
LINE
  8
_0-3___
  6
CONTINUOUS
 62
    7
 10
1419.3127460379965
 20
867.43206389549812
 11
1570.6140478377133
 21
867.43206389549812
  0
LINE
  8
_0-3___
  6
CONTINUOUS
 62
    7
 10
1560.6140478749662
 20
617.76048186424828
 11
1560.6140478749662
 21
859.92864592674823
  0
INSERT
  2
-000-_DOT
  8
_0-3___
 10
1560.6140478749662
 20
610.25706389549839
 41
7.5034179687499991
 42
7.5034179687499991
 50
270
  0
INSERT
  2
-000-_DOT
  8
_0-3___
 10
1560.6140478749662
 20
867.43206389549812
 41
7.5034179687499991
 42
7.5034179687499991
 50
90.000000000000014
  0
TEXT
  8
_0-3___
 62
    7
 10
1555.6140478935927
 20
713.45076506737325
 40
33.858398437499993
 41
1
 50
90
  1
257
  0
POINT
  8
_0-3___
 62
    7
 10
1560.6140478749662
 20
867.43206389549812
  0
LINE
  8
_0-3___
  6
CONTINUOUS
 62
    7
 10
1419.3127460379965
 20
854.7320638954983
 11
1469.4169998869675
 21
854.7320638954983
  0
LINE
  8
_0-3___
  6
CONTINUOUS
 62
    7
 10
1419.3127460379965
 20
867.43206389549812
 11
1469.4169998869675
 21
867.43206389549812
  0
LINE
  8
_0-3___
  6
CONTINUOUS
 62
    7
 10
1459.4169999242204
 20
867.43206389549812
 11
1459.4169999242204
 21
938.85419131827803
  0
LINE
  8
_0-3___
  6
CONTINUOUS
 62
    7
 10
1459.4169999242204
 20
854.7320638954983
 11
1459.4169999242204
 21
867.43206389549812
  0
LINE
  8
_0-3___
  6
CONTINUOUS
 62
    7
 10
1459.4169999242204
 20
847.22864592674819
 11
1459.4169999242204
 21
839.7252279579983
  0
LINE
  8
_0-3___
  6
CONTINUOUS
 62
    7
 10
1459.4169999242204
 20
874.93548186424823
 11
1459.4169999242204
 21
882.43889983299823
  0
INSERT
  2
-000-_DOT
  8
_0-3___
 10
1459.4169999242204
 20
854.7320638954983
 41
7.5034179687499991
 42
7.5034179687499991
 50
90.000000000000014
  0
INSERT
  2
-000-_DOT
  8
_0-3___
 10
1459.4169999242204
 20
867.43206389549812
 41
7.5034179687499991
 42
7.5034179687499991
 50
270
  0
TEXT
  8
_0-3___
 62
    7
 10
1454.3323539467531
 20
896.15286467674821
 40
33.858398437499993
 41
1
 50
90
  1
13
  0
TEXT
  8
_0-3___
 62
    7
 10
1063.433702883081
 20
1775.7050176846735
 40
33.858398437499993
 41
1
 50
0
  1
φ98
  0
TEXT
  8
_0-0_0
 62
    7
 10
1817.2741544459045
 20
193.95761883866598
 40
34.616986052576237
 41
1.0000000000000038
 50
0
  1
19/04/10
  0
TEXT
  8
_0-0_0
 62
    7
 10
2174.7535403002003
 20
164.29057734251586
 40
34.616986052575953
 41
1.000000000000012
 50
0
  1
日鉄物産マテックス株式会社
  0
TEXT
  8
_0-0_0
 62
    7
 10
2045.7055269949249
 20
224.34977570141115
 40
34.616986052576095
 41
1.000000000000008
 50
0
  1
KOHLER　ケルン
  0
ENDSEC
  0
EOF
