  0
SECTION
  2
HEADER
  9
$ACADVER
  1
AC1009
  9
$INSBASE
 10
0
 20
0
 30
0
  9
$EXTMIN
 10
0
 20
0
  9
$EXTMAX
 10
2970
 20
2100
  9
$LIMMIN
 10
0
 20
0
  9
$LIMMAX
 10
2970
 20
2100
  9
$LTSCALE
 40
10
  0
ENDSEC
  0
SECTION
  2
TABLES
  0
TABLE
  2
LTYPE
 70
     9
  0
LTYPE
  2
CONTINUOUS
 70
    64
  3
実線
 72
    65
 73
     0
 40
0.0
  0
LTYPE
  2
DASHED1
 70
    64
  3
--  --  --  --  --  --  --  --  
 72
    65
 73
     2
 40
2.5
 49
1.25
 49
-1.25
  0
LTYPE
  2
DASHED2
 70
    64
  3
----    ----    ----    ----    
 72
    65
 73
     2
 40
5.0
 49
2.5
 49
-2.5
  0
LTYPE
  2
DASHED3
 70
    64
  3
------  ------  ------  ------  
 72
    65
 73
     2
 40
5.0
 49
3.75
 49
-1.25
  0
LTYPE
  2
CENTER1
 70
    64
  3
----- - ----- - ----- - ----- - 
 72
    65
 73
     4
 40
10.0
 49
6.25
 49
-1.25
 49
1.25
 49
-1.25
  0
LTYPE
  2
CENTER2
 70
    64
  3
----------  --  ----------  --  
 72
    65
 73
     4
 40
20.0
 49
12.5
 49
-2.5
 49
2.5
 49
-2.5
  0
LTYPE
  2
PHANTOM1
 70
    64
  3
--- - - --- - - --- - - --- - - 
 72
    65
 73
     6
 40
10.0
 49
3.25
 49
-1.25
 49
1.25
 49
-1.25
 49
1.25
 49
-1.25
  0
LTYPE
  2
PHANTOM2
 70
    64
  3
--------  -  -  --------  -  -  
 72
    65
 73
     6
 40
20.0
 49
10.0
 49
-2.5
 49
1.25
 49
-2.5
 49
1.25
 49
-2.5
  0
LTYPE
  2
DOT
 70
    64
  3
-   -   -   -   -   -   -   -   
 72
    65
 73
     2
 40
2.5
 49
0.625
 49
-1.875
  0
LTYPE
  2
DUMMY
 70
    64
  3
ダミー
 72
    65
 73
     0
 40
0.0
  0
LTYPE
  2
RAND1
 70
    64
  3
ランダム線1
 72
    65
 73
     4
 40
10.0
 49
1.0
 49
-2.0
 49
3.0
 49
-4.0
  0
LTYPE
  2
RAND2
 70
    64
  3
ランダム線2
 72
    65
 73
     4
 40
14.0
 49
2.0
 49
-3.0
 49
4.0
 49
-5.0
  0
LTYPE
  2
RAND3
 70
    64
  3
ランダム線3
 72
    65
 73
     4
 40
18.0
 49
3.0
 49
-4.0
 49
5.0
 49
-6.0
  0
LTYPE
  2
RAND4
 70
    64
  3
ランダム線4
 72
    65
 73
     4
 40
22.0
 49
4.0
 49
-5.0
 49
6.0
 49
-7.0
  0
LTYPE
  2
RAND5
 70
    64
  3
ランダム線5
 72
    65
 73
     4
 40
26.0
 49
5.0
 49
-6.0
 49
7.0
 49
-8.0
  0
LTYPE
  2
LONG1
 70
    64
  3
----------  --  ----------  --  
 72
    65
 73
     4
 40
40.0
 49
32.5
 49
-2.5
 49
2.5
 49
-2.5
  0
LTYPE
  2
LONG2
 70
    64
  3
--------  -  -  --------  -  -  
 72
    65
 73
     6
 40
40.0
 49
30.0
 49
-2.5
 49
1.25
 49
-2.5
 49
1.25
 49
-2.5
  0
LTYPE
  2
LONG3
 70
    64
  3
+++++++++++++++..+++++++++++++++
 72
    65
 73
     2
 40
40.0
 49
37.5
 49
-2.5
  0
LTYPE
  2
LONG4
 70
    64
  3
+++++++++++++++..+++++++++++++++
 72
    65
 73
     2
 40
80.0
 49
75.0
 49
-5.0
  0
LTYPE
  2
LONG5
 70
    64
  3
----------  --  ----------  --  
 72
    65
 73
     4
 40
60.0
 49
37.5
 49
-7.5
 49
7.5
 49
-7.5
  0
LTYPE
  2
dashed
 70
   64
  3
-------   -------------   ------
 72
   65
 73
    2
 40
7.5
 49
6
 49
-1.5
  0
LTYPE
  2
dashed_spaced
 70
   64
  3
----        --------        ----
 72
   65
 73
    2
 40
12
 49
6
 49
-6
  0
LTYPE
  2
long_dashed_dotted
 70
   64
  3
------------- --- --------------
 72
   65
 73
    4
 40
15.25
 49
12
 49
-1.5
 49
0.25
 49
-1.5
  0
LTYPE
  2
long_dashed_double-dotted
 70
   64
  3
----------- --- --- ------------
 72
   65
 73
    6
 40
17
 49
12
 49
-1.5
 49
0.25
 49
-1.5
 49
0.25
 49
-1.5
  0
LTYPE
  2
long_dashed_triplicate-dotted
 70
   64
  3
--------- --- --- --- ----------
 72
   65
 73
    8
 40
18.75
 49
12
 49
-1.5
 49
0.25
 49
-1.5
 49
0.25
 49
-1.5
 49
0.25
 49
-1.5
  0
LTYPE
  2
dotted
 70
   64
  3
   -       -       -       -    
 72
   65
 73
    2
 40
1.75
 49
0.25
 49
-1.5
  0
LTYPE
  2
chain
 70
   64
  3
-------------- -- --------------
 72
   65
 73
    4
 40
18.5
 49
12
 49
-1.5
 49
3.5
 49
-1.5
  0
LTYPE
  2
chain_double_dash
 70
   64
  3
------------ -- -- -------------
 72
   65
 73
    6
 40
23.5
 49
12
 49
-1.5
 49
3.5
 49
-1.5
 49
3.5
 49
-1.5
  0
LTYPE
  2
dashed_dotted
 70
   64
  3
-----------     -     ----------
 72
   65
 73
    4
 40
9.25
 49
6
 49
-1.5
 49
0.25
 49
-1.5
  0
LTYPE
  2
double-dashed_dotted
 70
   64
  3
------   -----------   -   -----
 72
   65
 73
    6
 40
16.75
 49
6
 49
-1.5
 49
6
 49
-1.5
 49
0.25
 49
-1.5
  0
LTYPE
  2
dashed_double-dotted
 70
   64
  3
---------    -    -    ---------
 72
   65
 73
    6
 40
11
 49
6
 49
-1.5
 49
0.25
 49
-1.5
 49
0.25
 49
-1.5
  0
LTYPE
  2
double-dashed_double-dotted
 70
   64
  3
-----   ---------   -   -   ----
 72
   65
 73
    8
 40
18.5
 49
6
 49
-1.5
 49
6
 49
-1.5
 49
0.25
 49
-1.5
 49
0.25
 49
-1.5
  0
LTYPE
  2
dashed_triplicate-dotted
 70
   64
  3
-------    -    -    -    ------
 72
   65
 73
    8
 40
12.75
 49
6
 49
-1.5
 49
0.25
 49
-1.5
 49
0.25
 49
-1.5
 49
0.25
 49
-1.5
  0
LTYPE
  2
double-dashed_triplicate-dotted
 70
   64
  3
-----  ---------  -  -  -  -----
 72
   65
 73
   10
 40
20.25
 49
6
 49
-1.5
 49
6
 49
-1.5
 49
0.25
 49
-1.5
 49
0.25
 49
-1.5
 49
0.25
 49
-1.5
  0
LTYPE
  2
undefined
 70
   64
  3
--------------------------------
 72
   65
 73
    0
 40
0
  0
LTYPE
  2
AI9-LType1
 70
   64
  3
----------    ----    ----------
 72
   65
 73
    4
 40
9.5229919999999986
 49
6.3489979999999999
 49
-1.057998
 49
1.057998
 49
-1.057998
  0
LTYPE
  2
_
 70
   64
  3
                                
 72
   65
 73
    0
 40
0
  0
LTYPE
  2
__19
 70
   64
  3
                                
 72
   65
 73
    0
 40
0
  0
LTYPE
  2
__20
 70
   64
  3
                                
 72
   65
 73
    0
 40
0
  0
LTYPE
  2
__21
 70
   64
  3
                                
 72
   65
 73
    0
 40
0
  0
LTYPE
  2
__22
 70
   64
  3
                                
 72
   65
 73
    0
 40
0
  0
LTYPE
  2
__23
 70
   64
  3
                                
 72
   65
 73
    0
 40
0
  0
LTYPE
  2
__24
 70
   64
  3
                                
 72
   65
 73
    0
 40
0
  0
LTYPE
  2
__25
 70
   64
  3
                                
 72
   65
 73
    0
 40
0
  0
LTYPE
  2
__26
 70
   64
  3
                                
 72
   65
 73
    0
 40
0
  0
LTYPE
  2
__27
 70
   64
  3
                                
 72
   65
 73
    0
 40
0
  0
LTYPE
  2
__28
 70
   64
  3
                                
 72
   65
 73
    0
 40
0
  0
LTYPE
  2
__29
 70
   64
  3
                                
 72
   65
 73
    0
 40
0
  0
LTYPE
  2
__30
 70
   64
  3
                                
 72
   65
 73
    0
 40
0
  0
LTYPE
  2
__31
 70
   64
  3
                                
 72
   65
 73
    0
 40
0
  0
LTYPE
  2
__32
 70
   64
  3
                                
 72
   65
 73
    0
 40
0
  0
ENDTAB
  0
TABLE
  2
STYLE
  5
3
100
AcDbSymbolTable
 70
     1
  0
STYLE
  5
10
100
AcDbSymbolTableRecord
100
AcDbTextStyleTableRecord
  2
STANDARD
 70
     0
 40
0.0
 41
1.0
 50
0.0
 71
     0
 42
0.2
  3
txt
  4
bigfont.shx
  0
STYLE
  5
26
100
AcDbSymbolTableRecord
100
AcDbTextStyleTableRecord
  2
TATEGAKI
 70
    68
 40
0.0
 41
1.0
 50
0.0
 71
     0
 42
1.0
  3
txt
  4
bigfont.shx
  0
ENDTAB
  0
TABLE
  2
LAYER
 70
    4
  0
LAYER
  2
_0-0_0
 70
   64
 62
    7
  6
CONTINUOUS
  0
LAYER
  2
_0-1_DEFPOINTS
 70
   64
 62
    7
  6
CONTINUOUS
  0
LAYER
  2
_f-0____-240
 70
   64
 62
    7
  6
CONTINUOUS
  0
LAYER
  2
ADD_LINE
 70
   64
 62
    7
  6
CONTINUOUS
  0
ENDTAB
  0
ENDSEC
  0
SECTION
  2
BLOCKS
  0
ENDSEC
  0
SECTION
  2
ENTITIES
  0
LINE
  8
_f-0____-240
  6
CONTINUOUS
 62
    7
 10
145.92190945814195
 20
272.17690842700108
 11
2782.5613812702341
 21
272.17690842700108
  0
TEXT
  8
_f-0____-240
 62
    7
 10
1568.5886917757796
 20
188.15385166346772
 40
34.616986052576095
 41
1.0000000000000095
 50
0
  1
S=1/10
  0
LINE
  8
_f-0____-240
  6
CONTINUOUS
 62
    7
 10
93.498778584810225
 20
2041.1430038495319
 11
2835.164073948858
 21
2041.1430038495319
  0
LINE
  8
_f-0____-240
  6
CONTINUOUS
 62
    7
 10
2835.164073948858
 20
2041.1430038495319
 11
2835.164073948858
 21
102.59178490525528
  0
LINE
  8
_f-0____-240
  6
CONTINUOUS
 62
    7
 10
2835.164073948858
 20
102.59178490525528
 11
93.498778584810225
 21
102.59178490525528
  0
LINE
  8
_f-0____-240
  6
CONTINUOUS
 62
    7
 10
93.498778584810225
 20
102.59178490525528
 11
93.498778584810225
 21
2041.1430038495319
  0
LINE
  8
_f-0____-240
  6
CONTINUOUS
 62
    7
 10
145.92190945814195
 20
154.63137802700089
 11
2782.5613812702341
 21
154.63137802700089
  0
LINE
  8
_f-0____-240
  6
CONTINUOUS
 62
    7
 10
145.92190945814195
 20
272.17690842700108
 11
145.92190945814195
 21
154.63137802700089
  0
LINE
  8
_f-0____-240
  6
CONTINUOUS
 62
    7
 10
1084.5597312581417
 20
272.17690842700108
 11
1084.5597312581417
 21
154.63137802700089
  0
LINE
  8
_f-0____-240
  6
CONTINUOUS
 62
    7
 10
1521.3244371581418
 20
272.17690842700108
 11
1521.3244371581418
 21
154.63137802700089
  0
LINE
  8
_f-0____-240
  6
CONTINUOUS
 62
    7
 10
1755.1479665581417
 20
272.17690842700108
 11
1755.1479665581417
 21
154.63137802700089
  0
LINE
  8
_f-0____-240
  6
CONTINUOUS
 62
    7
 10
2026.471495958142
 20
272.17690842700108
 11
2026.471495958142
 21
154.63137802700089
  0
LINE
  8
_f-0____-240
  6
CONTINUOUS
 62
    7
 10
2782.5613812581419
 20
272.17690842700108
 11
2782.5613812581419
 21
154.63137802700089
  0
TEXT
  8
_f-0____-240
 62
    7
 10
1832.9041847314734
 20
188.57658079799819
 40
34.616986052576237
 41
1.0000000000000038
 50
0
  1
19/03/06
  0
LINE
  8
ADD_LINE
  6
DOT
 62
    9
 10
145.92190945814195
 20
212.59531590400101
 11
2782.5613812702341
 21
212.59531590400101
  0
LINE
  8
ADD_LINE
  6
DOT
 62
    9
 10
145.92190945814195
 20
175.76404018400112
 11
2782.5613812702341
 21
175.76404018400112
  0
LINE
  8
ADD_LINE
  6
DOT
 62
    9
 10
1104.530682643142
 20
272.17690842700108
 11
1104.530682643142
 21
154.63137802700089
  0
LINE
  8
ADD_LINE
  6
DOT
 62
    9
 10
2042.5299564271422
 20
272.17690842700108
 11
2042.5299564271422
 21
154.63137802700089
  0
LINE
  8
ADD_LINE
  6
DOT
 62
    9
 10
1985.6127450980393
 20
228.38749697400104
 11
2782.5613812702341
 21
228.38749697400104
  0
TEXT
  8
_f-0____-240
 62
    7
 10
1104.530682643142
 20
175.76404018400112
 40
34.616986052576095
 41
1.0000000000000056
 50
0
  1
K-8223
  0
TEXT
  8
_f-0____-240
 62
    7
 10
1104.530682643142
 20
212.59531590400101
 40
34.616986052576095
 41
1.0000000000000056
 50
0
  1
キッチンシンク
  0
TEXT
  8
_f-0____-240
 62
    7
 10
2042.5299564271422
 20
228.38749697400104
 40
34.616986052576095
 41
1.000000000000008
 50
0
  1
KOHLER　ケルン
  0
LINE
  8
_0-0_0
  6
CONTINUOUS
 62
    7
 10
1756.4379202321397
 20
567.66381177318317
 11
1756.0843468068624
 21
567.32970084610986
  0
LINE
  8
_0-0_0
  6
CONTINUOUS
 62
    7
 10
1756.0843468068624
 20
567.32970084610986
 11
1755.7632014627723
 21
566.97611800501363
  0
LINE
  8
_0-0_0
  6
CONTINUOUS
 62
    7
 10
1755.7632014627723
 20
566.97611800501363
 11
1755.4809905309089
 21
566.61280862272497
  0
LINE
  8
_0-0_0
  6
CONTINUOUS
 62
    7
 10
1755.4809905309089
 20
566.61280862272497
 11
1755.2409436372436
 21
566.2397726992441
  0
LINE
  8
_0-0_0
  6
CONTINUOUS
 62
    7
 10
1757.8554812224966
 20
568.58181647800666
 11
1757.4629733849929
 21
568.38394303835912
  0
LINE
  8
_0-0_0
  6
CONTINUOUS
 62
    7
 10
1757.4629733849929
 20
568.38394303835912
 11
1757.0931765033033
 21
568.16011960110689
  0
LINE
  8
_0-0_0
  6
CONTINUOUS
 62
    7
 10
1757.0931765033033
 20
568.16011960110689
 11
1756.7493296192183
 21
567.91683366565076
  0
LINE
  8
_0-0_0
  6
CONTINUOUS
 62
    7
 10
1756.7493296192183
 20
567.91683366565076
 11
1756.4379202321397
 21
567.66381177318317
  0
LINE
  8
_0-0_0
  6
CONTINUOUS
 62
    7
 10
1751.4359169564959
 20
563.45006321433846
 11
1752.7334545000208
 21
563.57008666117076
  0
LINE
  8
_0-0_0
  6
CONTINUOUS
 62
    7
 10
1752.7334545000208
 20
563.57008666117076
 11
1753.8039201486827
 21
564.09883198610078
  0
LINE
  8
_0-0_0
  6
CONTINUOUS
 62
    7
 10
1753.8039201486827
 20
564.09883198610078
 11
1754.6408358189001
 21
565.00062265033057
  0
LINE
  8
_0-0_0
  6
CONTINUOUS
 62
    7
 10
1754.6408358189001
 20
565.00062265033057
 11
1755.2409436372436
 21
566.2397726992441
  0
LINE
  8
_0-0_0
  6
CONTINUOUS
 62
    7
 10
2041.5357422501154
 20
808.74921379665625
 11
2040.3420046970107
 21
808.58377785401535
  0
LINE
  8
_0-0_0
  6
CONTINUOUS
 62
    7
 10
2040.3420046970107
 20
808.58377785401535
 11
2039.2358625095512
 21
808.13937943712062
  0
LINE
  8
_0-0_0
  6
CONTINUOUS
 62
    7
 10
2039.2358625095512
 20
808.13937943712062
 11
2038.2821718501114
 21
807.46466066775326
  0
LINE
  8
_0-0_0
  6
CONTINUOUS
 62
    7
 10
2038.2821718501114
 20
807.46466066775326
 11
2037.5458171285229
 21
806.60828249933218
  0
LINE
  8
_0-0_0
  6
CONTINUOUS
 62
    7
 10
2012.2698226906741
 20
575.56905106534452
 11
2014.1480055543384
 21
578.04085424795107
  0
LINE
  8
_0-0_0
  6
CONTINUOUS
 62
    7
 10
2014.1480055543384
 20
578.04085424795107
 11
2015.6174665399055
 21
580.68459028841914
  0
LINE
  8
_0-0_0
  6
CONTINUOUS
 62
    7
 10
2015.6174665399055
 20
580.68459028841914
 11
2016.6749571897651
 21
583.44509190229041
  0
LINE
  8
_0-0_0
  6
CONTINUOUS
 62
    7
 10
2016.6749571897651
 20
583.44509190229041
 11
2017.3237259615275
 21
586.27047792599353
  0
LINE
  8
_0-0_0
  6
CONTINUOUS
 62
    7
 10
1997.7763441480802
 20
568.35799304075431
 11
2002.0095552051284
 21
569.1073227611455
  0
LINE
  8
_0-0_0
  6
CONTINUOUS
 62
    7
 10
2002.0095552051284
 20
569.1073227611455
 11
2005.8826959216799
 21
570.61894778491092
  0
LINE
  8
_0-0_0
  6
CONTINUOUS
 62
    7
 10
2005.8826959216799
 20
570.61894778491092
 11
2009.3276616777487
 21
572.80205253625275
  0
LINE
  8
_0-0_0
  6
CONTINUOUS
 62
    7
 10
2009.3276616777487
 20
572.80205253625275
 11
2012.2698226906741
 21
575.56905106534452
  0
LINE
  8
_0-0_0
  6
CONTINUOUS
 62
    7
 10
1993.1344112129341
 20
563.45006321433846
 11
1994.1108034123686
 21
563.60577261578737
  0
LINE
  8
_0-0_0
  6
CONTINUOUS
 62
    7
 10
1994.1108034123686
 20
563.60577261578737
 11
1994.9606940813887
 21
564.04369294909986
  0
LINE
  8
_0-0_0
  6
CONTINUOUS
 62
    7
 10
1994.9606940813887
 20
564.04369294909986
 11
1995.635412850756
 21
564.70867576145554
  0
LINE
  8
_0-0_0
  6
CONTINUOUS
 62
    7
 10
1995.635412850756
 20
564.70867576145554
 11
1996.0895472246621
 21
565.56180547226654
  0
LINE
  8
_0-0_0
  6
CONTINUOUS
 62
    7
 10
1970.0317855694157
 20
564.96818515332438
 11
1970.5670183937468
 21
564.32265542335301
  0
LINE
  8
_0-0_0
  6
CONTINUOUS
 62
    7
 10
1970.5670183937468
 20
564.32265542335301
 11
1971.2287621643118
 21
563.84581009363319
  0
LINE
  8
_0-0_0
  6
CONTINUOUS
 62
    7
 10
1971.2287621643118
 20
563.84581009363319
 11
1971.9780918847025
 21
563.55387262057729
  0
LINE
  8
_0-0_0
  6
CONTINUOUS
 62
    7
 10
1971.9780918847025
 20
563.55387262057729
 11
1972.7793121844843
 21
563.45006321433846
  0
LINE
  8
_0-0_0
  6
CONTINUOUS
 62
    7
 10
1938.8065846958848
 20
566.29816019385521
 11
1935.0469705109458
 21
566.0159398461725
  0
LINE
  8
_0-0_0
  6
CONTINUOUS
 62
    7
 10
1935.0469705109458
 20
566.0159398461725
 11
1931.3846782328449
 21
565.42556798484054
  0
LINE
  8
_0-0_0
  6
CONTINUOUS
 62
    7
 10
1931.3846782328449
 20
565.42556798484054
 11
1927.8878218973846
 21
564.55946327522724
  0
LINE
  8
_0-0_0
  6
CONTINUOUS
 62
    7
 10
1927.8878218973846
 20
564.55946327522724
 11
1924.6245155403697
 21
563.45006321433846
  0
LINE
  8
_0-0_0
  6
CONTINUOUS
 62
    7
 10
1799.9929573951263
 20
563.45331167194854
 11
1796.5123151002599
 21
564.62433826923962
  0
LINE
  8
_0-0_0
  6
CONTINUOUS
 62
    7
 10
1796.5123151002599
 20
564.62433826923962
 11
1792.9343603143748
 21
565.48719452124271
  0
LINE
  8
_0-0_0
  6
CONTINUOUS
 62
    7
 10
1792.9343603143748
 20
565.48719452124271
 11
1789.3434305296869
 21
566.04513830138762
  0
LINE
  8
_0-0_0
  6
CONTINUOUS
 62
    7
 10
1789.3434305296869
 20
566.04513830138762
 11
1785.8141366972211
 21
566.29816019385521
  0
LINE
  8
_0-0_0
  6
CONTINUOUS
 62
    7
 10
1728.5311647526248
 20
565.56180547226654
 11
1728.9950350835422
 21
564.68921326325199
  0
LINE
  8
_0-0_0
  6
CONTINUOUS
 62
    7
 10
1728.9950350835422
 20
564.68921326325199
 11
1729.682728851712
 21
564.02746949268715
  0
LINE
  8
_0-0_0
  6
CONTINUOUS
 62
    7
 10
1729.682728851712
 20
564.02746949268715
 11
1730.5326195207317
 21
563.60577261578737
  0
LINE
  8
_0-0_0
  6
CONTINUOUS
 62
    7
 10
1730.5326195207317
 20
563.60577261578737
 11
1731.4830617225616
 21
563.45006321433846
  0
LINE
  8
_0-0_0
  6
CONTINUOUS
 62
    7
 10
1726.769766294002
 20
568.4390914911794
 11
1726.3772584564981
 21
568.82186337167172
  0
LINE
  8
_0-0_0
  6
CONTINUOUS
 62
    7
 10
1726.3772584564981
 20
568.82186337167172
 11
1725.9717756201919
 21
569.16247121396555
  0
LINE
  8
_0-0_0
  6
CONTINUOUS
 62
    7
 10
1725.9717756201919
 20
569.16247121396555
 11
1725.5565662426939
 21
569.46739310164298
  0
LINE
  8
_0-0_0
  6
CONTINUOUS
 62
    7
 10
1725.5565662426939
 20
569.46739310164298
 11
1725.1381084075847
 21
569.73014153530278
  0
LINE
  8
_0-0_0
  6
CONTINUOUS
 62
    7
 10
1728.5311647526248
 20
565.56505392987674
 11
1728.1970538255516
 21
566.38249768607136
  0
LINE
  8
_0-0_0
  6
CONTINUOUS
 62
    7
 10
1728.1970538255516
 20
566.38249768607136
 11
1727.7850834898438
 21
567.14155394765464
  0
LINE
  8
_0-0_0
  6
CONTINUOUS
 62
    7
 10
1727.7850834898438
 20
567.14155394765464
 11
1727.3082381601241
 21
567.82924771582441
  0
LINE
  8
_0-0_0
  6
CONTINUOUS
 62
    7
 10
1727.3082381601241
 20
567.82924771582441
 11
1726.769766294002
 21
568.4390914911794
  0
LINE
  8
_0-0_0
  6
CONTINUOUS
 62
    7
 10
1707.3002344733695
 20
586.26722946838322
 11
1709.6585111243639
 21
579.40326678548797
  0
LINE
  8
_0-0_0
  6
CONTINUOUS
 62
    7
 10
1709.6585111243639
 20
579.40326678548797
 11
1714.0149846700363
 21
573.89199009893775
  0
LINE
  8
_0-0_0
  6
CONTINUOUS
 62
    7
 10
1714.0149846700363
 20
573.89199009893775
 11
1719.8895801546939
 21
570.10317745878365
  0
LINE
  8
_0-0_0
  6
CONTINUOUS
 62
    7
 10
1719.8895801546939
 20
570.10317745878365
 11
1726.7957162916071
 21
568.40340553656301
  0
LINE
  8
_0-0_0
  6
CONTINUOUS
 62
    7
 10
1687.074894848764
 20
806.60828249933218
 11
1686.5201995262287
 21
807.3024637669032
  0
LINE
  8
_0-0_0
  6
CONTINUOUS
 62
    7
 10
1686.5201995262287
 20
807.3024637669032
 11
1685.8033167186634
 21
807.89933254345556
  0
LINE
  8
_0-0_0
  6
CONTINUOUS
 62
    7
 10
1685.8033167186634
 20
807.89933254345556
 11
1684.9955995036612
 21
808.34697941796037
  0
LINE
  8
_0-0_0
  6
CONTINUOUS
 62
    7
 10
1684.9955995036612
 20
808.34697941796037
 11
1684.1749072898563
 21
808.60324035221879
  0
LINE
  8
_0-0_0
  6
CONTINUOUS
 62
    7
 10
2001.5391973748096
 20
570.57678374671241
 11
2001.2764489411504
 21
570.48919779688617
  0
LINE
  8
_0-0_0
  6
CONTINUOUS
 62
    7
 10
2001.2764489411504
 20
570.48919779688617
 11
2001.0104520498803
 21
570.40486030467002
  0
LINE
  8
_0-0_0
  6
CONTINUOUS
 62
    7
 10
2001.0104520498803
 20
570.40486030467002
 11
2000.7444551586104
 21
570.31727435484379
  0
LINE
  8
_0-0_0
  6
CONTINUOUS
 62
    7
 10
2000.7444551586104
 20
570.31727435484379
 11
2000.4817067249505
 21
570.22968840501733
  0
LINE
  8
_0-0_0
  6
CONTINUOUS
 62
    7
 10
1684.6420166625646
 20
808.48971382060665
 11
1684.7296026123909
 21
808.45077940838019
  0
LINE
  8
_0-0_0
  6
CONTINUOUS
 62
    7
 10
1684.7296026123909
 20
808.45077940838019
 11
1684.8139401046071
 21
808.41510286958282
  0
LINE
  8
_0-0_0
  6
CONTINUOUS
 62
    7
 10
1684.8139401046071
 20
808.41510286958282
 11
1684.8982870126426
 21
808.37941691496667
  0
LINE
  8
_0-0_0
  6
CONTINUOUS
 62
    7
 10
1684.8982870126426
 20
808.37941691496667
 11
1684.9858635466494
 21
808.340491918559
  0
LINE
  8
_0-0_0
  6
CONTINUOUS
 62
    7
 10
1938.8065846958848
 20
566.29816019385521
 11
1900.5584726962188
 21
566.29816019385521
  0
LINE
  8
_0-0_0
  6
CONTINUOUS
 62
    7
 10
1900.5584726962188
 20
566.29816019385521
 11
1862.3103606965528
 21
566.29816019385521
  0
LINE
  8
_0-0_0
  6
CONTINUOUS
 62
    7
 10
1862.3103606965528
 20
566.29816019385521
 11
1824.0622486968869
 21
566.29816019385521
  0
LINE
  8
_0-0_0
  6
CONTINUOUS
 62
    7
 10
1824.0622486968869
 20
566.29816019385521
 11
1785.8141366972211
 21
566.29816019385521
  0
LINE
  8
_0-0_0
  6
CONTINUOUS
 62
    7
 10
1723.0815146024768
 20
570.57678374671241
 11
1723.3442724519557
 21
570.48919779688617
  0
LINE
  8
_0-0_0
  6
CONTINUOUS
 62
    7
 10
1723.3442724519557
 20
570.48919779688617
 11
1723.6102599274068
 21
570.40486030467002
  0
LINE
  8
_0-0_0
  6
CONTINUOUS
 62
    7
 10
1723.6102599274068
 20
570.40486030467002
 11
1723.8762568186767
 21
570.31727435484379
  0
LINE
  8
_0-0_0
  6
CONTINUOUS
 62
    7
 10
1723.8762568186767
 20
570.31727435484379
 11
1724.1390146681556
 21
570.22968840501733
  0
LINE
  8
_0-0_0
  6
CONTINUOUS
 62
    7
 10
1695.5218544646573
 20
787.35933507416098
 11
1695.1553060405777
 21
788.61794762127818
  0
LINE
  8
_0-0_0
  6
CONTINUOUS
 62
    7
 10
1695.1553060405777
 20
788.61794762127818
 11
1694.7855091588876
 21
789.87979921018655
  0
LINE
  8
_0-0_0
  6
CONTINUOUS
 62
    7
 10
1694.7855091588876
 20
789.87979921018655
 11
1694.4157122771978
 21
791.14166021491383
  0
LINE
  8
_0-0_0
  6
CONTINUOUS
 62
    7
 10
1694.4157122771978
 20
791.14166021491383
 11
1694.045905979689
 21
792.40026334621189
  0
LINE
  8
_0-0_0
  6
CONTINUOUS
 62
    7
 10
1694.6719732114566
 20
790.26581954828896
 11
1694.5130247682164
 21
790.7913258314278
  0
LINE
  8
_0-0_0
  6
CONTINUOUS
 62
    7
 10
1694.5130247682164
 20
790.7913258314278
 11
1694.3508278673664
 21
791.32007115635759
  0
LINE
  8
_0-0_0
  6
CONTINUOUS
 62
    7
 10
1694.3508278673664
 20
791.32007115635759
 11
1694.1918794241267
 21
791.84881648128726
  0
LINE
  8
_0-0_0
  6
CONTINUOUS
 62
    7
 10
1694.1918794241267
 20
791.84881648128726
 11
1694.0329309808865
 21
792.37431334860685
  0
LINE
  8
_0-0_0
  6
CONTINUOUS
 62
    7
 10
1972.7793121844843
 20
563.45006321433846
 11
1977.8689014099541
 21
563.45006321433846
  0
LINE
  8
_0-0_0
  6
CONTINUOUS
 62
    7
 10
1977.8689014099541
 20
563.45006321433846
 11
1982.9584812196049
 21
563.45006321433846
  0
LINE
  8
_0-0_0
  6
CONTINUOUS
 62
    7
 10
1982.9584812196049
 20
563.45006321433846
 11
1988.0480704450747
 21
563.45006321433846
  0
LINE
  8
_0-0_0
  6
CONTINUOUS
 62
    7
 10
1988.0480704450747
 20
563.45006321433846
 11
1993.137650254725
 21
563.45006321433846
  0
LINE
  8
_0-0_0
  6
CONTINUOUS
 62
    7
 10
1938.8065846958848
 20
566.29816019385521
 11
1946.2317302007159
 21
566.55766016990481
  0
LINE
  8
_0-0_0
  6
CONTINUOUS
 62
    7
 10
1946.2317302007159
 20
566.55766016990481
 11
1953.656885121366
 21
566.81716956177343
  0
LINE
  8
_0-0_0
  6
CONTINUOUS
 62
    7
 10
1953.656885121366
 20
566.81716956177343
 11
1961.0852790838076
 21
567.07667895364227
  0
LINE
  8
_0-0_0
  6
CONTINUOUS
 62
    7
 10
1961.0852790838076
 20
567.07667895364227
 11
1968.5104245886387
 21
567.33618834551112
  0
LINE
  8
_0-0_0
  6
CONTINUOUS
 62
    7
 10
1799.9961964369174
 20
563.45006321433846
 11
1831.1532832746448
 21
563.45006321433846
  0
LINE
  8
_0-0_0
  6
CONTINUOUS
 62
    7
 10
1831.1532832746448
 20
563.45006321433846
 11
1862.3103606965528
 21
563.45006321433846
  0
LINE
  8
_0-0_0
  6
CONTINUOUS
 62
    7
 10
1862.3103606965528
 20
563.45006321433846
 11
1893.4674381184614
 21
563.45006321433846
  0
LINE
  8
_0-0_0
  6
CONTINUOUS
 62
    7
 10
1893.4674381184614
 20
563.45006321433846
 11
1924.6245155403697
 21
563.45006321433846
  0
LINE
  8
_0-0_0
  6
CONTINUOUS
 62
    7
 10
1756.1102968044675
 20
567.33618834551112
 11
1763.5354423092983
 21
567.07667895364227
  0
LINE
  8
_0-0_0
  6
CONTINUOUS
 62
    7
 10
1763.5354423092983
 20
567.07667895364227
 11
1770.9638362717396
 21
566.81716956177343
  0
LINE
  8
_0-0_0
  6
CONTINUOUS
 62
    7
 10
1770.9638362717396
 20
566.81716956177343
 11
1778.3889817765707
 21
566.55766016990481
  0
LINE
  8
_0-0_0
  6
CONTINUOUS
 62
    7
 10
1778.3889817765707
 20
566.55766016990481
 11
1785.8141366972211
 21
566.29816019385521
  0
LINE
  8
_0-0_0
  6
CONTINUOUS
 62
    7
 10
1697.2183873450872
 20
776.13565038798356
 11
1699.6772155288909
 21
729.24270533277672
  0
LINE
  8
_0-0_0
  6
CONTINUOUS
 62
    7
 10
1699.6772155288909
 20
729.24270533277672
 11
1702.1360437126953
 21
682.35300873518008
  0
LINE
  8
_0-0_0
  6
CONTINUOUS
 62
    7
 10
1702.1360437126953
 20
682.35300873518008
 11
1704.5948813123184
 21
635.46330272176431
  0
LINE
  8
_0-0_0
  6
CONTINUOUS
 62
    7
 10
1704.5948813123184
 20
635.46330272176431
 11
1707.0537094961221
 21
588.57035766655758
  0
LINE
  8
_0-0_0
  6
CONTINUOUS
 62
    7
 10
2058.5496755129157
 20
808.74921379665625
 11
1960.430022812644
 21
808.74921379665625
  0
LINE
  8
_0-0_0
  6
CONTINUOUS
 62
    7
 10
1960.430022812644
 20
808.74921379665625
 11
1862.3103606965528
 21
808.74921379665625
  0
LINE
  8
_0-0_0
  6
CONTINUOUS
 62
    7
 10
1862.3103606965528
 20
808.74921379665625
 11
1764.1906985804619
 21
808.74921379665625
  0
LINE
  8
_0-0_0
  6
CONTINUOUS
 62
    7
 10
1764.1906985804619
 20
808.74921379665625
 11
1666.0710364643708
 21
808.74921379665625
  0
LINE
  8
_0-0_0
  6
CONTINUOUS
 62
    7
 10
2058.5496755129157
 20
808.74921379665625
 11
2058.8286474029883
 21
811.92818266145559
  0
LINE
  8
_0-0_0
  6
CONTINUOUS
 62
    7
 10
2058.8286474029883
 20
811.92818266145559
 11
2059.1076192930605
 21
815.11039056804577
  0
LINE
  8
_0-0_0
  6
CONTINUOUS
 62
    7
 10
2059.1076192930605
 20
815.11039056804577
 11
2059.3865911831331
 21
818.29258905881693
  0
LINE
  8
_0-0_0
  6
CONTINUOUS
 62
    7
 10
2059.3865911831331
 20
818.29258905881693
 11
2059.6623146155953
 21
821.47155792361605
  0
LINE
  8
_0-0_0
  6
CONTINUOUS
 62
    7
 10
1664.9583973616909
 20
821.47155792361605
 11
1763.6327548003169
 21
821.47155792361605
  0
LINE
  8
_0-0_0
  6
CONTINUOUS
 62
    7
 10
1763.6327548003169
 20
821.47155792361605
 11
1862.3103606965528
 21
821.47155792361605
  0
LINE
  8
_0-0_0
  6
CONTINUOUS
 62
    7
 10
1862.3103606965528
 20
821.47155792361605
 11
1960.9879571769695
 21
821.47155792361605
  0
LINE
  8
_0-0_0
  6
CONTINUOUS
 62
    7
 10
1960.9879571769695
 20
821.47155792361605
 11
2059.6655630732057
 21
821.47155792361605
  0
LINE
  8
_0-0_0
  6
CONTINUOUS
 62
    7
 10
1666.0710364643708
 20
808.74921379665625
 11
1665.7920645742984
 21
811.92818266145559
  0
LINE
  8
_0-0_0
  6
CONTINUOUS
 62
    7
 10
1665.7920645742984
 20
811.92818266145559
 11
1665.5130926842257
 21
815.11039056804577
  0
LINE
  8
_0-0_0
  6
CONTINUOUS
 62
    7
 10
1665.5130926842257
 20
815.11039056804577
 11
1665.2341302099728
 21
818.29258905881693
  0
LINE
  8
_0-0_0
  6
CONTINUOUS
 62
    7
 10
1665.2341302099728
 20
818.29258905881693
 11
1664.9583973616909
 21
821.47155792361605
  0
LINE
  8
_0-0_0
  6
CONTINUOUS
 62
    7
 10
1760.5121828459482
 20
569.13327275875031
 11
1760.0710234708447
 21
569.25004774797276
  0
LINE
  8
_0-0_0
  6
CONTINUOUS
 62
    7
 10
1760.0710234708447
 20
569.25004774797276
 11
1759.6266156381309
 21
569.32465869899647
  0
LINE
  8
_0-0_0
  6
CONTINUOUS
 62
    7
 10
1759.6266156381309
 20
569.32465869899647
 11
1759.1789687636262
 21
569.37007119480518
  0
LINE
  8
_0-0_0
  6
CONTINUOUS
 62
    7
 10
1759.1789687636262
 20
569.37007119480518
 11
1758.7215859321102
 21
569.40575714942156
  0
LINE
  8
_0-0_0
  6
CONTINUOUS
 62
    7
 10
1758.7215859321102
 20
569.40575714942156
 11
1758.1376921543601
 21
569.46089618642259
  0
LINE
  8
_0-0_0
  6
CONTINUOUS
 62
    7
 10
1758.1376921543601
 20
569.46089618642259
 11
1757.5537983766098
 21
569.51604463924275
  0
LINE
  8
_0-0_0
  6
CONTINUOUS
 62
    7
 10
1757.5537983766098
 20
569.51604463924275
 11
1756.9699140146795
 21
569.5711930920628
  0
LINE
  8
_0-0_0
  6
CONTINUOUS
 62
    7
 10
1756.9699140146795
 20
569.5711930920628
 11
1756.3892592787206
 21
569.62633212906371
  0
LINE
  8
_0-0_0
  6
CONTINUOUS
 62
    7
 10
1695.5218544646573
 20
787.35933507416098
 11
1695.7910998135371
 21
786.07153348764791
  0
LINE
  8
_0-0_0
  6
CONTINUOUS
 62
    7
 10
1695.7910998135371
 20
786.07153348764791
 11
1696.0700622877907
 21
784.77724440173347
  0
LINE
  8
_0-0_0
  6
CONTINUOUS
 62
    7
 10
1696.0700622877907
 20
784.77724440173347
 11
1696.3360591790611
 21
783.4797068582086
  0
LINE
  8
_0-0_0
  6
CONTINUOUS
 62
    7
 10
1696.3360591790611
 20
783.4797068582086
 11
1696.5663701157143
 21
782.18541777229439
  0
LINE
  8
_0-0_0
  6
CONTINUOUS
 62
    7
 10
1696.5663701157143
 20
782.18541777229439
 11
1696.6215185685346
 21
781.68910994437056
  0
LINE
  8
_0-0_0
  6
CONTINUOUS
 62
    7
 10
1696.6215185685346
 20
781.68910994437056
 11
1696.6799060631458
 21
781.18955365883676
  0
LINE
  8
_0-0_0
  6
CONTINUOUS
 62
    7
 10
1696.6799060631458
 20
781.18955365883676
 11
1696.7382935577566
 21
780.69324583091327
  0
LINE
  8
_0-0_0
  6
CONTINUOUS
 62
    7
 10
1696.7382935577566
 20
780.69324583091327
 11
1696.7934420105771
 21
780.19693800298967
  0
LINE
  8
_0-0_0
  6
CONTINUOUS
 62
    7
 10
1696.7934420105771
 20
780.19693800298967
 11
1696.9134654574095
 21
779.18485984893869
  0
LINE
  8
_0-0_0
  6
CONTINUOUS
 62
    7
 10
1696.9134654574095
 20
779.18485984893869
 11
1697.0302404466318
 21
778.16954265309676
  0
LINE
  8
_0-0_0
  6
CONTINUOUS
 62
    7
 10
1697.0302404466318
 20
778.16954265309676
 11
1697.1340498528707
 21
777.1542160414358
  0
LINE
  8
_0-0_0
  6
CONTINUOUS
 62
    7
 10
1697.1340498528707
 20
777.1542160414358
 11
1697.2183873450872
 21
776.13565038798356
  0
LINE
  8
_0-0_0
  6
CONTINUOUS
 62
    7
 10
1965.9121104597984
 20
568.8997133644865
 11
1965.2957791850422
 21
569.02947276833061
  0
LINE
  8
_0-0_0
  6
CONTINUOUS
 62
    7
 10
1965.2957791850422
 20
569.02947276833061
 11
1965.0168072949696
 21
569.08461180533141
  0
LINE
  8
_0-0_0
  6
CONTINUOUS
 62
    7
 10
1965.0168072949696
 20
569.08461180533141
 11
1964.7345963631062
 21
569.10407430353519
  0
LINE
  8
_0-0_0
  6
CONTINUOUS
 62
    7
 10
1964.7345963631062
 20
569.10407430353519
 11
1964.1085291313384
 21
569.13327275875031
  0
LINE
  8
_0-0_0
  6
CONTINUOUS
 62
    7
 10
1964.1085291313384
 20
569.13327275875031
 11
1964.5367229234589
 21
569.25004774797276
  0
LINE
  8
_0-0_0
  6
CONTINUOUS
 62
    7
 10
1964.5367229234589
 20
569.25004774797276
 11
1964.9713947991611
 21
569.32465869899647
  0
LINE
  8
_0-0_0
  6
CONTINUOUS
 62
    7
 10
1964.9713947991611
 20
569.32465869899647
 11
1965.4093151324737
 21
569.37007119480518
  0
LINE
  8
_0-0_0
  6
CONTINUOUS
 62
    7
 10
1965.4093151324737
 20
569.37007119480518
 11
1965.8569620069782
 21
569.40575714942156
  0
LINE
  8
_0-0_0
  6
CONTINUOUS
 62
    7
 10
1965.8569620069782
 20
569.40575714942156
 11
1966.8203792076101
 21
569.47063214343405
  0
LINE
  8
_0-0_0
  6
CONTINUOUS
 62
    7
 10
1966.8203792076101
 20
569.47063214343405
 11
1967.7870448658523
 21
569.53875559505673
  0
LINE
  8
_0-0_0
  6
CONTINUOUS
 62
    7
 10
1967.7870448658523
 20
569.53875559505673
 11
1968.7504714823037
 21
569.60686963085993
  0
LINE
  8
_0-0_0
  6
CONTINUOUS
 62
    7
 10
1968.7504714823037
 20
569.60686963085993
 11
1969.7138886829357
 21
569.67175404069178
  0
LINE
  8
_0-0_0
  6
CONTINUOUS
 62
    7
 10
1723.0815146024768
 20
570.57678374671241
 11
1723.7529943300528
 21
570.61894778491092
  0
LINE
  8
_0-0_0
  6
CONTINUOUS
 62
    7
 10
1723.7529943300528
 20
570.61894778491092
 11
1724.4958365510429
 21
570.61570874311997
  0
LINE
  8
_0-0_0
  6
CONTINUOUS
 62
    7
 10
1724.4958365510429
 20
570.61570874311997
 11
1725.1997443598061
 21
570.59299778730588
  0
LINE
  8
_0-0_0
  6
CONTINUOUS
 62
    7
 10
1725.1997443598061
 20
570.59299778730588
 11
1725.7641756393523
 21
570.58002278850358
  0
LINE
  8
_0-0_0
  6
CONTINUOUS
 62
    7
 10
1725.7641756393523
 20
570.58002278850358
 11
1729.913049204185
 21
570.60597278610851
  0
LINE
  8
_0-0_0
  6
CONTINUOUS
 62
    7
 10
1729.913049204185
 20
570.60597278610851
 11
1734.0943508502046
 21
570.64489778251607
  0
LINE
  8
_0-0_0
  6
CONTINUOUS
 62
    7
 10
1734.0943508502046
 20
570.64489778251607
 11
1738.2853978690546
 21
570.64165874072478
  0
LINE
  8
_0-0_0
  6
CONTINUOUS
 62
    7
 10
1738.2853978690546
 20
570.64165874072478
 11
1742.4602120156726
 21
570.55732124850874
  0
LINE
  8
_0-0_0
  6
CONTINUOUS
 62
    7
 10
1742.4602120156726
 20
570.55732124850874
 11
1745.9441027681496
 21
570.35619935125112
  0
LINE
  8
_0-0_0
  6
CONTINUOUS
 62
    7
 10
1745.9441027681496
 20
570.35619935125112
 11
1749.4247356471967
 21
570.0675009199864
  0
LINE
  8
_0-0_0
  6
CONTINUOUS
 62
    7
 10
1749.4247356471967
 20
570.0675009199864
 11
1752.9021389002719
 21
569.78852902991389
  0
LINE
  8
_0-0_0
  6
CONTINUOUS
 62
    7
 10
1752.9021389002719
 20
569.78852902991389
 11
1756.3892592787206
 21
569.62633212906371
  0
LINE
  8
_0-0_0
  6
CONTINUOUS
 62
    7
 10
1969.7138886829357
 20
569.67175404069178
 11
1972.8149981391011
 21
569.87286652213004
  0
LINE
  8
_0-0_0
  6
CONTINUOUS
 62
    7
 10
1972.8149981391011
 20
569.87286652213004
 11
1975.9128685534752
 21
570.13237591399866
  0
LINE
  8
_0-0_0
  6
CONTINUOUS
 62
    7
 10
1975.9128685534752
 20
570.13237591399866
 11
1979.0139780096401
 21
570.38214934885605
  0
LINE
  8
_0-0_0
  6
CONTINUOUS
 62
    7
 10
1979.0139780096401
 20
570.38214934885605
 11
1982.1183265075961
 21
570.55407279089854
  0
LINE
  8
_0-0_0
  6
CONTINUOUS
 62
    7
 10
1982.1183265075961
 20
570.55407279089854
 11
1985.9168656889426
 21
570.63192278371343
  0
LINE
  8
_0-0_0
  6
CONTINUOUS
 62
    7
 10
1985.9168656889426
 20
570.63192278371343
 11
1989.7251314114815
 21
570.62868374192237
  0
LINE
  8
_0-0_0
  6
CONTINUOUS
 62
    7
 10
1989.7251314114815
 20
570.62868374192237
 11
1993.5301580922292
 21
570.58651028790473
  0
LINE
  8
_0-0_0
  6
CONTINUOUS
 62
    7
 10
1993.5301580922292
 20
570.58651028790473
 11
1997.3059863177614
 21
570.5508337491076
  0
LINE
  8
_0-0_0
  6
CONTINUOUS
 62
    7
 10
1997.3059863177614
 20
570.5508337491076
 11
1997.8055426032952
 21
570.54758529149728
  0
LINE
  8
_0-0_0
  6
CONTINUOUS
 62
    7
 10
1997.8055426032952
 20
570.54758529149728
 11
1998.30508947301
 21
570.54758529149728
  0
LINE
  8
_0-0_0
  6
CONTINUOUS
 62
    7
 10
1998.30508947301
 20
570.54758529149728
 11
1998.8046457585438
 21
570.54434624970622
  0
LINE
  8
_0-0_0
  6
CONTINUOUS
 62
    7
 10
1998.8046457585438
 20
570.54434624970622
 11
1999.3074410858685
 21
570.54109779209614
  0
LINE
  8
_0-0_0
  6
CONTINUOUS
 62
    7
 10
1999.3074410858685
 20
570.54109779209614
 11
1999.8199629543856
 21
570.5605602902998
  0
LINE
  8
_0-0_0
  6
CONTINUOUS
 62
    7
 10
1999.8199629543856
 20
570.5605602902998
 11
2000.3973692327345
 21
570.59299778730588
  0
LINE
  8
_0-0_0
  6
CONTINUOUS
 62
    7
 10
2000.3973692327345
 20
570.59299778730588
 11
2000.9877410940662
 21
570.60922124371871
  0
LINE
  8
_0-0_0
  6
CONTINUOUS
 62
    7
 10
2000.9877410940662
 20
570.60922124371871
 11
2001.5391973748096
 21
570.57678374671241
  0
LINE
  8
_0-0_0
  6
CONTINUOUS
 62
    7
 10
1758.7086109333075
 20
568.8997133644865
 11
1759.3249422080637
 21
569.02947276833061
  0
LINE
  8
_0-0_0
  6
CONTINUOUS
 62
    7
 10
1759.3249422080637
 20
569.02947276833061
 11
1759.6039046823171
 21
569.08461180533141
  0
LINE
  8
_0-0_0
  6
CONTINUOUS
 62
    7
 10
1759.6039046823171
 20
569.08461180533141
 11
1759.8861250299997
 21
569.10407430353519
  0
LINE
  8
_0-0_0
  6
CONTINUOUS
 62
    7
 10
1759.8861250299997
 20
569.10407430353519
 11
1760.5121828459482
 21
569.13327275875031
  0
LINE
  8
_0-0_0
  6
CONTINUOUS
 62
    7
 10
1684.6290416637623
 20
808.48971382060665
 11
1684.1067838382335
 21
808.62595130803265
  0
LINE
  8
_0-0_0
  6
CONTINUOUS
 62
    7
 10
1684.1067838382335
 20
808.62595130803265
 11
1683.8667463603879
 21
808.68109976085293
  0
LINE
  8
_0-0_0
  6
CONTINUOUS
 62
    7
 10
1683.8667463603879
 20
808.68109976085293
 11
1683.6234510091126
 21
808.70704975845797
  0
LINE
  8
_0-0_0
  6
CONTINUOUS
 62
    7
 10
1683.6234510091126
 20
808.70704975845797
 11
1683.0882181847815
 21
808.74921379665625
  0
LINE
  8
_0-0_0
  6
CONTINUOUS
 62
    7
 10
1757.8587202642875
 20
568.58181647800666
 11
1758.1247171555578
 21
568.70508838244939
  0
LINE
  8
_0-0_0
  6
CONTINUOUS
 62
    7
 10
1758.1247171555578
 20
568.70508838244939
 11
1758.3161030958038
 21
568.77645087586291
  0
LINE
  8
_0-0_0
  6
CONTINUOUS
 62
    7
 10
1758.3161030958038
 20
568.77645087586291
 11
1758.4912749954565
 21
568.82835087107298
  0
LINE
  8
_0-0_0
  6
CONTINUOUS
 62
    7
 10
1758.4912749954565
 20
568.82835087107298
 11
1758.7053624756977
 21
568.8997133644865
  0
LINE
  8
_0-0_0
  6
CONTINUOUS
 62
    7
 10
1968.2476761549788
 20
567.60867273618237
 11
1967.6864839172235
 21
568.01090711487836
  0
LINE
  8
_0-0_0
  6
CONTINUOUS
 62
    7
 10
1967.6864839172235
 20
568.01090711487836
 11
1967.1317885946887
 21
568.34826649956187
  0
LINE
  8
_0-0_0
  6
CONTINUOUS
 62
    7
 10
1967.1317885946887
 20
568.34826649956187
 11
1966.5511432745488
 21
568.64021338843702
  0
LINE
  8
_0-0_0
  6
CONTINUOUS
 62
    7
 10
1966.5511432745488
 20
568.64021338843702
 11
1965.9153495015892
 21
568.8997133644865
  0
LINE
  8
_0-0_0
  6
CONTINUOUS
 62
    7
 10
1968.8607589721246
 20
566.97287896322234
 11
1968.9905089601496
 21
566.79121956416861
  0
LINE
  8
_0-0_0
  6
CONTINUOUS
 62
    7
 10
1968.9905089601496
 20
566.79121956416861
 11
1969.1202683639935
 21
566.6063211233236
  0
LINE
  8
_0-0_0
  6
CONTINUOUS
 62
    7
 10
1969.1202683639935
 20
566.6063211233236
 11
1969.2500183520183
 21
566.42142268247881
  0
LINE
  8
_0-0_0
  6
CONTINUOUS
 62
    7
 10
1969.2500183520183
 20
566.42142268247881
 11
1969.3797683400433
 21
566.2397726992441
  0
LINE
  8
_0-0_0
  6
CONTINUOUS
 62
    7
 10
1968.8607589721246
 20
566.97287896322234
 11
1968.7180339852976
 21
567.1350664482535
  0
LINE
  8
_0-0_0
  6
CONTINUOUS
 62
    7
 10
1968.7180339852976
 20
567.1350664482535
 11
1968.5525980426564
 21
567.31672584730734
  0
LINE
  8
_0-0_0
  6
CONTINUOUS
 62
    7
 10
1968.5525980426564
 20
567.31672584730734
 11
1968.3904011418063
 21
567.48540083173953
  0
LINE
  8
_0-0_0
  6
CONTINUOUS
 62
    7
 10
1968.3904011418063
 20
567.48540083173953
 11
1968.2476761549788
 21
567.60867273618237
  0
LINE
  8
_0-0_0
  6
CONTINUOUS
 62
    7
 10
2000.4817067249505
 20
570.22968840501733
 11
1999.9562004418117
 21
569.97342747075879
  0
LINE
  8
_0-0_0
  6
CONTINUOUS
 62
    7
 10
1999.9562004418117
 20
569.97342747075879
 11
1999.4988270261147
 21
569.73338057709373
  0
LINE
  8
_0-0_0
  6
CONTINUOUS
 62
    7
 10
1999.4988270261147
 20
569.73338057709373
 11
1999.0511707357907
 21
569.45765714463153
  0
LINE
  8
_0-0_0
  6
CONTINUOUS
 62
    7
 10
1999.0511707357907
 20
569.45765714463153
 11
1998.5743254060708
 21
569.10083526174412
  0
LINE
  8
_0-0_0
  6
CONTINUOUS
 62
    7
 10
1998.5743254060708
 20
569.10083526174412
 11
1998.3732129246325
 21
568.91268836328902
  0
LINE
  8
_0-0_0
  6
CONTINUOUS
 62
    7
 10
1998.3732129246325
 20
568.91268836328902
 11
1998.1720910273748
 21
568.727789922444
  0
LINE
  8
_0-0_0
  6
CONTINUOUS
 62
    7
 10
1998.1720910273748
 20
568.727789922444
 11
1997.9709785459365
 21
568.54289148159933
  0
LINE
  8
_0-0_0
  6
CONTINUOUS
 62
    7
 10
1997.9709785459365
 20
568.54289148159933
 11
1997.7698566486788
 21
568.35475399896325
  0
LINE
  8
_0-0_0
  6
CONTINUOUS
 62
    7
 10
2030.5877809964002
 20
792.3710743068159
 11
2031.0548903691085
 21
793.61670243931144
  0
LINE
  8
_0-0_0
  6
CONTINUOUS
 62
    7
 10
2031.0548903691085
 20
793.61670243931144
 11
2031.5155216582352
 21
794.87207594463769
  0
LINE
  8
_0-0_0
  6
CONTINUOUS
 62
    7
 10
2031.5155216582352
 20
794.87207594463769
 11
2031.9923669879552
 21
796.12095253474331
  0
LINE
  8
_0-0_0
  6
CONTINUOUS
 62
    7
 10
2031.9923669879552
 20
796.12095253474331
 11
2032.4984013570706
 21
797.35036662664538
  0
LINE
  8
_0-0_0
  6
CONTINUOUS
 62
    7
 10
2032.4984013570706
 20
797.35036662664538
 11
2032.7157372949218
 21
797.79801350115008
  0
LINE
  8
_0-0_0
  6
CONTINUOUS
 62
    7
 10
2032.7157372949218
 20
797.79801350115008
 11
2032.9363216903835
 21
798.24890883326498
  0
LINE
  8
_0-0_0
  6
CONTINUOUS
 62
    7
 10
2032.9363216903835
 20
798.24890883326498
 11
2033.1569060858446
 21
798.69980416537999
  0
LINE
  8
_0-0_0
  6
CONTINUOUS
 62
    7
 10
2033.1569060858446
 20
798.69980416537999
 11
2033.3774810654868
 21
799.14745103988469
  0
LINE
  8
_0-0_0
  6
CONTINUOUS
 62
    7
 10
2033.3774810654868
 20
799.14745103988469
 11
2033.5169670105231
 21
799.43291042935834
  0
LINE
  8
_0-0_0
  6
CONTINUOUS
 62
    7
 10
2033.5169670105231
 20
799.43291042935834
 11
2033.656452955559
 21
799.718369818832
  0
LINE
  8
_0-0_0
  6
CONTINUOUS
 62
    7
 10
2033.656452955559
 20
799.718369818832
 11
2033.7991873582059
 21
800.00382920830577
  0
LINE
  8
_0-0_0
  6
CONTINUOUS
 62
    7
 10
2033.7991873582059
 20
800.00382920830577
 11
2033.9386638874228
 21
800.28927918196041
  0
LINE
  8
_0-0_0
  6
CONTINUOUS
 62
    7
 10
2033.9386638874228
 20
800.28927918196041
 11
2034.156009241093
 21
800.74017451407508
  0
LINE
  8
_0-0_0
  6
CONTINUOUS
 62
    7
 10
2034.156009241093
 20
800.74017451407508
 11
2034.3765842207349
 21
801.19106984619009
  0
LINE
  8
_0-0_0
  6
CONTINUOUS
 62
    7
 10
2034.3765842207349
 20
801.19106984619009
 11
2034.5971686161963
 21
801.63871672069502
  0
LINE
  8
_0-0_0
  6
CONTINUOUS
 62
    7
 10
2034.5971686161963
 20
801.63871672069502
 11
2034.8177530116577
 21
802.08961205280968
  0
LINE
  8
_0-0_0
  6
CONTINUOUS
 62
    7
 10
2034.8177530116577
 20
802.08961205280968
 11
2035.4697608252113
 21
803.23468865249561
  0
LINE
  8
_0-0_0
  6
CONTINUOUS
 62
    7
 10
2035.4697608252113
 20
803.23468865249561
 11
2036.1574545933811
 21
804.36354179576881
  0
LINE
  8
_0-0_0
  6
CONTINUOUS
 62
    7
 10
2036.1574545933811
 20
804.36354179576881
 11
2036.8548843185624
 21
805.48915589725129
  0
LINE
  8
_0-0_0
  6
CONTINUOUS
 62
    7
 10
2036.8548843185624
 20
805.48915589725129
 11
2037.5458171285229
 21
806.60828249933218
  0
LINE
  8
_0-0_0
  6
CONTINUOUS
 62
    7
 10
2030.5877809964002
 20
792.3710743068159
 11
2030.2050091159076
 21
791.11894925910008
  0
LINE
  8
_0-0_0
  6
CONTINUOUS
 62
    7
 10
2030.2050091159076
 20
791.11894925910008
 11
2029.8157497360144
 21
789.87331171078517
  0
LINE
  8
_0-0_0
  6
CONTINUOUS
 62
    7
 10
2029.8157497360144
 20
789.87331171078517
 11
2029.4394653549234
 21
788.62119607888849
  0
LINE
  8
_0-0_0
  6
CONTINUOUS
 62
    7
 10
2029.4394653549234
 20
788.62119607888849
 11
2029.0988575126294
 21
787.35933507416098
  0
LINE
  8
_0-0_0
  6
CONTINUOUS
 62
    7
 10
2029.0988575126294
 20
787.35933507416098
 11
2028.9982965640006
 21
786.86951474563875
  0
LINE
  8
_0-0_0
  6
CONTINUOUS
 62
    7
 10
2028.9982965640006
 20
786.86951474563875
 11
2028.9009840729821
 21
786.37970383293555
  0
LINE
  8
_0-0_0
  6
CONTINUOUS
 62
    7
 10
2028.9009840729821
 20
786.37970383293555
 11
2028.8036715819635
 21
785.88663504680289
  0
LINE
  8
_0-0_0
  6
CONTINUOUS
 62
    7
 10
2028.8036715819635
 20
785.88663504680289
 11
2028.7031106333347
 21
785.39681471828044
  0
LINE
  8
_0-0_0
  6
CONTINUOUS
 62
    7
 10
2028.7031106333347
 20
785.39681471828044
 11
2028.6414746811129
 21
785.08216628941057
  0
LINE
  8
_0-0_0
  6
CONTINUOUS
 62
    7
 10
2028.6414746811129
 20
785.08216628941057
 11
2028.5765996871007
 21
784.77075690233221
  0
LINE
  8
_0-0_0
  6
CONTINUOUS
 62
    7
 10
2028.5765996871007
 20
784.77075690233221
 11
2028.5117246930884
 21
784.45934751525351
  0
LINE
  8
_0-0_0
  6
CONTINUOUS
 62
    7
 10
2028.5117246930884
 20
784.45934751525351
 11
2028.4500887408672
 21
784.14793812817493
  0
LINE
  8
_0-0_0
  6
CONTINUOUS
 62
    7
 10
2028.4500887408672
 20
784.14793812817493
 11
2028.3495372080574
 21
783.65811779965247
  0
LINE
  8
_0-0_0
  6
CONTINUOUS
 62
    7
 10
2028.3495372080574
 20
783.65811779965247
 11
2028.2522153012198
 21
783.1682974711299
  0
LINE
  8
_0-0_0
  6
CONTINUOUS
 62
    7
 10
2028.2522153012198
 20
783.1682974711299
 11
2028.1549028102013
 21
782.67523810081673
  0
LINE
  8
_0-0_0
  6
CONTINUOUS
 62
    7
 10
2028.1549028102013
 20
782.67523810081673
 11
2028.0543418615725
 21
782.18541777229439
  0
LINE
  8
_0-0_0
  6
CONTINUOUS
 62
    7
 10
2028.0543418615725
 20
782.18541777229439
 11
2027.9992028245715
 21
781.68910994437056
  0
LINE
  8
_0-0_0
  6
CONTINUOUS
 62
    7
 10
2027.9992028245715
 20
781.68910994437056
 11
2027.940805914141
 21
781.18955365883676
  0
LINE
  8
_0-0_0
  6
CONTINUOUS
 62
    7
 10
2027.940805914141
 20
781.18955365883676
 11
2027.8824184195298
 21
780.69324583091327
  0
LINE
  8
_0-0_0
  6
CONTINUOUS
 62
    7
 10
2027.8824184195298
 20
780.69324583091327
 11
2027.82726996671
 21
780.19693800298967
  0
LINE
  8
_0-0_0
  6
CONTINUOUS
 62
    7
 10
2027.82726996671
 20
780.19693800298967
 11
2027.6813059380916
 21
778.88318641887145
  0
LINE
  8
_0-0_0
  6
CONTINUOUS
 62
    7
 10
2027.6813059380916
 20
778.88318641887145
 11
2027.5483074924564
 21
777.57267387654429
  0
LINE
  8
_0-0_0
  6
CONTINUOUS
 62
    7
 10
2027.5483074924564
 20
777.57267387654429
 11
2027.4347715450253
 21
776.26216133421735
  0
LINE
  8
_0-0_0
  6
CONTINUOUS
 62
    7
 10
2027.4347715450253
 20
776.26216133421735
 11
2027.3504340528093
 21
774.94192225069787
  0
LINE
  8
_0-0_0
  6
CONTINUOUS
 62
    7
 10
2027.3504340528093
 20
774.94192225069787
 11
2024.9305214495935
 21
728.85020691109219
  0
LINE
  8
_0-0_0
  6
CONTINUOUS
 62
    7
 10
2024.9305214495935
 20
728.85020691109219
 11
2022.5106182621967
 21
682.75848215566725
  0
LINE
  8
_0-0_0
  6
CONTINUOUS
 62
    7
 10
2022.5106182621967
 20
682.75848215566725
 11
2020.0907150748001
 21
636.66352777427028
  0
LINE
  8
_0-0_0
  6
CONTINUOUS
 62
    7
 10
2020.0907150748001
 20
636.66352777427028
 11
2017.6740603450135
 21
590.57181243466459
  0
LINE
  8
_0-0_0
  6
CONTINUOUS
 62
    7
 10
2017.6740603450135
 20
590.57181243466459
 11
2017.6448618897984
 21
590.06901710733973
  0
LINE
  8
_0-0_0
  6
CONTINUOUS
 62
    7
 10
2017.6448618897984
 20
590.06901710733973
 11
2017.6189118921934
 21
589.56946082180593
  0
LINE
  8
_0-0_0
  6
CONTINUOUS
 62
    7
 10
2017.6189118921934
 20
589.56946082180593
 11
2017.5929618945884
 21
589.06991395209138
  0
LINE
  8
_0-0_0
  6
CONTINUOUS
 62
    7
 10
2017.5929618945884
 20
589.06991395209138
 11
2017.5670118969833
 21
588.57035766655758
  0
LINE
  8
_0-0_0
  6
CONTINUOUS
 62
    7
 10
2017.3204775039171
 20
586.26399042659204
 11
2017.4113024955345
 21
586.99385764877968
  0
LINE
  8
_0-0_0
  6
CONTINUOUS
 62
    7
 10
2017.4113024955345
 20
586.99385764877968
 11
2017.4891619041684
 21
587.72371545514784
  0
LINE
  8
_0-0_0
  6
CONTINUOUS
 62
    7
 10
2017.4891619041684
 20
587.72371545514784
 11
2017.554036898181
 21
588.45682171912631
  0
LINE
  8
_0-0_0
  6
CONTINUOUS
 62
    7
 10
2017.554036898181
 20
588.45682171912631
 11
2017.5994493939897
 21
589.18668894131361
  0
LINE
  8
_0-0_0
  6
CONTINUOUS
 62
    7
 10
1996.0895472246621
 20
565.56180547226654
 11
1996.196595672692
 21
565.81157890712393
  0
LINE
  8
_0-0_0
  6
CONTINUOUS
 62
    7
 10
1996.196595672692
 20
565.81157890712393
 11
1996.3036441207219
 21
566.06460079959129
  0
LINE
  8
_0-0_0
  6
CONTINUOUS
 62
    7
 10
1996.3036441207219
 20
566.06460079959129
 11
1996.410692568752
 21
566.3176226920591
  0
LINE
  8
_0-0_0
  6
CONTINUOUS
 62
    7
 10
1996.410692568752
 20
566.3176226920591
 11
1996.5177316009626
 21
566.57063516870733
  0
LINE
  8
_0-0_0
  6
CONTINUOUS
 62
    7
 10
1996.5177316009626
 20
566.57063516870733
 11
1996.8161659892392
 21
567.11236490825877
  0
LINE
  8
_0-0_0
  6
CONTINUOUS
 62
    7
 10
1996.8161659892392
 20
567.11236490825877
 11
1997.0821628805088
 21
567.51135082934468
  0
LINE
  8
_0-0_0
  6
CONTINUOUS
 62
    7
 10
1997.0821628805088
 20
567.51135082934468
 11
1997.3805972687853
 21
567.88439616864468
  0
LINE
  8
_0-0_0
  6
CONTINUOUS
 62
    7
 10
1997.3805972687853
 20
567.88439616864468
 11
1997.7698566486788
 21
568.35475399896325
  0
LINE
  8
_0-0_0
  6
CONTINUOUS
 62
    7
 10
1969.3797683400433
 20
566.2397726992441
 11
1969.5452042826844
 21
565.92187581276403
  0
LINE
  8
_0-0_0
  6
CONTINUOUS
 62
    7
 10
1969.5452042826844
 20
565.92187581276403
 11
1969.7074011835346
 21
565.60397892628407
  0
LINE
  8
_0-0_0
  6
CONTINUOUS
 62
    7
 10
1969.7074011835346
 20
565.60397892628407
 11
1969.8695886685655
 21
565.28608203980434
  0
LINE
  8
_0-0_0
  6
CONTINUOUS
 62
    7
 10
1969.8695886685655
 20
565.28608203980434
 11
1970.0317855694157
 21
564.96818515332438
  0
LINE
  8
_0-0_0
  6
CONTINUOUS
 62
    7
 10
1731.4830617225616
 20
563.45006321433846
 11
1731.9858570498866
 21
563.45006321433846
  0
LINE
  8
_0-0_0
  6
CONTINUOUS
 62
    7
 10
1731.9858570498866
 20
563.45006321433846
 11
1732.4854133354202
 21
563.45006321433846
  0
LINE
  8
_0-0_0
  6
CONTINUOUS
 62
    7
 10
1732.4854133354202
 20
563.45006321433846
 11
1732.9849602051349
 21
563.45006321433846
  0
LINE
  8
_0-0_0
  6
CONTINUOUS
 62
    7
 10
1732.9849602051349
 20
563.45006321433846
 11
1733.4877555324597
 21
563.45006321433846
  0
LINE
  8
_0-0_0
  6
CONTINUOUS
 62
    7
 10
1733.4877555324597
 20
563.45006321433846
 11
1737.5782416026809
 21
563.45006321433846
  0
LINE
  8
_0-0_0
  6
CONTINUOUS
 62
    7
 10
1737.5782416026809
 20
563.45006321433846
 11
1741.6654792152922
 21
563.45006321433846
  0
LINE
  8
_0-0_0
  6
CONTINUOUS
 62
    7
 10
1741.6654792152922
 20
563.45006321433846
 11
1745.7527168279032
 21
563.45006321433846
  0
LINE
  8
_0-0_0
  6
CONTINUOUS
 62
    7
 10
1745.7527168279032
 20
563.45006321433846
 11
1749.8399544405142
 21
563.45006321433846
  0
LINE
  8
_0-0_0
  6
CONTINUOUS
 62
    7
 10
1749.8399544405142
 20
563.45006321433846
 11
1750.339501310229
 21
563.45006321433846
  0
LINE
  8
_0-0_0
  6
CONTINUOUS
 62
    7
 10
1750.339501310229
 20
563.45006321433846
 11
1750.8390575957628
 21
563.45006321433846
  0
LINE
  8
_0-0_0
  6
CONTINUOUS
 62
    7
 10
1750.8390575957628
 20
563.45006321433846
 11
1751.3386044654774
 21
563.45006321433846
  0
LINE
  8
_0-0_0
  6
CONTINUOUS
 62
    7
 10
1751.3386044654774
 20
563.45006321433846
 11
1751.8413997928023
 21
563.45006321433846
  0
LINE
  8
_0-0_0
  6
CONTINUOUS
 62
    7
 10
1751.8413997928023
 20
563.45006321433846
 11
1751.9743982384373
 21
563.46303821314075
  0
LINE
  8
_0-0_0
  6
CONTINUOUS
 62
    7
 10
1751.9743982384373
 20
563.46303821314075
 11
1752.1073966840722
 21
563.47277417015221
  0
LINE
  8
_0-0_0
  6
CONTINUOUS
 62
    7
 10
1752.1073966840722
 20
563.47277417015221
 11
1752.2403951297074
 21
563.48250071134453
  0
LINE
  8
_0-0_0
  6
CONTINUOUS
 62
    7
 10
1752.2403951297074
 20
563.48250071134453
 11
1752.3733935753423
 21
563.49547571014705
  0
LINE
  8
_0-0_0
  6
CONTINUOUS
 62
    7
 10
1724.1390146681556
 20
570.22968840501733
 11
1724.3433756072043
 21
570.12912745638869
  0
LINE
  8
_0-0_0
  6
CONTINUOUS
 62
    7
 10
1724.3433756072043
 20
570.12912745638869
 11
1724.5509755880439
 21
570.02857592357884
  0
LINE
  8
_0-0_0
  6
CONTINUOUS
 62
    7
 10
1724.5509755880439
 20
570.02857592357884
 11
1724.7553365270926
 21
569.93125401674115
  0
LINE
  8
_0-0_0
  6
CONTINUOUS
 62
    7
 10
1724.7553365270926
 20
569.93125401674115
 11
1724.9596974661413
 21
569.83070248393165
  0
LINE
  8
_0-0_0
  6
CONTINUOUS
 62
    7
 10
1724.9596974661413
 20
569.83070248393165
 11
1725.0051193777688
 21
569.80799152811755
  0
LINE
  8
_0-0_0
  6
CONTINUOUS
 62
    7
 10
1725.0051193777688
 20
569.80799152811755
 11
1725.0505318735777
 21
569.78204153051274
  0
LINE
  8
_0-0_0
  6
CONTINUOUS
 62
    7
 10
1725.0505318735777
 20
569.78204153051274
 11
1725.0959443693864
 21
569.7560915329077
  0
LINE
  8
_0-0_0
  6
CONTINUOUS
 62
    7
 10
1725.0959443693864
 20
569.7560915329077
 11
1725.1381084075847
 21
569.73014153530278
  0
LINE
  8
_0-0_0
  6
CONTINUOUS
 62
    7
 10
1707.018023541506
 20
589.24507643592483
 11
1707.0666844949251
 21
588.49899517314395
  0
LINE
  8
_0-0_0
  6
CONTINUOUS
 62
    7
 10
1707.0666844949251
 20
588.49899517314395
 11
1707.1315594889372
 21
587.75291391036296
  0
LINE
  8
_0-0_0
  6
CONTINUOUS
 62
    7
 10
1707.1315594889372
 20
587.75291391036296
 11
1707.2094094817521
 21
587.00683264758209
  0
LINE
  8
_0-0_0
  6
CONTINUOUS
 62
    7
 10
1707.2094094817521
 20
587.00683264758209
 11
1707.3002344733695
 21
586.26399042659204
  0
LINE
  8
_0-0_0
  6
CONTINUOUS
 62
    7
 10
1694.1237653883229
 20
792.12777895554052
 11
1694.48058727121
 21
790.94377735944727
  0
LINE
  8
_0-0_0
  6
CONTINUOUS
 62
    7
 10
1694.48058727121
 20
790.94377735944727
 11
1694.8471356952903
 21
789.75004922216158
  0
LINE
  8
_0-0_0
  6
CONTINUOUS
 62
    7
 10
1694.8471356952903
 20
789.75004922216158
 11
1695.2007185363864
 21
788.55307262726569
  0
LINE
  8
_0-0_0
  6
CONTINUOUS
 62
    7
 10
1695.2007185363864
 20
788.55307262726569
 11
1695.5218544646573
 21
787.35933507416098
  0
LINE
  8
_0-0_0
  6
CONTINUOUS
 62
    7
 10
1695.5218544646573
 20
787.35933507416098
 11
1695.622415413286
 21
786.86951474563875
  0
LINE
  8
_0-0_0
  6
CONTINUOUS
 62
    7
 10
1695.622415413286
 20
786.86951474563875
 11
1695.7197279043046
 21
786.37970383293555
  0
LINE
  8
_0-0_0
  6
CONTINUOUS
 62
    7
 10
1695.7197279043046
 20
786.37970383293555
 11
1695.8170498111422
 21
785.88663504680289
  0
LINE
  8
_0-0_0
  6
CONTINUOUS
 62
    7
 10
1695.8170498111422
 20
785.88663504680289
 11
1695.9176013439519
 21
785.39681471828044
  0
LINE
  8
_0-0_0
  6
CONTINUOUS
 62
    7
 10
1695.9176013439519
 20
785.39681471828044
 11
1695.9792372961736
 21
785.08216628941057
  0
LINE
  8
_0-0_0
  6
CONTINUOUS
 62
    7
 10
1695.9792372961736
 20
785.08216628941057
 11
1696.0441122901857
 21
784.77075690233221
  0
LINE
  8
_0-0_0
  6
CONTINUOUS
 62
    7
 10
1696.0441122901857
 20
784.77075690233221
 11
1696.1089967000175
 21
784.45934751525351
  0
LINE
  8
_0-0_0
  6
CONTINUOUS
 62
    7
 10
1696.1089967000175
 20
784.45934751525351
 11
1696.1706232364195
 21
784.14793812817493
  0
LINE
  8
_0-0_0
  6
CONTINUOUS
 62
    7
 10
1696.1706232364195
 20
784.14793812817493
 11
1696.2711841850487
 21
783.65811779965247
  0
LINE
  8
_0-0_0
  6
CONTINUOUS
 62
    7
 10
1696.2711841850487
 20
783.65811779965247
 11
1696.3684966760673
 21
783.1682974711299
  0
LINE
  8
_0-0_0
  6
CONTINUOUS
 62
    7
 10
1696.3684966760673
 20
783.1682974711299
 11
1696.4658185829048
 21
782.67523810081673
  0
LINE
  8
_0-0_0
  6
CONTINUOUS
 62
    7
 10
1696.4658185829048
 20
782.67523810081673
 11
1696.5663701157143
 21
782.18541777229439
  0
LINE
  8
_0-0_0
  6
CONTINUOUS
 62
    7
 10
1696.5663701157143
 20
782.18541777229439
 11
1696.7480295147679
 21
780.88463177115955
  0
LINE
  8
_0-0_0
  6
CONTINUOUS
 62
    7
 10
1696.7480295147679
 20
780.88463177115955
 11
1696.8940029592056
 21
779.56763172943113
  0
LINE
  8
_0-0_0
  6
CONTINUOUS
 62
    7
 10
1696.8940029592056
 20
779.56763172943113
 11
1697.0237529472308
 21
778.25064110352196
  0
LINE
  8
_0-0_0
  6
CONTINUOUS
 62
    7
 10
1697.0237529472308
 20
778.25064110352196
 11
1697.1632388922667
 21
776.9401285611948
  0
LINE
  8
_0-0_0
  6
CONTINUOUS
 62
    7
 10
1687.074894848764
 20
806.60828249933218
 11
1687.7658370745437
 21
805.48915589725129
  0
LINE
  8
_0-0_0
  6
CONTINUOUS
 62
    7
 10
1687.7658370745437
 20
805.48915589725129
 11
1688.4632667997248
 21
804.36354179576881
  0
LINE
  8
_0-0_0
  6
CONTINUOUS
 62
    7
 10
1688.4632667997248
 20
804.36354179576881
 11
1689.1477121102844
 21
803.23468865249561
  0
LINE
  8
_0-0_0
  6
CONTINUOUS
 62
    7
 10
1689.1477121102844
 20
803.23468865249561
 11
1689.799719923838
 21
802.09286051042
  0
LINE
  8
_0-0_0
  6
CONTINUOUS
 62
    7
 10
1689.799719923838
 20
802.09286051042
 11
1690.0203043192994
 21
801.64520422009628
  0
LINE
  8
_0-0_0
  6
CONTINUOUS
 62
    7
 10
1690.0203043192994
 20
801.64520422009628
 11
1690.2408887147608
 21
801.1943183038004
  0
LINE
  8
_0-0_0
  6
CONTINUOUS
 62
    7
 10
1690.2408887147608
 20
801.1943183038004
 11
1690.4614636944027
 21
800.7434229716855
  0
LINE
  8
_0-0_0
  6
CONTINUOUS
 62
    7
 10
1690.4614636944027
 20
800.7434229716855
 11
1690.6820480898641
 21
800.29576668136178
  0
LINE
  8
_0-0_0
  6
CONTINUOUS
 62
    7
 10
1690.6820480898641
 20
800.29576668136178
 11
1690.8215340349002
 21
800.01031670770715
  0
LINE
  8
_0-0_0
  6
CONTINUOUS
 62
    7
 10
1690.8215340349002
 20
800.01031670770715
 11
1690.9642590217275
 21
799.72485731823349
  0
LINE
  8
_0-0_0
  6
CONTINUOUS
 62
    7
 10
1690.9642590217275
 20
799.72485731823349
 11
1691.1037449667638
 21
799.43939792875949
  0
LINE
  8
_0-0_0
  6
CONTINUOUS
 62
    7
 10
1691.1037449667638
 20
799.43939792875949
 11
1691.2432309118001
 21
799.150699497495
  0
LINE
  8
_0-0_0
  6
CONTINUOUS
 62
    7
 10
1691.2432309118001
 20
799.150699497495
 11
1691.4638153072613
 21
798.69980416537999
  0
LINE
  8
_0-0_0
  6
CONTINUOUS
 62
    7
 10
1691.4638153072613
 20
798.69980416537999
 11
1691.6843997027227
 21
798.25214787505615
  0
LINE
  8
_0-0_0
  6
CONTINUOUS
 62
    7
 10
1691.6843997027227
 20
798.25214787505615
 11
1691.9049746823646
 21
797.80126195876039
  0
LINE
  8
_0-0_0
  6
CONTINUOUS
 62
    7
 10
1691.9049746823646
 20
797.80126195876039
 11
1692.1255590778262
 21
797.35036662664538
  0
LINE
  8
_0-0_0
  6
CONTINUOUS
 62
    7
 10
1692.1255590778262
 20
797.35036662664538
 11
1692.6315934469421
 21
796.13716657533689
  0
LINE
  8
_0-0_0
  6
CONTINUOUS
 62
    7
 10
1692.6315934469421
 20
796.13716657533689
 11
1693.1084387766618
 21
794.89802594224273
  0
LINE
  8
_0-0_0
  6
CONTINUOUS
 62
    7
 10
1693.1084387766618
 20
794.89802594224273
 11
1693.5723091075793
 21
793.6588758933292
  0
LINE
  8
_0-0_0
  6
CONTINUOUS
 62
    7
 10
1693.5723091075793
 20
793.6588758933292
 11
1694.0394184802876
 21
792.42621334381681
  0
LINE
  8
_0-1_DEFPOINTS
  6
CENTER1
 62
    7
 10
1862.3103606965528
 20
639.66732473941693
 11
1862.3103606965528
 21
603.8780409235552
  0
LINE
  8
_0-1_DEFPOINTS
  6
CENTER1
 62
    7
 10
1862.3103606965528
 20
603.8780409235552
 11
1862.3103606965528
 21
568.08875710769325
  0
LINE
  8
_0-1_DEFPOINTS
  6
CENTER1
 62
    7
 10
1862.3103606965528
 20
568.08875710769325
 11
1862.3103606965528
 21
532.30272174944162
  0
LINE
  8
_0-1_DEFPOINTS
  6
CENTER1
 62
    7
 10
1862.3103606965528
 20
532.30272174944162
 11
1862.3103606965528
 21
496.51343793357972
  0
LINE
  8
_0-1_DEFPOINTS
  6
CONTINUOUS
 62
    7
 10
2173.247131601026
 20
821.53968137523862
 11
2173.247131601026
 21
563.45006321433846
  0
LINE
  8
_0-1_DEFPOINTS
  6
CONTINUOUS
 62
    7
 10
2173.247131601026
 20
821.53968137523862
 11
2174.9836133776948
 21
811.69160384511656
  0
LINE
  8
_0-1_DEFPOINTS
  6
CONTINUOUS
 62
    7
 10
2173.247131601026
 20
821.53968137523862
 11
2171.5106498243563
 21
811.69160384511656
  0
LINE
  8
_0-1_DEFPOINTS
  6
CONTINUOUS
 62
    7
 10
2173.247131601026
 20
563.45006321433846
 11
2171.5106498243563
 21
573.29814074446051
  0
LINE
  8
_0-1_DEFPOINTS
  6
CONTINUOUS
 62
    7
 10
2173.247131601026
 20
563.45006321433846
 11
2174.9836133776948
 21
573.29814074446051
  0
LINE
  8
_0-1_DEFPOINTS
  6
CONTINUOUS
 62
    7
 10
2173.247131601026
 20
821.53968137523862
 11
2124.2154201510134
 21
821.53968137523862
  0
TEXT
  8
_0-1_DEFPOINTS
 62
    7
 10
2168.247131601026
 20
673.74487229478859
 40
30
 41
1
 50
90
  1
257
  0
LINE
  8
_0-1_DEFPOINTS
  6
CONTINUOUS
 62
    7
 10
2124.2154201510134
 20
809.00872318852521
 11
2125.9519019276827
 21
799.16064565840315
  0
LINE
  8
_0-1_DEFPOINTS
  6
CONTINUOUS
 62
    7
 10
2124.2154201510134
 20
809.00872318852521
 11
2122.4789383743441
 21
799.16064565840315
  0
LINE
  8
_0-1_DEFPOINTS
  6
CONTINUOUS
 62
    7
 10
2124.2154201510134
 20
821.53968137523862
 11
2125.9519019276827
 21
831.38775890536078
  0
LINE
  8
_0-1_DEFPOINTS
  6
CONTINUOUS
 62
    7
 10
2124.2154201510134
 20
821.53968137523862
 11
2122.4789383743441
 21
831.38775890536078
  0
LINE
  8
_0-1_DEFPOINTS
  6
CONTINUOUS
 62
    7
 10
2124.2154201510134
 20
854.14114973264577
 11
2124.2154201510134
 21
762.69526182101106
  0
TEXT
  8
_0-1_DEFPOINTS
 62
    7
 10
2151.5720372377205
 20
769.04461226077547
 40
30
 41
1
 50
90
  1
13
  0
LINE
  8
_0-1_DEFPOINTS
  6
CONTINUOUS
 62
    7
 10
1664.9567684249764
 20
865.90508793252548
 11
2059.6639341364908
 21
865.90508793252548
  0
LINE
  8
_0-1_DEFPOINTS
  6
CONTINUOUS
 62
    7
 10
1664.9567684249764
 20
865.90508793252548
 11
1674.8048459550982
 21
867.64156970919487
  0
LINE
  8
_0-1_DEFPOINTS
  6
CONTINUOUS
 62
    7
 10
1664.9567684249764
 20
865.90508793252548
 11
1674.8048459550982
 21
864.16860615585631
  0
LINE
  8
_0-1_DEFPOINTS
  6
CONTINUOUS
 62
    7
 10
2059.6639341364908
 20
865.90508793252548
 11
2049.8158566063689
 21
864.16860615585631
  0
LINE
  8
_0-1_DEFPOINTS
  6
CONTINUOUS
 62
    7
 10
2059.6639341364908
 20
865.90508793252548
 11
2049.8158566063689
 21
867.64156970919487
  0
TEXT
  8
_0-1_DEFPOINTS
 62
    7
 10
1843.5603512807336
 20
870.90508793252548
 40
30
 41
1
 50
0
  1
394
  0
LINE
  8
_0-1_DEFPOINTS
  6
CONTINUOUS
 62
    7
 10
1664.9567684249764
 20
865.90508793252548
 11
1664.9567684249764
 21
828.43232104799404
  0
LINE
  8
_0-1_DEFPOINTS
  6
CONTINUOUS
 62
    7
 10
2059.6639341364908
 20
865.90508793252548
 11
2059.6639341364908
 21
828.43232104799404
  0
LINE
  8
_0-1_DEFPOINTS
  6
CONTINUOUS
 62
    7
 10
2124.2154201510134
 20
809.00872318852521
 11
2058.5496755129157
 21
809.00872318852521
  0
LINE
  8
_0-1_DEFPOINTS
  6
CONTINUOUS
 62
    7
 10
2124.2154201510134
 20
821.53968137523862
 11
2059.6639341364908
 21
821.53968137523862
  0
LINE
  8
_0-1_DEFPOINTS
  6
CONTINUOUS
 62
    7
 10
2173.247131601026
 20
563.45006321433846
 11
1993.1344112129341
 21
563.45006321433846
  0
LINE
  8
_0-0_0
  6
CONTINUOUS
 62
    7
 10
1188.9243093759187
 20
809.00872318852521
 11
1199.4716557718334
 21
809.00872318852521
  0
LINE
  8
_0-0_0
  6
CONTINUOUS
 62
    7
 10
842.74985362632503
 20
567.66381177318317
 11
842.39466068015236
 21
567.32970084610986
  0
LINE
  8
_0-0_0
  6
CONTINUOUS
 62
    7
 10
842.39466068015236
 20
567.32970084610986
 11
842.07513485695767
 21
566.97611800501363
  0
LINE
  8
_0-0_0
  6
CONTINUOUS
 62
    7
 10
842.07513485695767
 20
566.97611800501363
 11
841.79454344598969
 21
566.61280862272497
  0
LINE
  8
_0-0_0
  6
CONTINUOUS
 62
    7
 10
841.79454344598969
 20
566.61280862272497
 11
841.55287703142915
 21
566.2397726992441
  0
LINE
  8
_0-0_0
  6
CONTINUOUS
 62
    7
 10
844.16741461668221
 20
568.58181647800666
 11
843.77328725828295
 21
568.38394303835912
  0
LINE
  8
_0-0_0
  6
CONTINUOUS
 62
    7
 10
843.77328725828295
 20
568.38394303835912
 11
843.40349037659325
 21
568.16011960110689
  0
LINE
  8
_0-0_0
  6
CONTINUOUS
 62
    7
 10
843.40349037659325
 20
568.16011960110689
 11
843.06126301340373
 21
567.91683366565076
  0
LINE
  8
_0-0_0
  6
CONTINUOUS
 62
    7
 10
843.06126301340373
 20
567.91683366565076
 11
842.74985362632503
 21
567.66381177318317
  0
LINE
  8
_0-0_0
  6
CONTINUOUS
 62
    7
 10
837.74624024560535
 20
563.45006321433846
 11
839.04376837331074
 21
563.57008666117076
  0
LINE
  8
_0-0_0
  6
CONTINUOUS
 62
    7
 10
839.04376837331074
 20
563.57008666117076
 11
840.11261450107736
 21
564.09883198610078
  0
LINE
  8
_0-0_0
  6
CONTINUOUS
 62
    7
 10
840.11261450107736
 20
564.09883198610078
 11
840.95114969219037
 21
565.00062265033057
  0
LINE
  8
_0-0_0
  6
CONTINUOUS
 62
    7
 10
840.95114969219037
 20
565.00062265033057
 11
841.55287703142915
 21
566.2397726992441
  0
LINE
  8
_0-0_0
  6
CONTINUOUS
 62
    7
 10
1127.8460561234056
 20
808.74921379665625
 11
1126.6523185703006
 21
808.58053881222406
  0
LINE
  8
_0-0_0
  6
CONTINUOUS
 62
    7
 10
1126.6523185703006
 20
808.58053881222406
 11
1125.5477959037371
 21
808.13937943712062
  0
LINE
  8
_0-0_0
  6
CONTINUOUS
 62
    7
 10
1125.5477959037371
 20
808.13937943712062
 11
1124.5957247651925
 21
807.46466066775326
  0
LINE
  8
_0-0_0
  6
CONTINUOUS
 62
    7
 10
1124.5957247651925
 20
807.46466066775326
 11
1123.8577505227086
 21
806.60828249933218
  0
LINE
  8
_0-0_0
  6
CONTINUOUS
 62
    7
 10
1098.5817560848595
 20
575.56905106534452
 11
1100.4599389485238
 21
578.04085424795107
  0
LINE
  8
_0-0_0
  6
CONTINUOUS
 62
    7
 10
1100.4599389485238
 20
578.04085424795107
 11
1101.9277804131955
 21
580.68459028841914
  0
LINE
  8
_0-0_0
  6
CONTINUOUS
 62
    7
 10
1101.9277804131955
 20
580.68459028841914
 11
1102.9852710630551
 21
583.44509190229041
  0
LINE
  8
_0-0_0
  6
CONTINUOUS
 62
    7
 10
1102.9852710630551
 20
583.44509190229041
 11
1103.6340398348175
 21
586.27047792599353
  0
LINE
  8
_0-0_0
  6
CONTINUOUS
 62
    7
 10
1084.0866580213699
 20
568.35475399896325
 11
1088.3198690784186
 21
569.1073227611455
  0
LINE
  8
_0-0_0
  6
CONTINUOUS
 62
    7
 10
1088.3198690784186
 20
569.1073227611455
 11
1092.1946387316843
 21
570.61894778491092
  0
LINE
  8
_0-0_0
  6
CONTINUOUS
 62
    7
 10
1092.1946387316843
 20
570.61894778491092
 11
1095.64121459283
 21
572.80205253625275
  0
LINE
  8
_0-0_0
  6
CONTINUOUS
 62
    7
 10
1095.64121459283
 20
572.80205253625275
 11
1098.5817560848595
 21
575.56905106534452
  0
LINE
  8
_0-0_0
  6
CONTINUOUS
 62
    7
 10
1079.4463446071197
 20
563.45006321433846
 11
1080.4211172856585
 21
563.60577261578737
  0
LINE
  8
_0-0_0
  6
CONTINUOUS
 62
    7
 10
1080.4211172856585
 20
563.60577261578737
 11
1081.2710079546785
 21
564.04369294909986
  0
LINE
  8
_0-0_0
  6
CONTINUOUS
 62
    7
 10
1081.2710079546785
 20
564.04369294909986
 11
1081.9473462449414
 21
564.70867576145554
  0
LINE
  8
_0-0_0
  6
CONTINUOUS
 62
    7
 10
1081.9473462449414
 20
564.70867576145554
 11
1082.3998610979518
 21
565.56180547226654
  0
LINE
  8
_0-0_0
  6
CONTINUOUS
 62
    7
 10
1056.3437189636013
 20
564.96818515332438
 11
1056.8789517879322
 21
564.32265542335301
  0
LINE
  8
_0-0_0
  6
CONTINUOUS
 62
    7
 10
1056.8789517879322
 20
564.32265542335301
 11
1057.5390760376013
 21
563.84581009363319
  0
LINE
  8
_0-0_0
  6
CONTINUOUS
 62
    7
 10
1057.5390760376013
 20
563.84581009363319
 11
1058.2884057579927
 21
563.55387262057729
  0
LINE
  8
_0-0_0
  6
CONTINUOUS
 62
    7
 10
1058.2884057579927
 20
563.55387262057729
 11
1059.0896354735935
 21
563.45006321433846
  0
LINE
  8
_0-0_0
  6
CONTINUOUS
 62
    7
 10
1025.1168985691747
 20
566.29816019385521
 11
1021.3589133209506
 21
566.0159398461725
  0
LINE
  8
_0-0_0
  6
CONTINUOUS
 62
    7
 10
1021.3589133209506
 20
566.0159398461725
 11
1017.6949921061346
 21
565.42556798484054
  0
LINE
  8
_0-0_0
  6
CONTINUOUS
 62
    7
 10
1017.6949921061346
 20
565.42556798484054
 11
1014.1981357706745
 21
564.55946327522724
  0
LINE
  8
_0-0_0
  6
CONTINUOUS
 62
    7
 10
1014.1981357706745
 20
564.55946327522724
 11
1010.9348294136595
 21
563.45006321433846
  0
LINE
  8
_0-0_0
  6
CONTINUOUS
 62
    7
 10
886.30489078931191
 20
563.45331167194854
 11
882.82424849444533
 21
564.62433826923962
  0
LINE
  8
_0-0_0
  6
CONTINUOUS
 62
    7
 10
882.82424849444533
 20
564.62433826923962
 11
879.24629370856019
 21
565.48719452124271
  0
LINE
  8
_0-0_0
  6
CONTINUOUS
 62
    7
 10
879.24629370856019
 20
565.48719452124271
 11
875.65374440297717
 21
566.04513830138762
  0
LINE
  8
_0-0_0
  6
CONTINUOUS
 62
    7
 10
875.65374440297717
 20
566.04513830138762
 11
872.12445057051104
 21
566.29816019385521
  0
LINE
  8
_0-0_0
  6
CONTINUOUS
 62
    7
 10
814.84310756262983
 20
565.56180547226654
 11
815.30534895683229
 21
564.68921326325199
  0
LINE
  8
_0-0_0
  6
CONTINUOUS
 62
    7
 10
815.30534895683229
 20
564.68921326325199
 11
815.99304272500217
 21
564.02746949268715
  0
LINE
  8
_0-0_0
  6
CONTINUOUS
 62
    7
 10
815.99304272500217
 20
564.02746949268715
 11
816.842933394022
 21
563.60577261578737
  0
LINE
  8
_0-0_0
  6
CONTINUOUS
 62
    7
 10
816.842933394022
 20
563.60577261578737
 11
817.79500453256628
 21
563.45006321433846
  0
LINE
  8
_0-0_0
  6
CONTINUOUS
 62
    7
 10
813.08169968818743
 20
568.4390914911794
 11
812.68919185068387
 21
568.82186337167172
  0
LINE
  8
_0-0_0
  6
CONTINUOUS
 62
    7
 10
812.68919185068387
 20
568.82186337167172
 11
812.28209890930134
 21
569.16247121396555
  0
LINE
  8
_0-0_0
  6
CONTINUOUS
 62
    7
 10
812.28209890930134
 20
569.16247121396555
 11
811.86688011598346
 21
569.46739310164298
  0
LINE
  8
_0-0_0
  6
CONTINUOUS
 62
    7
 10
811.86688011598346
 20
569.46739310164298
 11
811.44843169669389
 21
569.73014153530278
  0
LINE
  8
_0-0_0
  6
CONTINUOUS
 62
    7
 10
814.8414880417339
 20
565.56505392987674
 11
814.50736769884156
 21
566.38249768607136
  0
LINE
  8
_0-0_0
  6
CONTINUOUS
 62
    7
 10
814.50736769884156
 20
566.38249768607136
 11
814.09702629984861
 21
567.14155394765464
  0
LINE
  8
_0-0_0
  6
CONTINUOUS
 62
    7
 10
814.09702629984861
 20
567.14155394765464
 11
813.61855203341418
 21
567.82924771582441
  0
LINE
  8
_0-0_0
  6
CONTINUOUS
 62
    7
 10
813.61855203341418
 20
567.82924771582441
 11
813.08169968818743
 21
568.4390914911794
  0
LINE
  8
_0-0_0
  6
CONTINUOUS
 62
    7
 10
793.61055776247883
 20
586.26722946838322
 11
795.96882499765388
 21
579.40326678548797
  0
LINE
  8
_0-0_0
  6
CONTINUOUS
 62
    7
 10
795.96882499765388
 20
579.40326678548797
 11
800.32692748004069
 21
573.89199009893775
  0
LINE
  8
_0-0_0
  6
CONTINUOUS
 62
    7
 10
800.32692748004069
 20
573.89199009893775
 11
806.20151354887969
 21
570.10317745878365
  0
LINE
  8
_0-0_0
  6
CONTINUOUS
 62
    7
 10
806.20151354887969
 20
570.10317745878365
 11
813.10764968579247
 21
568.40340553656301
  0
LINE
  8
_0-0_0
  6
CONTINUOUS
 62
    7
 10
773.3868376587684
 20
806.60828249933218
 11
772.83051339951908
 21
807.3024637669032
  0
LINE
  8
_0-0_0
  6
CONTINUOUS
 62
    7
 10
772.83051339951908
 20
807.3024637669032
 11
772.11363059195332
 21
807.89933254345556
  0
LINE
  8
_0-0_0
  6
CONTINUOUS
 62
    7
 10
772.11363059195332
 20
807.89933254345556
 11
771.30753289784661
 21
808.34697941796037
  0
LINE
  8
_0-0_0
  6
CONTINUOUS
 62
    7
 10
771.30753289784661
 20
808.34697941796037
 11
770.48522116314632
 21
808.60324035221879
  0
LINE
  8
_0-0_0
  6
CONTINUOUS
 62
    7
 10
1087.8495112481
 20
570.57678374671241
 11
1087.5851432935447
 21
570.48919779688617
  0
LINE
  8
_0-0_0
  6
CONTINUOUS
 62
    7
 10
1087.5851432935447
 20
570.48919779688617
 11
1087.3207659231703
 21
570.40486030467002
  0
LINE
  8
_0-0_0
  6
CONTINUOUS
 62
    7
 10
1087.3207659231703
 20
570.40486030467002
 11
1087.0563979686149
 21
570.31727435484379
  0
LINE
  8
_0-0_0
  6
CONTINUOUS
 62
    7
 10
1087.0563979686149
 20
570.31727435484379
 11
1086.7920205982405
 21
570.22968840501733
  0
LINE
  8
_0-0_0
  6
CONTINUOUS
 62
    7
 10
770.9539594725693
 20
808.48971382060665
 11
771.03991648568115
 21
808.45077940838019
  0
LINE
  8
_0-0_0
  6
CONTINUOUS
 62
    7
 10
771.03991648568115
 20
808.45077940838019
 11
771.12425397789696
 21
808.41510286958282
  0
LINE
  8
_0-0_0
  6
CONTINUOUS
 62
    7
 10
771.12425397789696
 20
808.41510286958282
 11
771.21022040682806
 21
808.37941691496667
  0
LINE
  8
_0-0_0
  6
CONTINUOUS
 62
    7
 10
771.21022040682806
 20
808.37941691496667
 11
771.29617741993957
 21
808.340491918559
  0
LINE
  8
_0-0_0
  6
CONTINUOUS
 62
    7
 10
1025.1168985691747
 20
566.29816019385521
 11
986.86878656950876
 21
566.29816019385521
  0
LINE
  8
_0-0_0
  6
CONTINUOUS
 62
    7
 10
986.86878656950876
 20
566.29816019385521
 11
948.620674569843
 21
566.29816019385521
  0
LINE
  8
_0-0_0
  6
CONTINUOUS
 62
    7
 10
948.620674569843
 20
566.29816019385521
 11
910.37256257017702
 21
566.29816019385521
  0
LINE
  8
_0-0_0
  6
CONTINUOUS
 62
    7
 10
910.37256257017702
 20
566.29816019385521
 11
872.12607009140675
 21
566.29816019385521
  0
LINE
  8
_0-0_0
  6
CONTINUOUS
 62
    7
 10
809.39345741248144
 20
570.57678374671241
 11
809.65782536703682
 21
570.48919779688617
  0
LINE
  8
_0-0_0
  6
CONTINUOUS
 62
    7
 10
809.65782536703682
 20
570.48919779688617
 11
809.92220273741123
 21
570.40486030467002
  0
LINE
  8
_0-0_0
  6
CONTINUOUS
 62
    7
 10
809.92220273741123
 20
570.40486030467002
 11
810.18657069196638
 21
570.31727435484379
  0
LINE
  8
_0-0_0
  6
CONTINUOUS
 62
    7
 10
810.18657069196638
 20
570.31727435484379
 11
810.45094806234101
 21
570.22968840501733
  0
LINE
  8
_0-0_0
  6
CONTINUOUS
 62
    7
 10
781.83216833794734
 20
787.35933507416098
 11
781.46400039297203
 21
788.61794762127818
  0
LINE
  8
_0-0_0
  6
CONTINUOUS
 62
    7
 10
781.46400039297203
 20
788.61794762127818
 11
781.0958230321778
 21
789.87979921018655
  0
LINE
  8
_0-0_0
  6
CONTINUOUS
 62
    7
 10
781.0958230321778
 20
789.87979921018655
 11
780.72602615048811
 21
791.14166021491383
  0
LINE
  8
_0-0_0
  6
CONTINUOUS
 62
    7
 10
780.72602615048811
 20
791.14166021491383
 11
780.35784878969355
 21
792.40026334621189
  0
LINE
  8
_0-0_0
  6
CONTINUOUS
 62
    7
 10
780.98228708474653
 20
790.26581954828896
 11
780.82333864150644
 21
790.7913258314278
  0
LINE
  8
_0-0_0
  6
CONTINUOUS
 62
    7
 10
780.82333864150644
 20
790.7913258314278
 11
780.66277067737121
 21
791.32007115635759
  0
LINE
  8
_0-0_0
  6
CONTINUOUS
 62
    7
 10
780.66277067737121
 20
791.32007115635759
 11
780.50220271323565
 21
791.84881648128726
  0
LINE
  8
_0-0_0
  6
CONTINUOUS
 62
    7
 10
780.50220271323565
 20
791.84881648128726
 11
780.34325426999555
 21
792.37431334860685
  0
LINE
  8
_0-0_0
  6
CONTINUOUS
 62
    7
 10
1059.0896354735935
 20
563.45006321433846
 11
1064.179215283244
 21
563.45006321433846
  0
LINE
  8
_0-0_0
  6
CONTINUOUS
 62
    7
 10
1064.179215283244
 20
563.45006321433846
 11
1069.2688045087141
 21
563.45006321433846
  0
LINE
  8
_0-0_0
  6
CONTINUOUS
 62
    7
 10
1069.2688045087141
 20
563.45006321433846
 11
1074.3583843183646
 21
563.45006321433846
  0
LINE
  8
_0-0_0
  6
CONTINUOUS
 62
    7
 10
1074.3583843183646
 20
563.45006321433846
 11
1079.4479641280152
 21
563.45006321433846
  0
LINE
  8
_0-0_0
  6
CONTINUOUS
 62
    7
 10
886.30651031020705
 20
563.45006321433846
 11
917.46359714793471
 21
563.45006321433846
  0
LINE
  8
_0-0_0
  6
CONTINUOUS
 62
    7
 10
917.46359714793471
 20
563.45006321433846
 11
948.620674569843
 21
563.45006321433846
  0
LINE
  8
_0-0_0
  6
CONTINUOUS
 62
    7
 10
948.620674569843
 20
563.45006321433846
 11
979.77775199175107
 21
563.45006321433846
  0
LINE
  8
_0-0_0
  6
CONTINUOUS
 62
    7
 10
979.77775199175107
 20
563.45006321433846
 11
1010.9364583503742
 21
563.45006321433846
  0
LINE
  8
_0-0_0
  6
CONTINUOUS
 62
    7
 10
842.42223019865276
 20
567.33618834551112
 11
849.84900464019859
 21
567.07667895364227
  0
LINE
  8
_0-0_0
  6
CONTINUOUS
 62
    7
 10
849.84900464019859
 20
567.07667895364227
 11
857.27415014502981
 21
566.81716956177343
  0
LINE
  8
_0-0_0
  6
CONTINUOUS
 62
    7
 10
857.27415014502981
 20
566.81716956177343
 11
864.69929564986069
 21
566.55766016990481
  0
LINE
  8
_0-0_0
  6
CONTINUOUS
 62
    7
 10
864.69929564986069
 20
566.55766016990481
 11
872.12607009140675
 21
566.29816019385521
  0
LINE
  8
_0-0_0
  6
CONTINUOUS
 62
    7
 10
783.5303207392725
 20
776.13565038798356
 11
785.98752940218094
 21
729.24270533277672
  0
LINE
  8
_0-0_0
  6
CONTINUOUS
 62
    7
 10
785.98752940218094
 20
729.24270533277672
 11
788.44635758598497
 21
682.35300873518008
  0
LINE
  8
_0-0_0
  6
CONTINUOUS
 62
    7
 10
788.44635758598497
 20
682.35300873518008
 11
790.90519518560814
 21
635.46330272176431
  0
LINE
  8
_0-0_0
  6
CONTINUOUS
 62
    7
 10
790.90519518560814
 20
635.46330272176431
 11
793.36402336941251
 21
588.57035766655758
  0
LINE
  8
_0-0_0
  6
CONTINUOUS
 62
    7
 10
1144.8616183229205
 20
808.74921379665625
 11
1046.7403366859339
 21
808.74921379665625
  0
LINE
  8
_0-0_0
  6
CONTINUOUS
 62
    7
 10
1046.7403366859339
 20
808.74921379665625
 11
948.620674569843
 21
808.74921379665625
  0
LINE
  8
_0-0_0
  6
CONTINUOUS
 62
    7
 10
948.620674569843
 20
808.74921379665625
 11
850.50101245375208
 21
808.74921379665625
  0
LINE
  8
_0-0_0
  6
CONTINUOUS
 62
    7
 10
850.50101245375208
 20
808.74921379665625
 11
752.38135033766082
 21
808.74921379665625
  0
LINE
  8
_0-0_0
  6
CONTINUOUS
 62
    7
 10
1144.8616183229205
 20
808.74921379665625
 11
1145.1389612762782
 21
811.92818266145559
  0
LINE
  8
_0-0_0
  6
CONTINUOUS
 62
    7
 10
1145.1389612762782
 20
811.92818266145559
 11
1145.4179331663508
 21
815.11039056804577
  0
LINE
  8
_0-0_0
  6
CONTINUOUS
 62
    7
 10
1145.4179331663508
 20
815.11039056804577
 11
1145.696905056423
 21
818.29258905881693
  0
LINE
  8
_0-0_0
  6
CONTINUOUS
 62
    7
 10
1145.696905056423
 20
818.29258905881693
 11
1145.9758769464956
 21
821.47155792361605
  0
LINE
  8
_0-0_0
  6
CONTINUOUS
 62
    7
 10
751.26871123498131
 20
821.47155792361605
 11
849.94631713121726
 21
821.47155792361605
  0
LINE
  8
_0-0_0
  6
CONTINUOUS
 62
    7
 10
849.94631713121726
 20
821.47155792361605
 11
948.62229409073825
 21
821.47155792361605
  0
LINE
  8
_0-0_0
  6
CONTINUOUS
 62
    7
 10
948.62229409073825
 20
821.47155792361605
 11
1047.2982710502597
 21
821.47155792361605
  0
LINE
  8
_0-0_0
  6
CONTINUOUS
 62
    7
 10
1047.2982710502597
 20
821.47155792361605
 11
1145.9758769464956
 21
821.47155792361605
  0
LINE
  8
_0-0_0
  6
CONTINUOUS
 62
    7
 10
752.38135033766082
 20
808.74921379665625
 11
752.10237844758853
 21
811.92818266145559
  0
LINE
  8
_0-0_0
  6
CONTINUOUS
 62
    7
 10
752.10237844758853
 20
811.92818266145559
 11
751.82503549423063
 21
815.11039056804577
  0
LINE
  8
_0-0_0
  6
CONTINUOUS
 62
    7
 10
751.82503549423063
 20
815.11039056804577
 11
751.54768312505371
 21
818.29258905881693
  0
LINE
  8
_0-0_0
  6
CONTINUOUS
 62
    7
 10
751.54768312505371
 20
818.29258905881693
 11
751.26871123498131
 21
821.47155792361605
  0
LINE
  8
_0-0_0
  6
CONTINUOUS
 62
    7
 10
846.82411624013355
 20
569.13327275875031
 11
846.38295686503
 21
569.25004774797276
  0
LINE
  8
_0-0_0
  6
CONTINUOUS
 62
    7
 10
846.38295686503
 20
569.25004774797276
 11
845.93854903231636
 21
569.32465869899647
  0
LINE
  8
_0-0_0
  6
CONTINUOUS
 62
    7
 10
845.93854903231636
 20
569.32465869899647
 11
845.48928263691641
 21
569.37007119480518
  0
LINE
  8
_0-0_0
  6
CONTINUOUS
 62
    7
 10
845.48928263691641
 20
569.37007119480518
 11
845.03351932629562
 21
569.40575714942156
  0
LINE
  8
_0-0_0
  6
CONTINUOUS
 62
    7
 10
845.03351932629562
 20
569.40575714942156
 11
844.45125448526039
 21
569.46089618642259
  0
LINE
  8
_0-0_0
  6
CONTINUOUS
 62
    7
 10
844.45125448526039
 20
569.46089618642259
 11
843.86736070751044
 21
569.51604463924275
  0
LINE
  8
_0-0_0
  6
CONTINUOUS
 62
    7
 10
843.86736070751044
 20
569.51604463924275
 11
843.28346692976038
 21
569.5711930920628
  0
LINE
  8
_0-0_0
  6
CONTINUOUS
 62
    7
 10
843.28346692976038
 20
569.5711930920628
 11
842.69958256783002
 21
569.62633212906371
  0
LINE
  8
_0-0_0
  6
CONTINUOUS
 62
    7
 10
781.83216833794734
 20
787.35933507416098
 11
782.103033207723
 21
786.07153348764791
  0
LINE
  8
_0-0_0
  6
CONTINUOUS
 62
    7
 10
782.103033207723
 20
786.07153348764791
 11
782.38200509779563
 21
784.77724440173347
  0
LINE
  8
_0-0_0
  6
CONTINUOUS
 62
    7
 10
782.38200509779563
 20
784.77724440173347
 11
782.64800198906539
 21
783.4797068582086
  0
LINE
  8
_0-0_0
  6
CONTINUOUS
 62
    7
 10
782.64800198906539
 20
783.4797068582086
 11
782.87831292571911
 21
782.18541777229439
  0
LINE
  8
_0-0_0
  6
CONTINUOUS
 62
    7
 10
782.87831292571911
 20
782.18541777229439
 11
782.93508089943475
 21
781.68910994437056
  0
LINE
  8
_0-0_0
  6
CONTINUOUS
 62
    7
 10
782.93508089943475
 20
781.68910994437056
 11
782.99184887315039
 21
781.18955365883676
  0
LINE
  8
_0-0_0
  6
CONTINUOUS
 62
    7
 10
782.99184887315039
 20
781.18955365883676
 11
783.04860743104666
 21
780.69324583091327
  0
LINE
  8
_0-0_0
  6
CONTINUOUS
 62
    7
 10
783.04860743104666
 20
780.69324583091327
 11
783.10537540476264
 21
780.19693800298967
  0
LINE
  8
_0-0_0
  6
CONTINUOUS
 62
    7
 10
783.10537540476264
 20
780.19693800298967
 11
783.22377933069947
 21
779.18485984893869
  0
LINE
  8
_0-0_0
  6
CONTINUOUS
 62
    7
 10
783.22377933069947
 20
779.18485984893869
 11
783.3421832566363
 21
778.16954265309676
  0
LINE
  8
_0-0_0
  6
CONTINUOUS
 62
    7
 10
783.3421832566363
 20
778.16954265309676
 11
783.44760276795182
 21
777.1542160414358
  0
LINE
  8
_0-0_0
  6
CONTINUOUS
 62
    7
 10
783.44760276795182
 20
777.1542160414358
 11
783.5303207392725
 21
776.13565038798356
  0
LINE
  8
_0-0_0
  6
CONTINUOUS
 62
    7
 10
1052.2240438539839
 20
568.8997133644865
 11
1051.6093415159423
 21
569.02947276833061
  0
LINE
  8
_0-0_0
  6
CONTINUOUS
 62
    7
 10
1051.6093415159423
 20
569.02947276833061
 11
1051.3303696258699
 21
569.08461180533141
  0
LINE
  8
_0-0_0
  6
CONTINUOUS
 62
    7
 10
1051.3303696258699
 20
569.08461180533141
 11
1051.0465297572919
 21
569.10407430353519
  0
LINE
  8
_0-0_0
  6
CONTINUOUS
 62
    7
 10
1051.0465297572919
 20
569.10407430353519
 11
1050.4204719413433
 21
569.13327275875031
  0
LINE
  8
_0-0_0
  6
CONTINUOUS
 62
    7
 10
1050.4204719413433
 20
569.13327275875031
 11
1050.8502758385398
 21
569.25004774797276
  0
LINE
  8
_0-0_0
  6
CONTINUOUS
 62
    7
 10
1050.8502758385398
 20
569.25004774797276
 11
1051.2833281933465
 21
569.32465869899647
  0
LINE
  8
_0-0_0
  6
CONTINUOUS
 62
    7
 10
1051.2833281933465
 20
569.32465869899647
 11
1051.7228680475544
 21
569.37007119480518
  0
LINE
  8
_0-0_0
  6
CONTINUOUS
 62
    7
 10
1051.7228680475544
 20
569.37007119480518
 11
1052.1688954011638
 21
569.40575714942156
  0
LINE
  8
_0-0_0
  6
CONTINUOUS
 62
    7
 10
1052.1688954011638
 20
569.40575714942156
 11
1053.1339415385103
 21
569.47063214343405
  0
LINE
  8
_0-0_0
  6
CONTINUOUS
 62
    7
 10
1053.1339415385103
 20
569.47063214343405
 11
1054.0973587391425
 21
569.53875559505673
  0
LINE
  8
_0-0_0
  6
CONTINUOUS
 62
    7
 10
1054.0973587391425
 20
569.53875559505673
 11
1055.0607853555937
 21
569.60686963085993
  0
LINE
  8
_0-0_0
  6
CONTINUOUS
 62
    7
 10
1055.0607853555937
 20
569.60686963085993
 11
1056.0258220771211
 21
569.67175404069178
  0
LINE
  8
_0-0_0
  6
CONTINUOUS
 62
    7
 10
809.39345741248144
 20
570.57678374671241
 11
810.06330820334301
 21
570.61894778491092
  0
LINE
  8
_0-0_0
  6
CONTINUOUS
 62
    7
 10
810.06330820334301
 20
570.61894778491092
 11
810.80615042433283
 21
570.61570874311997
  0
LINE
  8
_0-0_0
  6
CONTINUOUS
 62
    7
 10
810.80615042433283
 20
570.61570874311997
 11
811.51330669070649
 21
570.59299778730588
  0
LINE
  8
_0-0_0
  6
CONTINUOUS
 62
    7
 10
811.51330669070649
 20
570.59299778730588
 11
812.07610903353793
 21
570.58002278850358
  0
LINE
  8
_0-0_0
  6
CONTINUOUS
 62
    7
 10
812.07610903353793
 20
570.58002278850358
 11
816.22498259837027
 21
570.60597278610851
  0
LINE
  8
_0-0_0
  6
CONTINUOUS
 62
    7
 10
816.22498259837027
 20
570.60597278610851
 11
820.40629366020892
 21
570.64489778251607
  0
LINE
  8
_0-0_0
  6
CONTINUOUS
 62
    7
 10
820.40629366020892
 20
570.64489778251607
 11
824.59733126323999
 21
570.64165874072478
  0
LINE
  8
_0-0_0
  6
CONTINUOUS
 62
    7
 10
824.59733126323999
 20
570.64165874072478
 11
828.77215482567738
 21
570.55732124850874
  0
LINE
  8
_0-0_0
  6
CONTINUOUS
 62
    7
 10
828.77215482567738
 20
570.55732124850874
 11
832.25603616233502
 21
570.35619935125112
  0
LINE
  8
_0-0_0
  6
CONTINUOUS
 62
    7
 10
832.25603616233502
 20
570.35619935125112
 11
835.73505893630579
 21
570.0675009199864
  0
LINE
  8
_0-0_0
  6
CONTINUOUS
 62
    7
 10
835.73505893630579
 20
570.0675009199864
 11
839.21245277356218
 21
569.78852902991389
  0
LINE
  8
_0-0_0
  6
CONTINUOUS
 62
    7
 10
839.21245277356218
 20
569.78852902991389
 11
842.69958256783002
 21
569.62633212906371
  0
LINE
  8
_0-0_0
  6
CONTINUOUS
 62
    7
 10
1056.0258220771211
 20
569.67175404069178
 11
1059.128560470001
 21
569.87286652213004
  0
LINE
  8
_0-0_0
  6
CONTINUOUS
 62
    7
 10
1059.128560470001
 20
569.87286652213004
 11
1062.2248019476606
 21
570.13237591399866
  0
LINE
  8
_0-0_0
  6
CONTINUOUS
 62
    7
 10
1062.2248019476606
 20
570.13237591399866
 11
1065.3242918829301
 21
570.38214934885605
  0
LINE
  8
_0-0_0
  6
CONTINUOUS
 62
    7
 10
1065.3242918829301
 20
570.38214934885605
 11
1068.4286497967055
 21
570.55407279089854
  0
LINE
  8
_0-0_0
  6
CONTINUOUS
 62
    7
 10
1068.4286497967055
 20
570.55407279089854
 11
1072.2255600413373
 21
570.63192278371343
  0
LINE
  8
_0-0_0
  6
CONTINUOUS
 62
    7
 10
1072.2255600413373
 20
570.63192278371343
 11
1076.0354452847714
 21
570.62868374192237
  0
LINE
  8
_0-0_0
  6
CONTINUOUS
 62
    7
 10
1076.0354452847714
 20
570.62868374192237
 11
1079.8388524446232
 21
570.58651028790473
  0
LINE
  8
_0-0_0
  6
CONTINUOUS
 62
    7
 10
1079.8388524446232
 20
570.58651028790473
 11
1083.6163001910513
 21
570.5508337491076
  0
LINE
  8
_0-0_0
  6
CONTINUOUS
 62
    7
 10
1083.6163001910513
 20
570.5508337491076
 11
1084.1174759974806
 21
570.54758529149728
  0
LINE
  8
_0-0_0
  6
CONTINUOUS
 62
    7
 10
1084.1174759974806
 20
570.54758529149728
 11
1084.6186518039101
 21
570.54758529149728
  0
LINE
  8
_0-0_0
  6
CONTINUOUS
 62
    7
 10
1084.6186518039101
 20
570.54758529149728
 11
1085.1181986736246
 21
570.54434624970622
  0
LINE
  8
_0-0_0
  6
CONTINUOUS
 62
    7
 10
1085.1181986736246
 20
570.54434624970622
 11
1085.6193744800539
 21
570.54109779209614
  0
LINE
  8
_0-0_0
  6
CONTINUOUS
 62
    7
 10
1085.6193744800539
 20
570.54109779209614
 11
1086.1302768276755
 21
570.5605602902998
  0
LINE
  8
_0-0_0
  6
CONTINUOUS
 62
    7
 10
1086.1302768276755
 20
570.5605602902998
 11
1086.7076831060242
 21
570.59299778730588
  0
LINE
  8
_0-0_0
  6
CONTINUOUS
 62
    7
 10
1086.7076831060242
 20
570.59299778730588
 11
1087.2980643831756
 21
570.60922124371871
  0
LINE
  8
_0-0_0
  6
CONTINUOUS
 62
    7
 10
1087.2980643831756
 20
570.60922124371871
 11
1087.8495112481
 21
570.57678374671241
  0
LINE
  8
_0-0_0
  6
CONTINUOUS
 62
    7
 10
845.01892480659762
 20
568.8997133644865
 11
845.63362714463892
 21
569.02947276833061
  0
LINE
  8
_0-0_0
  6
CONTINUOUS
 62
    7
 10
845.63362714463892
 20
569.02947276833061
 11
845.91422797142604
 21
569.08461180533141
  0
LINE
  8
_0-0_0
  6
CONTINUOUS
 62
    7
 10
845.91422797142604
 20
569.08461180533141
 11
846.19643890328973
 21
569.10407430353519
  0
LINE
  8
_0-0_0
  6
CONTINUOUS
 62
    7
 10
846.19643890328973
 20
569.10407430353519
 11
846.82411624013355
 21
569.13327275875031
  0
LINE
  8
_0-0_0
  6
CONTINUOUS
 62
    7
 10
770.93935553705205
 20
808.48971382060665
 11
770.41709771152352
 21
808.62595130803265
  0
LINE
  8
_0-0_0
  6
CONTINUOUS
 62
    7
 10
770.41709771152352
 20
808.62595130803265
 11
770.17867975457318
 21
808.68109976085293
  0
LINE
  8
_0-0_0
  6
CONTINUOUS
 62
    7
 10
770.17867975457318
 20
808.68109976085293
 11
769.93539381911705
 21
808.70704975845797
  0
LINE
  8
_0-0_0
  6
CONTINUOUS
 62
    7
 10
769.93539381911705
 20
808.70704975845797
 11
769.39853205807151
 21
808.74921379665625
  0
LINE
  8
_0-0_0
  6
CONTINUOUS
 62
    7
 10
844.16903413757768
 20
568.58181647800666
 11
844.43341150795231
 21
568.70508838244939
  0
LINE
  8
_0-0_0
  6
CONTINUOUS
 62
    7
 10
844.43341150795231
 20
568.70508838244939
 11
844.62641696909384
 21
568.77645087586291
  0
LINE
  8
_0-0_0
  6
CONTINUOUS
 62
    7
 10
844.62641696909384
 20
568.77645087586291
 11
844.80158886874665
 21
568.82835087107298
  0
LINE
  8
_0-0_0
  6
CONTINUOUS
 62
    7
 10
844.80158886874665
 20
568.82835087107298
 11
845.01730528570192
 21
568.8997133644865
  0
LINE
  8
_0-0_0
  6
CONTINUOUS
 62
    7
 10
1054.5596095491644
 20
567.60867273618237
 11
1054.0000462481239
 21
568.01090711487836
  0
LINE
  8
_0-0_0
  6
CONTINUOUS
 62
    7
 10
1054.0000462481239
 20
568.01090711487836
 11
1053.4437314046936
 21
568.34826649956187
  0
LINE
  8
_0-0_0
  6
CONTINUOUS
 62
    7
 10
1053.4437314046936
 20
568.34826649956187
 11
1052.8630766687345
 21
568.64021338843702
  0
LINE
  8
_0-0_0
  6
CONTINUOUS
 62
    7
 10
1052.8630766687345
 20
568.64021338843702
 11
1052.2256633748793
 21
568.8997133644865
  0
LINE
  8
_0-0_0
  6
CONTINUOUS
 62
    7
 10
1055.1710728454148
 20
566.97287896322234
 11
1055.3008228334395
 21
566.79121956416861
  0
LINE
  8
_0-0_0
  6
CONTINUOUS
 62
    7
 10
1055.3008228334395
 20
566.79121956416861
 11
1055.4305822372835
 21
566.6063211233236
  0
LINE
  8
_0-0_0
  6
CONTINUOUS
 62
    7
 10
1055.4305822372835
 20
566.6063211233236
 11
1055.5603322253082
 21
566.42142268247881
  0
LINE
  8
_0-0_0
  6
CONTINUOUS
 62
    7
 10
1055.5603322253082
 20
566.42142268247881
 11
1055.6900916291522
 21
566.2397726992441
  0
LINE
  8
_0-0_0
  6
CONTINUOUS
 62
    7
 10
1055.1710728454148
 20
566.97287896322234
 11
1055.029967379483
 21
567.1350664482535
  0
LINE
  8
_0-0_0
  6
CONTINUOUS
 62
    7
 10
1055.029967379483
 20
567.1350664482535
 11
1054.8661509577373
 21
567.31672584730734
  0
LINE
  8
_0-0_0
  6
CONTINUOUS
 62
    7
 10
1054.8661509577373
 20
567.31672584730734
 11
1054.7007150150962
 21
567.48540083173953
  0
LINE
  8
_0-0_0
  6
CONTINUOUS
 62
    7
 10
1054.7007150150962
 20
567.48540083173953
 11
1054.5596095491644
 21
567.60867273618237
  0
LINE
  8
_0-0_0
  6
CONTINUOUS
 62
    7
 10
1086.7920205982405
 20
570.22968840501733
 11
1086.2681432518164
 21
569.97342747075879
  0
LINE
  8
_0-0_0
  6
CONTINUOUS
 62
    7
 10
1086.2681432518164
 20
569.97342747075879
 11
1085.8075119626899
 21
569.73338057709373
  0
LINE
  8
_0-0_0
  6
CONTINUOUS
 62
    7
 10
1085.8075119626899
 20
569.73338057709373
 11
1085.3631135457954
 21
569.45765714463153
  0
LINE
  8
_0-0_0
  6
CONTINUOUS
 62
    7
 10
1085.3631135457954
 20
569.45765714463153
 11
1084.884639279361
 21
569.10083526174412
  0
LINE
  8
_0-0_0
  6
CONTINUOUS
 62
    7
 10
1084.884639279361
 20
569.10083526174412
 11
1084.6835267979225
 21
568.91268836328902
  0
LINE
  8
_0-0_0
  6
CONTINUOUS
 62
    7
 10
1084.6835267979225
 20
568.91268836328902
 11
1084.4824049006647
 21
568.727789922444
  0
LINE
  8
_0-0_0
  6
CONTINUOUS
 62
    7
 10
1084.4824049006647
 20
568.727789922444
 11
1084.2812924192262
 21
568.54289148159933
  0
LINE
  8
_0-0_0
  6
CONTINUOUS
 62
    7
 10
1084.2812924192262
 20
568.54289148159933
 11
1084.0801705219687
 21
568.35475399896325
  0
LINE
  8
_0-0_0
  6
CONTINUOUS
 62
    7
 10
1116.8997143905858
 20
792.3710743068159
 11
1117.365213658218
 21
793.61670243931144
  0
LINE
  8
_0-0_0
  6
CONTINUOUS
 62
    7
 10
1117.365213658218
 20
793.61670243931144
 11
1117.8274550524206
 21
794.87207594463769
  0
LINE
  8
_0-0_0
  6
CONTINUOUS
 62
    7
 10
1117.8274550524206
 20
794.87207594463769
 11
1118.3026808612451
 21
796.12095253474331
  0
LINE
  8
_0-0_0
  6
CONTINUOUS
 62
    7
 10
1118.3026808612451
 20
796.12095253474331
 11
1118.808715230361
 21
797.35036662664538
  0
LINE
  8
_0-0_0
  6
CONTINUOUS
 62
    7
 10
1118.808715230361
 20
797.35036662664538
 11
1119.0292996258222
 21
797.79801350115008
  0
LINE
  8
_0-0_0
  6
CONTINUOUS
 62
    7
 10
1119.0292996258222
 20
797.79801350115008
 11
1119.2498840212834
 21
798.24890883326498
  0
LINE
  8
_0-0_0
  6
CONTINUOUS
 62
    7
 10
1119.2498840212834
 20
798.24890883326498
 11
1119.4704590009255
 21
798.69980416537999
  0
LINE
  8
_0-0_0
  6
CONTINUOUS
 62
    7
 10
1119.4704590009255
 20
798.69980416537999
 11
1119.6894238754912
 21
799.14745103988469
  0
LINE
  8
_0-0_0
  6
CONTINUOUS
 62
    7
 10
1119.6894238754912
 20
799.14745103988469
 11
1119.830529341423
 21
799.43291042935834
  0
LINE
  8
_0-0_0
  6
CONTINUOUS
 62
    7
 10
1119.830529341423
 20
799.43291042935834
 11
1119.9700152864593
 21
799.718369818832
  0
LINE
  8
_0-0_0
  6
CONTINUOUS
 62
    7
 10
1119.9700152864593
 20
799.718369818832
 11
1120.1095012314956
 21
800.00382920830577
  0
LINE
  8
_0-0_0
  6
CONTINUOUS
 62
    7
 10
1120.1095012314956
 20
800.00382920830577
 11
1120.248987176532
 21
800.28927918196041
  0
LINE
  8
_0-0_0
  6
CONTINUOUS
 62
    7
 10
1120.248987176532
 20
800.28927918196041
 11
1120.4695621561741
 21
800.74017451407508
  0
LINE
  8
_0-0_0
  6
CONTINUOUS
 62
    7
 10
1120.4695621561741
 20
800.74017451407508
 11
1120.6901465516353
 21
801.19106984619009
  0
LINE
  8
_0-0_0
  6
CONTINUOUS
 62
    7
 10
1120.6901465516353
 20
801.19106984619009
 11
1120.9107309470965
 21
801.63871672069502
  0
LINE
  8
_0-0_0
  6
CONTINUOUS
 62
    7
 10
1120.9107309470965
 20
801.63871672069502
 11
1121.1296864058434
 21
802.08961205280968
  0
LINE
  8
_0-0_0
  6
CONTINUOUS
 62
    7
 10
1121.1296864058434
 20
802.08961205280968
 11
1121.7816942193965
 21
803.23468865249561
  0
LINE
  8
_0-0_0
  6
CONTINUOUS
 62
    7
 10
1121.7816942193965
 20
803.23468865249561
 11
1122.4693879875665
 21
804.36354179576881
  0
LINE
  8
_0-0_0
  6
CONTINUOUS
 62
    7
 10
1122.4693879875665
 20
804.36354179576881
 11
1123.1684372336431
 21
805.48915589725129
  0
LINE
  8
_0-0_0
  6
CONTINUOUS
 62
    7
 10
1123.1684372336431
 20
805.48915589725129
 11
1123.8577505227086
 21
806.60828249933218
  0
LINE
  8
_0-0_0
  6
CONTINUOUS
 62
    7
 10
1116.8997143905858
 20
792.3710743068159
 11
1116.518571446808
 21
791.11894925910008
  0
LINE
  8
_0-0_0
  6
CONTINUOUS
 62
    7
 10
1116.518571446808
 20
791.11894925910008
 11
1116.1276831301998
 21
789.87331171078517
  0
LINE
  8
_0-0_0
  6
CONTINUOUS
 62
    7
 10
1116.1276831301998
 20
789.87331171078517
 11
1115.7513987491088
 21
788.62119607888849
  0
LINE
  8
_0-0_0
  6
CONTINUOUS
 62
    7
 10
1115.7513987491088
 20
788.62119607888849
 11
1115.410800322634
 21
787.35933507416098
  0
LINE
  8
_0-0_0
  6
CONTINUOUS
 62
    7
 10
1115.410800322634
 20
787.35933507416098
 11
1115.311858894901
 21
786.86951474563875
  0
LINE
  8
_0-0_0
  6
CONTINUOUS
 62
    7
 10
1115.311858894901
 20
786.86951474563875
 11
1115.211297946272
 21
786.37970383293555
  0
LINE
  8
_0-0_0
  6
CONTINUOUS
 62
    7
 10
1115.211297946272
 20
786.37970383293555
 11
1115.112365934358
 21
785.88663504680289
  0
LINE
  8
_0-0_0
  6
CONTINUOUS
 62
    7
 10
1115.112365934358
 20
785.88663504680289
 11
1115.0134245066247
 21
785.39681471828044
  0
LINE
  8
_0-0_0
  6
CONTINUOUS
 62
    7
 10
1115.0134245066247
 20
785.39681471828044
 11
1114.9501690335078
 21
785.08216628941057
  0
LINE
  8
_0-0_0
  6
CONTINUOUS
 62
    7
 10
1114.9501690335078
 20
785.08216628941057
 11
1114.8869135603909
 21
784.77075690233221
  0
LINE
  8
_0-0_0
  6
CONTINUOUS
 62
    7
 10
1114.8869135603909
 20
784.77075690233221
 11
1114.8252870239887
 21
784.45934751525351
  0
LINE
  8
_0-0_0
  6
CONTINUOUS
 62
    7
 10
1114.8252870239887
 20
784.45934751525351
 11
1114.7620315508718
 21
784.14793812817493
  0
LINE
  8
_0-0_0
  6
CONTINUOUS
 62
    7
 10
1114.7620315508718
 20
784.14793812817493
 11
1114.6630901231385
 21
783.65811779965247
  0
LINE
  8
_0-0_0
  6
CONTINUOUS
 62
    7
 10
1114.6630901231385
 20
783.65811779965247
 11
1114.5641581112245
 21
783.1682974711299
  0
LINE
  8
_0-0_0
  6
CONTINUOUS
 62
    7
 10
1114.5641581112245
 20
783.1682974711299
 11
1114.465216683491
 21
782.67523810081673
  0
LINE
  8
_0-0_0
  6
CONTINUOUS
 62
    7
 10
1114.465216683491
 20
782.67523810081673
 11
1114.366284671577
 21
782.18541777229439
  0
LINE
  8
_0-0_0
  6
CONTINUOUS
 62
    7
 10
1114.366284671577
 20
782.18541777229439
 11
1114.3095166978615
 21
781.68910994437056
  0
LINE
  8
_0-0_0
  6
CONTINUOUS
 62
    7
 10
1114.3095166978615
 20
781.68910994437056
 11
1114.2527487241457
 21
781.18955365883676
  0
LINE
  8
_0-0_0
  6
CONTINUOUS
 62
    7
 10
1114.2527487241457
 20
781.18955365883676
 11
1114.1959807504302
 21
780.69324583091327
  0
LINE
  8
_0-0_0
  6
CONTINUOUS
 62
    7
 10
1114.1959807504302
 20
780.69324583091327
 11
1114.1392127767144
 21
780.19693800298967
  0
LINE
  8
_0-0_0
  6
CONTINUOUS
 62
    7
 10
1114.1392127767144
 20
780.19693800298967
 11
1113.993239332277
 21
778.88318641887145
  0
LINE
  8
_0-0_0
  6
CONTINUOUS
 62
    7
 10
1113.993239332277
 20
778.88318641887145
 11
1113.860240886642
 21
777.57267387654429
  0
LINE
  8
_0-0_0
  6
CONTINUOUS
 62
    7
 10
1113.860240886642
 20
777.57267387654429
 11
1113.7483244601062
 21
776.26216133421735
  0
LINE
  8
_0-0_0
  6
CONTINUOUS
 62
    7
 10
1113.7483244601062
 20
776.26216133421735
 11
1113.6623674469945
 21
774.94192225069787
  0
LINE
  8
_0-0_0
  6
CONTINUOUS
 62
    7
 10
1113.6623674469945
 20
774.94192225069787
 11
1111.2440837804934
 21
728.85020691109219
  0
LINE
  8
_0-0_0
  6
CONTINUOUS
 62
    7
 10
1111.2440837804934
 20
728.85020691109219
 11
1108.8241805930968
 21
682.75848215566725
  0
LINE
  8
_0-0_0
  6
CONTINUOUS
 62
    7
 10
1108.8241805930968
 20
682.75848215566725
 11
1106.4042774057002
 21
636.66352777427028
  0
LINE
  8
_0-0_0
  6
CONTINUOUS
 62
    7
 10
1106.4042774057002
 20
636.66352777427028
 11
1103.9843742183034
 21
590.57181243466459
  0
LINE
  8
_0-0_0
  6
CONTINUOUS
 62
    7
 10
1103.9843742183034
 20
590.57181243466459
 11
1103.9584242206986
 21
590.06901710733973
  0
LINE
  8
_0-0_0
  6
CONTINUOUS
 62
    7
 10
1103.9584242206986
 20
590.06901710733973
 11
1103.9324742230935
 21
589.56946082180593
  0
LINE
  8
_0-0_0
  6
CONTINUOUS
 62
    7
 10
1103.9324742230935
 20
589.56946082180593
 11
1103.9065148096695
 21
589.06991395209138
  0
LINE
  8
_0-0_0
  6
CONTINUOUS
 62
    7
 10
1103.9065148096695
 20
589.06991395209138
 11
1103.8805648120647
 21
588.57035766655758
  0
LINE
  8
_0-0_0
  6
CONTINUOUS
 62
    7
 10
1103.6324108981025
 20
586.26399042659204
 11
1103.7216163688245
 21
586.99385764877968
  0
LINE
  8
_0-0_0
  6
CONTINUOUS
 62
    7
 10
1103.7216163688245
 20
586.99385764877968
 11
1103.7994757774586
 21
587.72371545514784
  0
LINE
  8
_0-0_0
  6
CONTINUOUS
 62
    7
 10
1103.7994757774586
 20
587.72371545514784
 11
1103.864350771471
 21
588.45682171912631
  0
LINE
  8
_0-0_0
  6
CONTINUOUS
 62
    7
 10
1103.864350771471
 20
588.45682171912631
 11
1103.9113827881752
 21
589.18668894131361
  0
LINE
  8
_0-0_0
  6
CONTINUOUS
 62
    7
 10
1082.3998610979518
 20
565.56180547226654
 11
1082.5069095459819
 21
565.81157890712393
  0
LINE
  8
_0-0_0
  6
CONTINUOUS
 62
    7
 10
1082.5069095459819
 20
565.81157890712393
 11
1082.6139579940118
 21
566.06460079959129
  0
LINE
  8
_0-0_0
  6
CONTINUOUS
 62
    7
 10
1082.6139579940118
 20
566.06460079959129
 11
1082.7210064420419
 21
566.3176226920591
  0
LINE
  8
_0-0_0
  6
CONTINUOUS
 62
    7
 10
1082.7210064420419
 20
566.3176226920591
 11
1082.8280454742528
 21
566.57063516870733
  0
LINE
  8
_0-0_0
  6
CONTINUOUS
 62
    7
 10
1082.8280454742528
 20
566.57063516870733
 11
1083.1248603416334
 21
567.11236490825877
  0
LINE
  8
_0-0_0
  6
CONTINUOUS
 62
    7
 10
1083.1248603416334
 20
567.11236490825877
 11
1083.3924767537992
 21
567.51135082934468
  0
LINE
  8
_0-0_0
  6
CONTINUOUS
 62
    7
 10
1083.3924767537992
 20
567.51135082934468
 11
1083.6909111420753
 21
567.88439616864468
  0
LINE
  8
_0-0_0
  6
CONTINUOUS
 62
    7
 10
1083.6909111420753
 20
567.88439616864468
 11
1084.0801705219687
 21
568.35475399896325
  0
LINE
  8
_0-0_0
  6
CONTINUOUS
 62
    7
 10
1055.6900916291522
 20
566.2397726992441
 11
1055.8538986350786
 21
565.92187581276403
  0
LINE
  8
_0-0_0
  6
CONTINUOUS
 62
    7
 10
1055.8538986350786
 20
565.92187581276403
 11
1056.0177150568245
 21
565.60397892628407
  0
LINE
  8
_0-0_0
  6
CONTINUOUS
 62
    7
 10
1056.0177150568245
 20
565.60397892628407
 11
1056.1799025418554
 21
565.28608203980434
  0
LINE
  8
_0-0_0
  6
CONTINUOUS
 62
    7
 10
1056.1799025418554
 20
565.28608203980434
 11
1056.3437189636013
 21
564.96818515332438
  0
LINE
  8
_0-0_0
  6
CONTINUOUS
 62
    7
 10
817.79500453256628
 20
563.45006321433846
 11
818.29617092317631
 21
563.45006321433846
  0
LINE
  8
_0-0_0
  6
CONTINUOUS
 62
    7
 10
818.29617092317631
 20
563.45006321433846
 11
818.79572720871022
 21
563.45006321433846
  0
LINE
  8
_0-0_0
  6
CONTINUOUS
 62
    7
 10
818.79572720871022
 20
563.45006321433846
 11
819.29689359932024
 21
563.45006321433846
  0
LINE
  8
_0-0_0
  6
CONTINUOUS
 62
    7
 10
819.29689359932024
 20
563.45006321433846
 11
819.79806940574963
 21
563.45006321433846
  0
LINE
  8
_0-0_0
  6
CONTINUOUS
 62
    7
 10
819.79806940574963
 20
563.45006321433846
 11
823.88530701836078
 21
563.45006321433846
  0
LINE
  8
_0-0_0
  6
CONTINUOUS
 62
    7
 10
823.88530701836078
 20
563.45006321433846
 11
827.97416415186763
 21
563.45006321433846
  0
LINE
  8
_0-0_0
  6
CONTINUOUS
 62
    7
 10
827.97416415186763
 20
563.45006321433846
 11
832.06303070119316
 21
563.45006321433846
  0
LINE
  8
_0-0_0
  6
CONTINUOUS
 62
    7
 10
832.06303070119316
 20
563.45006321433846
 11
836.1502683138043
 21
563.45006321433846
  0
LINE
  8
_0-0_0
  6
CONTINUOUS
 62
    7
 10
836.1502683138043
 20
563.45006321433846
 11
836.65144412023369
 21
563.45006321433846
  0
LINE
  8
_0-0_0
  6
CONTINUOUS
 62
    7
 10
836.65144412023369
 20
563.45006321433846
 11
837.15261051084394
 21
563.45006321433846
  0
LINE
  8
_0-0_0
  6
CONTINUOUS
 62
    7
 10
837.15261051084394
 20
563.45006321433846
 11
837.65216679637763
 21
563.45006321433846
  0
LINE
  8
_0-0_0
  6
CONTINUOUS
 62
    7
 10
837.65216679637763
 20
563.45006321433846
 11
838.15333318698788
 21
563.45006321433846
  0
LINE
  8
_0-0_0
  6
CONTINUOUS
 62
    7
 10
838.15333318698788
 20
563.45006321433846
 11
838.28471211172723
 21
563.46303821314075
  0
LINE
  8
_0-0_0
  6
CONTINUOUS
 62
    7
 10
838.28471211172723
 20
563.46303821314075
 11
838.41771055736228
 21
563.47277417015221
  0
LINE
  8
_0-0_0
  6
CONTINUOUS
 62
    7
 10
838.41771055736228
 20
563.47277417015221
 11
838.55070900299734
 21
563.48250071134453
  0
LINE
  8
_0-0_0
  6
CONTINUOUS
 62
    7
 10
838.55070900299734
 20
563.48250071134453
 11
838.68370744863216
 21
563.49547571014705
  0
LINE
  8
_0-0_0
  6
CONTINUOUS
 62
    7
 10
810.45094806234101
 20
570.22968840501733
 11
810.65692852228506
 21
570.12912745638869
  0
LINE
  8
_0-0_0
  6
CONTINUOUS
 62
    7
 10
810.65692852228506
 20
570.12912745638869
 11
810.86128946133397
 21
570.02857592357884
  0
LINE
  8
_0-0_0
  6
CONTINUOUS
 62
    7
 10
810.86128946133397
 20
570.02857592357884
 11
811.06565040038231
 21
569.93125401674115
  0
LINE
  8
_0-0_0
  6
CONTINUOUS
 62
    7
 10
811.06565040038231
 20
569.93125401674115
 11
811.27002075525024
 21
569.83070248393165
  0
LINE
  8
_0-0_0
  6
CONTINUOUS
 62
    7
 10
811.27002075525024
 20
569.83070248393165
 11
811.31543325105883
 21
569.80799152811755
  0
LINE
  8
_0-0_0
  6
CONTINUOUS
 62
    7
 10
811.31543325105883
 20
569.80799152811755
 11
811.36084574686765
 21
569.78204153051274
  0
LINE
  8
_0-0_0
  6
CONTINUOUS
 62
    7
 10
811.36084574686765
 20
569.78204153051274
 11
811.40625824267647
 21
569.7560915329077
  0
LINE
  8
_0-0_0
  6
CONTINUOUS
 62
    7
 10
811.40625824267647
 20
569.7560915329077
 11
811.45005121758959
 21
569.73014153530278
  0
LINE
  8
_0-0_0
  6
CONTINUOUS
 62
    7
 10
793.32833741479601
 20
589.24507643592483
 11
793.37699836821503
 21
588.49899517314395
  0
LINE
  8
_0-0_0
  6
CONTINUOUS
 62
    7
 10
793.37699836821503
 20
588.49899517314395
 11
793.44025384133192
 21
587.75291391036296
  0
LINE
  8
_0-0_0
  6
CONTINUOUS
 62
    7
 10
793.44025384133192
 20
587.75291391036296
 11
793.51972335504217
 21
587.00683264758209
  0
LINE
  8
_0-0_0
  6
CONTINUOUS
 62
    7
 10
793.51972335504217
 20
587.00683264758209
 11
793.61055776247883
 21
586.26399042659204
  0
LINE
  8
_0-0_0
  6
CONTINUOUS
 62
    7
 10
780.43569878250867
 20
792.12777895554052
 11
780.79252066539607
 21
790.94377735944727
  0
LINE
  8
_0-0_0
  6
CONTINUOUS
 62
    7
 10
780.79252066539607
 20
790.94377735944727
 11
781.1590785052947
 21
789.75004922216158
  0
LINE
  8
_0-0_0
  6
CONTINUOUS
 62
    7
 10
781.1590785052947
 20
789.75004922216158
 11
781.51265193057168
 21
788.55307262726569
  0
LINE
  8
_0-0_0
  6
CONTINUOUS
 62
    7
 10
781.51265193057168
 20
788.55307262726569
 11
781.83216833794734
 21
787.35933507416098
  0
LINE
  8
_0-0_0
  6
CONTINUOUS
 62
    7
 10
781.83216833794734
 20
787.35933507416098
 11
781.93110976568062
 21
786.86951474563875
  0
LINE
  8
_0-0_0
  6
CONTINUOUS
 62
    7
 10
781.93110976568062
 20
786.86951474563875
 11
782.03004177759465
 21
786.37970383293555
  0
LINE
  8
_0-0_0
  6
CONTINUOUS
 62
    7
 10
782.03004177759465
 20
786.37970383293555
 11
782.1306027262234
 21
785.88663504680289
  0
LINE
  8
_0-0_0
  6
CONTINUOUS
 62
    7
 10
782.1306027262234
 20
785.88663504680289
 11
782.22954415395679
 21
785.39681471828044
  0
LINE
  8
_0-0_0
  6
CONTINUOUS
 62
    7
 10
782.22954415395679
 20
785.39681471828044
 11
782.29279962707369
 21
785.08216628941057
  0
LINE
  8
_0-0_0
  6
CONTINUOUS
 62
    7
 10
782.29279962707369
 20
785.08216628941057
 11
782.35442616347586
 21
784.77075690233221
  0
LINE
  8
_0-0_0
  6
CONTINUOUS
 62
    7
 10
782.35442616347586
 20
784.77075690233221
 11
782.41768163659276
 21
784.45934751525351
  0
LINE
  8
_0-0_0
  6
CONTINUOUS
 62
    7
 10
782.41768163659276
 20
784.45934751525351
 11
782.48093710970966
 21
784.14793812817493
  0
LINE
  8
_0-0_0
  6
CONTINUOUS
 62
    7
 10
782.48093710970966
 20
784.14793812817493
 11
782.57987853744294
 21
783.65811779965247
  0
LINE
  8
_0-0_0
  6
CONTINUOUS
 62
    7
 10
782.57987853744294
 20
783.65811779965247
 11
782.67881054935697
 21
783.1682974711299
  0
LINE
  8
_0-0_0
  6
CONTINUOUS
 62
    7
 10
782.67881054935697
 20
783.1682974711299
 11
782.77775197709036
 21
782.67523810081673
  0
LINE
  8
_0-0_0
  6
CONTINUOUS
 62
    7
 10
782.77775197709036
 20
782.67523810081673
 11
782.87668398900439
 21
782.18541777229439
  0
LINE
  8
_0-0_0
  6
CONTINUOUS
 62
    7
 10
782.87668398900439
 20
782.18541777229439
 11
783.05834338805835
 21
780.88463177115955
  0
LINE
  8
_0-0_0
  6
CONTINUOUS
 62
    7
 10
783.05834338805835
 20
780.88463177115955
 11
783.20431683249569
 21
779.56763172943113
  0
LINE
  8
_0-0_0
  6
CONTINUOUS
 62
    7
 10
783.20431683249569
 20
779.56763172943113
 11
783.33731527813075
 21
778.25064110352196
  0
LINE
  8
_0-0_0
  6
CONTINUOUS
 62
    7
 10
783.33731527813075
 20
778.25064110352196
 11
783.47518170227158
 21
776.9401285611948
  0
LINE
  8
_0-0_0
  6
CONTINUOUS
 62
    7
 10
773.3868376587684
 20
806.60828249933218
 11
774.07453142693828
 21
805.48915589725129
  0
LINE
  8
_0-0_0
  6
CONTINUOUS
 62
    7
 10
774.07453142693828
 20
805.48915589725129
 11
774.77358067301498
 21
804.36354179576881
  0
LINE
  8
_0-0_0
  6
CONTINUOUS
 62
    7
 10
774.77358067301498
 20
804.36354179576881
 11
775.45964550447013
 21
803.23468865249561
  0
LINE
  8
_0-0_0
  6
CONTINUOUS
 62
    7
 10
775.45964550447013
 20
803.23468865249561
 11
776.11166273384254
 21
802.09286051042
  0
LINE
  8
_0-0_0
  6
CONTINUOUS
 62
    7
 10
776.11166273384254
 20
802.09286051042
 11
776.3322377134848
 21
801.64520422009628
  0
LINE
  8
_0-0_0
  6
CONTINUOUS
 62
    7
 10
776.3322377134848
 20
801.64520422009628
 11
776.55282210894609
 21
801.1943183038004
  0
LINE
  8
_0-0_0
  6
CONTINUOUS
 62
    7
 10
776.55282210894609
 20
801.1943183038004
 11
776.77340650440738
 21
800.7434229716855
  0
LINE
  8
_0-0_0
  6
CONTINUOUS
 62
    7
 10
776.77340650440738
 20
800.7434229716855
 11
776.99398148404964
 21
800.29576668136178
  0
LINE
  8
_0-0_0
  6
CONTINUOUS
 62
    7
 10
776.99398148404964
 20
800.29576668136178
 11
777.13509636580045
 21
800.01031670770715
  0
LINE
  8
_0-0_0
  6
CONTINUOUS
 62
    7
 10
777.13509636580045
 20
800.01031670770715
 11
777.27458231083676
 21
799.72485731823349
  0
LINE
  8
_0-0_0
  6
CONTINUOUS
 62
    7
 10
777.27458231083676
 20
799.72485731823349
 11
777.41405884005371
 21
799.43939792875949
  0
LINE
  8
_0-0_0
  6
CONTINUOUS
 62
    7
 10
777.41405884005371
 20
799.43939792875949
 11
777.55517372180475
 21
799.150699497495
  0
LINE
  8
_0-0_0
  6
CONTINUOUS
 62
    7
 10
777.55517372180475
 20
799.150699497495
 11
777.77574870144679
 21
798.69980416537999
  0
LINE
  8
_0-0_0
  6
CONTINUOUS
 62
    7
 10
777.77574870144679
 20
798.69980416537999
 11
777.9963330969083
 21
798.25214787505615
  0
LINE
  8
_0-0_0
  6
CONTINUOUS
 62
    7
 10
777.9963330969083
 20
798.25214787505615
 11
778.21691749236959
 21
797.80126195876039
  0
LINE
  8
_0-0_0
  6
CONTINUOUS
 62
    7
 10
778.21691749236959
 20
797.80126195876039
 11
778.43749247201163
 21
797.35036662664538
  0
LINE
  8
_0-0_0
  6
CONTINUOUS
 62
    7
 10
778.43749247201163
 20
797.35036662664538
 11
778.9435362569468
 21
796.13716657533689
  0
LINE
  8
_0-0_0
  6
CONTINUOUS
 62
    7
 10
778.9435362569468
 20
796.13716657533689
 11
779.42038158666651
 21
794.89802594224273
  0
LINE
  8
_0-0_0
  6
CONTINUOUS
 62
    7
 10
779.42038158666651
 20
794.89802594224273
 11
779.8826229808692
 21
793.6588758933292
  0
LINE
  8
_0-0_0
  6
CONTINUOUS
 62
    7
 10
779.8826229808692
 20
793.6588758933292
 11
780.34974176939681
 21
792.42621334381681
  0
LINE
  8
_0-0_0
  6
CONTINUOUS
 62
    7
 10
1025.1168985691747
 20
566.29816019385521
 11
1032.5420440740058
 21
566.55766016990481
  0
LINE
  8
_0-0_0
  6
CONTINUOUS
 62
    7
 10
1032.5420440740058
 20
566.55766016990481
 11
1039.9688185155517
 21
566.81716956177343
  0
LINE
  8
_0-0_0
  6
CONTINUOUS
 62
    7
 10
1039.9688185155517
 20
566.81716956177343
 11
1047.3955929570975
 21
567.07667895364227
  0
LINE
  8
_0-0_0
  6
CONTINUOUS
 62
    7
 10
1047.3955929570975
 20
567.07667895364227
 11
1054.8207384619286
 21
567.33618834551112
  0
LINE
  8
_0-1_DEFPOINTS
  6
CONTINUOUS
 62
    7
 10
1259.5590744110307
 20
821.53968137523862
 11
1259.5590744110307
 21
563.45006321433846
  0
LINE
  8
_0-1_DEFPOINTS
  6
CONTINUOUS
 62
    7
 10
1259.5590744110307
 20
821.53968137523862
 11
1261.2955561876997
 21
811.69160384511656
  0
LINE
  8
_0-1_DEFPOINTS
  6
CONTINUOUS
 62
    7
 10
1259.5590744110307
 20
563.45006321433846
 11
1257.8225926343614
 21
573.29814074446051
  0
LINE
  8
_0-1_DEFPOINTS
  6
CONTINUOUS
 62
    7
 10
1259.5590744110307
 20
563.45006321433846
 11
1261.2955561876997
 21
573.29814074446051
  0
LINE
  8
_0-1_DEFPOINTS
  6
CONTINUOUS
 62
    7
 10
1259.5590744110307
 20
821.53968137523862
 11
1210.5273629610183
 21
821.53968137523862
  0
TEXT
  8
_0-1_DEFPOINTS
 62
    7
 10
1254.5590744110307
 20
673.74487229478859
 40
30
 41
1
 50
90
  1
257
  0
LINE
  8
_0-1_DEFPOINTS
  6
CONTINUOUS
 62
    7
 10
1210.5273629610183
 20
809.00872318852521
 11
1212.2638447376878
 21
799.16064565840315
  0
LINE
  8
_0-1_DEFPOINTS
  6
CONTINUOUS
 62
    7
 10
1210.5273629610183
 20
809.00872318852521
 11
1208.790881184349
 21
799.16064565840315
  0
LINE
  8
_0-1_DEFPOINTS
  6
CONTINUOUS
 62
    7
 10
1210.5273629610183
 20
821.53968137523862
 11
1212.2638447376878
 21
831.38775890536078
  0
LINE
  8
_0-1_DEFPOINTS
  6
CONTINUOUS
 62
    7
 10
1210.5273629610183
 20
821.53968137523862
 11
1208.790881184349
 21
831.38775890536078
  0
LINE
  8
_0-1_DEFPOINTS
  6
CONTINUOUS
 62
    7
 10
1210.5273629610183
 20
809.00872318852521
 11
1144.8616183229205
 21
809.00872318852521
  0
LINE
  8
_0-1_DEFPOINTS
  6
CONTINUOUS
 62
    7
 10
1210.5273629610183
 20
821.53968137523862
 11
1145.9758769464956
 21
821.53968137523862
  0
LINE
  8
_0-1_DEFPOINTS
  6
CONTINUOUS
 62
    7
 10
1210.5273629610183
 20
854.14114973264577
 11
1210.5273629610183
 21
762.69526182101106
  0
LINE
  8
_0-1_DEFPOINTS
  6
CONTINUOUS
 62
    7
 10
751.26871123498131
 20
865.90508793252548
 11
1145.9758769464956
 21
865.90508793252548
  0
LINE
  8
_0-1_DEFPOINTS
  6
CONTINUOUS
 62
    7
 10
751.26871123498131
 20
865.90508793252548
 11
761.11678876510337
 21
867.64156970919487
  0
LINE
  8
_0-1_DEFPOINTS
  6
CONTINUOUS
 62
    7
 10
751.26871123498131
 20
865.90508793252548
 11
761.11678876510337
 21
864.16860615585631
  0
LINE
  8
_0-1_DEFPOINTS
  6
CONTINUOUS
 62
    7
 10
1145.9758769464956
 20
865.90508793252548
 11
1136.1277994163738
 21
864.16860615585631
  0
LINE
  8
_0-1_DEFPOINTS
  6
CONTINUOUS
 62
    7
 10
1145.9758769464956
 20
865.90508793252548
 11
1136.1277994163738
 21
867.64156970919487
  0
TEXT
  8
_0-1_DEFPOINTS
 62
    7
 10
929.87229409073848
 20
870.90508793252548
 40
30
 41
1
 50
0
  1
394
  0
LINE
  8
_0-1_DEFPOINTS
  6
CONTINUOUS
 62
    7
 10
751.26871123498131
 20
865.90508793252548
 11
751.26871123498131
 21
828.43232104799404
  0
LINE
  8
_0-1_DEFPOINTS
  6
CONTINUOUS
 62
    7
 10
1145.9758769464956
 20
865.90508793252548
 11
1145.9758769464956
 21
828.43232104799404
  0
LINE
  8
_0-1_DEFPOINTS
  6
CONTINUOUS
 62
    7
 10
1259.5590744110307
 20
563.45006321433846
 11
1079.4463446071197
 21
563.45006321433846
  0
TEXT
  8
_0-1_DEFPOINTS
 62
    7
 10
1207.3341805858149
 20
763.56690481445935
 40
30
 41
1
 50
90
  1
13
  0
LINE
  8
_0-1_DEFPOINTS
  6
CENTER1
 62
    7
 10
948.797465996553
 20
639.66732473941693
 11
948.797465996553
 21
496.51343793357972
  0
LINE
  8
_0-1_DEFPOINTS
  6
CENTER1
 62
    7
 10
1070.7836685742705
 20
1408.050767273091
 11
873.97860127132708
 21
1408.050767273091
  0
LINE
  8
_0-0_0
  6
CONTINUOUS
 62
    7
 10
1082.169550161298
 20
1249.0458573656283
 11
1092.0648793278403
 21
1251.0440636761252
  0
LINE
  8
_0-0_0
  6
CONTINUOUS
 62
    7
 10
1092.0648793278403
 20
1251.0440636761252
 11
1100.1388030202529
 21
1256.492094305378
  0
LINE
  8
_0-0_0
  6
CONTINUOUS
 62
    7
 10
1100.1388030202529
 20
1256.492094305378
 11
1105.5787172133896
 21
1264.5692476237623
  0
LINE
  8
_0-0_0
  6
CONTINUOUS
 62
    7
 10
1105.5787172133896
 20
1264.5692476237623
 11
1107.5704360244854
 21
1274.4645862061236
  0
LINE
  8
_0-0_0
  6
CONTINUOUS
 62
    7
 10
1100.1323155208518
 20
1558.9931089660479
 11
1096.1440099201548
 21
1562.2499278236619
  0
LINE
  8
_0-0_0
  6
CONTINUOUS
 62
    7
 10
1096.1440099201548
 20
1562.2499278236619
 11
1091.7210324437553
 21
1564.5757575618311
  0
LINE
  8
_0-0_0
  6
CONTINUOUS
 62
    7
 10
1091.7210324437553
 20
1564.5757575618311
 11
1087.0061174943003
 21
1565.9689880754788
  0
LINE
  8
_0-0_0
  6
CONTINUOUS
 62
    7
 10
1087.0061174943003
 20
1565.9689880754788
 11
1082.1468392054842
 21
1566.432858406396
  0
LINE
  8
_0-0_0
  6
CONTINUOUS
 62
    7
 10
1107.5704360244854
 20
1541.0319725432089
 11
1107.0530461774624
 21
1546.1539898498656
  0
LINE
  8
_0-0_0
  6
CONTINUOUS
 62
    7
 10
1107.0530461774624
 20
1546.1539898498656
 11
1105.5738492348839
 21
1550.9224337312455
  0
LINE
  8
_0-0_0
  6
CONTINUOUS
 62
    7
 10
1105.5738492348839
 20
1550.9224337312455
 11
1103.2317960403022
 21
1555.2367432387191
  0
LINE
  8
_0-0_0
  6
CONTINUOUS
 62
    7
 10
1103.2317960403022
 20
1555.2367432387191
 11
1100.1323155208518
 21
1558.9931089660479
  0
LINE
  8
_0-0_0
  6
CONTINUOUS
 62
    7
 10
797.66535787808368
 20
1559.0352824200656
 11
794.39231556405684
 21
1555.0453572984727
  0
LINE
  8
_0-0_0
  6
CONTINUOUS
 62
    7
 10
794.39231556405684
 20
1555.0453572984727
 11
792.05513034798071
 21
1550.6175118435681
  0
LINE
  8
_0-0_0
  6
CONTINUOUS
 62
    7
 10
792.05513034798071
 20
1550.6175118435681
 11
790.65217329314078
 21
1545.8944898738162
  0
LINE
  8
_0-0_0
  6
CONTINUOUS
 62
    7
 10
790.65217329314078
 20
1545.8944898738162
 11
790.1834349837178
 21
1541.0222365861978
  0
LINE
  8
_0-0_0
  6
CONTINUOUS
 62
    7
 10
815.59729584570744
 20
1566.432858406396
 11
810.48500508024279
 21
1565.9203271220597
  0
LINE
  8
_0-0_0
  6
CONTINUOUS
 62
    7
 10
810.48500508024279
 20
1565.9203271220597
 11
805.7262971558747
 21
1564.4492466155973
  0
LINE
  8
_0-0_0
  6
CONTINUOUS
 62
    7
 10
805.7262971558747
 20
1564.4492466155973
 11
801.42009466869763
 21
1562.1201684198181
  0
LINE
  8
_0-0_0
  6
CONTINUOUS
 62
    7
 10
801.42009466869763
 20
1562.1201684198181
 11
797.66535787808368
 21
1559.0352824200656
  0
LINE
  8
_0-0_0
  6
CONTINUOUS
 62
    7
 10
790.1834349837178
 20
1274.4483627497109
 11
792.1816412942145
 21
1264.5530335831688
  0
LINE
  8
_0-0_0
  6
CONTINUOUS
 62
    7
 10
792.1816412942145
 20
1264.5530335831688
 11
797.62805240257183
 21
1256.4791193065753
  0
LINE
  8
_0-0_0
  6
CONTINUOUS
 62
    7
 10
797.62805240257183
 20
1256.4791193065753
 11
805.70683465767092
 21
1251.0391956976196
  0
LINE
  8
_0-0_0
  6
CONTINUOUS
 62
    7
 10
805.70683465767092
 20
1251.0391956976196
 11
815.60054430331729
 21
1249.0458573656283
  0
LINE
  8
_0-0_0
  6
CONTINUOUS
 62
    7
 10
815.66866775494009
 20
1605.0929407417696
 11
800.10796260547511
 21
1603.200153942588
  0
LINE
  8
_0-0_0
  6
CONTINUOUS
 62
    7
 10
800.10796260547511
 20
1603.200153942588
 11
785.91616690876731
 21
1597.7894287888471
  0
LINE
  8
_0-0_0
  6
CONTINUOUS
 62
    7
 10
785.91616690876731
 20
1597.7894287888471
 11
773.53929860260723
 21
1589.3067926341564
  0
LINE
  8
_0-0_0
  6
CONTINUOUS
 62
    7
 10
773.53929860260723
 20
1589.3067926341564
 11
763.42662408239494
 21
1578.1917759169046
  0
LINE
  8
_0-0_0
  6
CONTINUOUS
 62
    7
 10
763.42662408239494
 20
1578.1917759169046
 11
758.14565833249799
 21
1569.3831264396181
  0
LINE
  8
_0-0_0
  6
CONTINUOUS
 62
    7
 10
758.14565833249799
 20
1569.3831264396181
 11
754.42010116546089
 21
1560.1203425884253
  0
LINE
  8
_0-0_0
  6
CONTINUOUS
 62
    7
 10
754.42010116546089
 20
1560.1203425884253
 11
752.22240189442107
 21
1550.6029173238701
  0
LINE
  8
_0-0_0
  6
CONTINUOUS
 62
    7
 10
752.22240189442107
 20
1550.6029173238701
 11
751.52335264834437
 21
1541.0254850438077
  0
LINE
  8
_0-0_0
  6
CONTINUOUS
 62
    7
 10
1146.2305183598587
 20
1540.9962865885927
 11
1144.290699543973
 21
1556.6916097045882
  0
LINE
  8
_0-0_0
  6
CONTINUOUS
 62
    7
 10
1144.290699543973
 20
1556.6916097045882
 11
1138.7745548789169
 21
1570.9872053917156
  0
LINE
  8
_0-0_0
  6
CONTINUOUS
 62
    7
 10
1138.7745548789169
 20
1570.9872053917156
 11
1130.1378288436729
 21
1583.4240901292017
  0
LINE
  8
_0-0_0
  6
CONTINUOUS
 62
    7
 10
1130.1378288436729
 20
1583.4240901292017
 11
1118.8314261861749
 21
1593.5400036912051
  0
LINE
  8
_0-0_0
  6
CONTINUOUS
 62
    7
 10
1118.8314261861749
 20
1593.5400036912051
 11
1110.1022556384178
 21
1598.6749959966644
  0
LINE
  8
_0-0_0
  6
CONTINUOUS
 62
    7
 10
1110.1022556384178
 20
1598.6749959966644
 11
1100.9448912985406
 21
1602.2935047156716
  0
LINE
  8
_0-0_0
  6
CONTINUOUS
 62
    7
 10
1100.9448912985406
 20
1602.2935047156716
 11
1091.552357459323
 21
1604.4230805350887
  0
LINE
  8
_0-0_0
  6
CONTINUOUS
 62
    7
 10
1091.552357459323
 20
1604.4230805350887
 11
1082.1127821875825
 21
1605.0929407417696
  0
LINE
  8
_0-0_0
  6
CONTINUOUS
 62
    7
 10
1082.1533267048856
 20
1210.385775030255
 11
1097.7140318543504
 21
1212.2963953909257
  0
LINE
  8
_0-0_0
  6
CONTINUOUS
 62
    7
 10
1097.7140318543504
 20
1212.2963953909257
 11
1111.9025885092672
 21
1217.7233440010789
  0
LINE
  8
_0-0_0
  6
CONTINUOUS
 62
    7
 10
1111.9025885092672
 20
1217.7233440010789
 11
1124.2713403793114
 21
1226.2222036121823
  0
LINE
  8
_0-0_0
  6
CONTINUOUS
 62
    7
 10
1124.2713403793114
 20
1226.2222036121823
 11
1134.3742789425125
 21
1237.3518148491323
  0
LINE
  8
_0-0_0
  6
CONTINUOUS
 62
    7
 10
1134.3742789425125
 20
1237.3518148491323
 11
1139.642279109426
 21
1246.1637033682098
  0
LINE
  8
_0-0_0
  6
CONTINUOUS
 62
    7
 10
1139.642279109426
 20
1246.1637033682098
 11
1143.356471382737
 21
1255.4281161561171
  0
LINE
  8
_0-0_0
  6
CONTINUOUS
 62
    7
 10
1143.356471382737
 20
1255.4281161561171
 11
1145.5428245916889
 21
1264.9471609415682
  0
LINE
  8
_0-0_0
  6
CONTINUOUS
 62
    7
 10
1145.5428245916889
 20
1264.9471609415682
 11
1146.2305183598587
 21
1274.5213541798394
  0
LINE
  8
_0-0_0
  6
CONTINUOUS
 62
    7
 10
751.52335264834437
 20
1274.4954041822346
 11
753.39180897081644
 21
1259.0725654569101
  0
LINE
  8
_0-0_0
  6
CONTINUOUS
 62
    7
 10
753.39180897081644
 20
1259.0725654569101
 11
758.71494817473081
 21
1244.9926767709189
  0
LINE
  8
_0-0_0
  6
CONTINUOUS
 62
    7
 10
758.71494817473081
 20
1244.9926767709189
 11
767.05972732110001
 21
1232.6887998948871
  0
LINE
  8
_0-0_0
  6
CONTINUOUS
 62
    7
 10
767.05972732110001
 20
1232.6887998948871
 11
777.99957213869914
 21
1222.5939683519828
  0
LINE
  8
_0-0_0
  6
CONTINUOUS
 62
    7
 10
777.99957213869914
 20
1222.5939683519828
 11
786.89093958730621
 21
1217.1783752197366
  0
LINE
  8
_0-0_0
  6
CONTINUOUS
 62
    7
 10
786.89093958730621
 20
1217.1783752197366
 11
796.25915236563355
 21
1213.3571344983955
  0
LINE
  8
_0-0_0
  6
CONTINUOUS
 62
    7
 10
796.25915236563355
 20
1213.3571344983955
 11
805.90145963970781
 21
1211.10266725364
  0
LINE
  8
_0-0_0
  6
CONTINUOUS
 62
    7
 10
805.90145963970781
 20
1211.10266725364
 11
815.61675834391099
 21
1210.385775030255
  0
LINE
  8
_0-0_0
  6
CONTINUOUS
 62
    7
 10
1082.1598142042867
 20
1249.0458573656283
 11
1048.8390945292404
 21
1249.0458573656283
  0
LINE
  8
_0-0_0
  6
CONTINUOUS
 62
    7
 10
1048.8390945292404
 20
1249.0458573656283
 11
1015.5183748541941
 21
1249.0458573656283
  0
LINE
  8
_0-0_0
  6
CONTINUOUS
 62
    7
 10
1015.5183748541941
 20
1249.0458573656283
 11
982.19765517914789
 21
1249.0458573656283
  0
LINE
  8
_0-0_0
  6
CONTINUOUS
 62
    7
 10
982.19765517914789
 20
1249.0458573656283
 11
948.87693550410154
 21
1249.0458573656283
  0
LINE
  8
_0-0_0
  6
CONTINUOUS
 62
    7
 10
1107.5704360244854
 20
1541.0222365861978
 11
1107.5704360244854
 21
1474.3807972361049
  0
LINE
  8
_0-0_0
  6
CONTINUOUS
 62
    7
 10
1107.5704360244854
 20
1474.3807972361049
 11
1107.5704360244854
 21
1407.7393578860122
  0
LINE
  8
_0-0_0
  6
CONTINUOUS
 62
    7
 10
1107.5704360244854
 20
1407.7393578860122
 11
1107.5704360244854
 21
1341.0979185359197
  0
LINE
  8
_0-0_0
  6
CONTINUOUS
 62
    7
 10
1107.5704360244854
 20
1341.0979185359197
 11
1107.5704360244854
 21
1274.456479185827
  0
LINE
  8
_0-0_0
  6
CONTINUOUS
 62
    7
 10
815.59567632481173
 20
1566.432858406396
 11
882.23549615400884
 21
1566.432858406396
  0
LINE
  8
_0-0_0
  6
CONTINUOUS
 62
    7
 10
882.23549615400884
 20
1566.432858406396
 11
948.87693550410154
 21
1566.432858406396
  0
LINE
  8
_0-0_0
  6
CONTINUOUS
 62
    7
 10
948.87693550410154
 20
1566.432858406396
 11
1015.5183748541941
 21
1566.432858406396
  0
LINE
  8
_0-0_0
  6
CONTINUOUS
 62
    7
 10
1015.5183748541941
 20
1566.432858406396
 11
1082.1598142042867
 21
1566.432858406396
  0
LINE
  8
_0-0_0
  6
CONTINUOUS
 62
    7
 10
790.1834349837178
 20
1274.456479185827
 11
790.1834349837178
 21
1341.0979185359197
  0
LINE
  8
_0-0_0
  6
CONTINUOUS
 62
    7
 10
790.1834349837178
 20
1341.0979185359197
 11
790.1834349837178
 21
1407.7393578860122
  0
LINE
  8
_0-0_0
  6
CONTINUOUS
 62
    7
 10
790.1834349837178
 20
1407.7393578860122
 11
790.1834349837178
 21
1474.3807972361049
  0
LINE
  8
_0-0_0
  6
CONTINUOUS
 62
    7
 10
790.1834349837178
 20
1474.3807972361049
 11
790.1834349837178
 21
1541.0222365861978
  0
LINE
  8
_0-0_0
  6
CONTINUOUS
 62
    7
 10
948.87693550410154
 20
1249.0458573656283
 11
915.55621582905496
 21
1249.0458573656283
  0
LINE
  8
_0-0_0
  6
CONTINUOUS
 62
    7
 10
915.55621582905496
 20
1249.0458573656283
 11
882.23549615400884
 21
1249.0458573656283
  0
LINE
  8
_0-0_0
  6
CONTINUOUS
 62
    7
 10
882.23549615400884
 20
1249.0458573656283
 11
848.91477647896272
 21
1249.0458573656283
  0
LINE
  8
_0-0_0
  6
CONTINUOUS
 62
    7
 10
848.91477647896272
 20
1249.0458573656283
 11
815.59567632481173
 21
1249.0458573656283
  0
LINE
  8
_0-0_0
  6
CONTINUOUS
 62
    7
 10
751.52335264834437
 20
1540.9865600474004
 11
751.52335264834437
 21
1474.3629542587964
  0
LINE
  8
_0-0_0
  6
CONTINUOUS
 62
    7
 10
751.52335264834437
 20
1474.3629542587964
 11
751.52335264834437
 21
1407.7393578860122
  0
LINE
  8
_0-0_0
  6
CONTINUOUS
 62
    7
 10
751.52335264834437
 20
1407.7393578860122
 11
751.52335264834437
 21
1341.1157520974086
  0
LINE
  8
_0-0_0
  6
CONTINUOUS
 62
    7
 10
751.52335264834437
 20
1341.1157520974086
 11
751.52335264834437
 21
1274.4921557246241
  0
LINE
  8
_0-0_0
  6
CONTINUOUS
 62
    7
 10
1082.125757186385
 20
1605.0929407417696
 11
1015.5021608136007
 21
1605.0929407417696
  0
LINE
  8
_0-0_0
  6
CONTINUOUS
 62
    7
 10
1015.5021608136007
 20
1605.0929407417696
 11
948.87693550410154
 21
1605.0929407417696
  0
LINE
  8
_0-0_0
  6
CONTINUOUS
 62
    7
 10
948.87693550410154
 20
1605.0929407417696
 11
882.25333913131726
 21
1605.0929407417696
  0
LINE
  8
_0-0_0
  6
CONTINUOUS
 62
    7
 10
882.25333913131726
 20
1605.0929407417696
 11
815.62973334271351
 21
1605.0929407417696
  0
LINE
  8
_0-0_0
  6
CONTINUOUS
 62
    7
 10
1146.2305183598587
 20
1274.4921557246241
 11
1146.2305183598587
 21
1341.1157520974086
  0
LINE
  8
_0-0_0
  6
CONTINUOUS
 62
    7
 10
1146.2305183598587
 20
1341.1157520974086
 11
1146.2305183598587
 21
1407.7393578860122
  0
LINE
  8
_0-0_0
  6
CONTINUOUS
 62
    7
 10
1146.2305183598587
 20
1407.7393578860122
 11
1146.2305183598587
 21
1474.3629542587964
  0
LINE
  8
_0-0_0
  6
CONTINUOUS
 62
    7
 10
1146.2305183598587
 20
1474.3629542587964
 11
1146.2305183598587
 21
1540.9865600474004
  0
LINE
  8
_0-0_0
  6
CONTINUOUS
 62
    7
 10
815.62973334271351
 20
1210.385775030255
 11
882.25333913131726
 21
1210.385775030255
  0
LINE
  8
_0-0_0
  6
CONTINUOUS
 62
    7
 10
882.25333913131726
 20
1210.385775030255
 11
948.87693550410154
 21
1210.385775030255
  0
LINE
  8
_0-0_0
  6
CONTINUOUS
 62
    7
 10
948.87693550410154
 20
1210.385775030255
 11
1015.5021608136007
 21
1210.385775030255
  0
LINE
  8
_0-0_0
  6
CONTINUOUS
 62
    7
 10
1015.5021608136007
 20
1210.385775030255
 11
1082.125757186385
 21
1210.385775030255
  0
LINE
  8
_0-1_DEFPOINTS
  6
CENTER1
 62
    7
 10
1169.74348540237
 20
1408.050767273091
 11
1070.7836685742705
 21
1408.050767273091
  0
LINE
  8
_0-1_DEFPOINTS
  6
CENTER1
 62
    7
 10
948.79746599039117
 20
1148.1608256571603
 11
948.79746599039117
 21
1231.329626399141
  0
LINE
  8
_0-1_DEFPOINTS
  6
CENTER1
 62
    7
 10
1110.59207596694
 20
1605.785493072626
 11
1183.1210858004933
 21
1605.785493072626
  0
LINE
  8
_0-1_DEFPOINTS
  6
CENTER1
 62
    7
 10
1183.1210858004933
 20
1605.785493072626
 11
1255.6500956340465
 21
1605.785493072626
  0
LINE
  8
_0-1_DEFPOINTS
  6
CENTER1
 62
    7
 10
1255.6500956340465
 20
1605.785493072626
 11
1328.1791054675998
 21
1605.785493072626
  0
LINE
  8
_0-1_DEFPOINTS
  6
CENTER1
 62
    7
 10
1328.1791054675998
 20
1605.785493072626
 11
1400.7081153011529
 21
1605.785493072626
  0
LINE
  8
_0-1_DEFPOINTS
  6
CENTER1
 62
    7
 10
1117.3960222185092
 20
1211.7854930433041
 11
1188.2236406089464
 21
1211.7854930433041
  0
LINE
  8
_0-1_DEFPOINTS
  6
CENTER1
 62
    7
 10
1188.2236406089464
 20
1211.7854930433041
 11
1259.0528785202789
 21
1211.7854930433041
  0
LINE
  8
_0-1_DEFPOINTS
  6
CENTER1
 62
    7
 10
1259.0528785202789
 20
1211.7854930433041
 11
1329.8788773898207
 21
1211.7854930433041
  0
LINE
  8
_0-1_DEFPOINTS
  6
CENTER1
 62
    7
 10
1329.8788773898207
 20
1211.7854930433041
 11
1400.7081153011529
 21
1211.7854930433041
  0
LINE
  8
_0-1_DEFPOINTS
  6
CENTER1
 62
    7
 10
1146.3213433514761
 20
1220.6379354955036
 11
1146.3213433514761
 21
1196.4778097863066
  0
LINE
  8
_0-1_DEFPOINTS
  6
CENTER1
 62
    7
 10
1146.3213433514761
 20
1196.4778097863066
 11
1146.3213433514761
 21
1172.3176934929281
  0
LINE
  8
_0-1_DEFPOINTS
  6
CENTER1
 62
    7
 10
1146.3213433514761
 20
1172.3176934929281
 11
1146.3213433514761
 21
1148.1608256571603
  0
LINE
  8
_0-1_DEFPOINTS
  6
CENTER1
 62
    7
 10
1107.9532079049777
 20
1230.3662091985091
 11
1107.9532079049777
 21
1202.9638685672148
  0
LINE
  8
_0-1_DEFPOINTS
  6
CENTER1
 62
    7
 10
1107.9532079049777
 20
1202.9638685672148
 11
1107.9532079049777
 21
1175.5615373517401
  0
LINE
  8
_0-1_DEFPOINTS
  6
CENTER1
 62
    7
 10
1107.9532079049777
 20
1175.5615373517401
 11
1107.9532079049777
 21
1148.1608256571603
  0
LINE
  8
_0-1_DEFPOINTS
  6
CENTER1
 62
    7
 10
750.77727138556338
 20
1240.237207888342
 11
750.77727138556338
 21
1217.2189291528584
  0
LINE
  8
_0-1_DEFPOINTS
  6
CENTER1
 62
    7
 10
750.77727138556338
 20
1217.2189291528584
 11
750.77727138556338
 21
1194.1990214806608
  0
LINE
  8
_0-1_DEFPOINTS
  6
CENTER1
 62
    7
 10
750.77727138556338
 20
1171.1791138084627
 11
750.77727138556338
 21
1148.1608256571603
  0
LINE
  8
_0-1_DEFPOINTS
  6
CONTINUOUS
 62
    7
 10
1265.3946939812179
 20
1605.785493072626
 11
1265.3946939812179
 21
1408.050767273091
  0
LINE
  8
_0-1_DEFPOINTS
  6
CONTINUOUS
 62
    7
 10
1265.3946939812179
 20
1605.785493072626
 11
1267.1311757578871
 21
1595.9374155425039
  0
LINE
  8
_0-1_DEFPOINTS
  6
CONTINUOUS
 62
    7
 10
1265.3946939812179
 20
1605.785493072626
 11
1263.6582122045486
 21
1595.9374155425039
  0
LINE
  8
_0-1_DEFPOINTS
  6
CONTINUOUS
 62
    7
 10
1265.3946939812179
 20
1408.050767273091
 11
1263.6582122045486
 21
1417.8988448032128
  0
LINE
  8
_0-1_DEFPOINTS
  6
CONTINUOUS
 62
    7
 10
1265.3946939812179
 20
1408.050767273091
 11
1267.1311757578871
 21
1417.8988448032128
  0
LINE
  8
_0-1_DEFPOINTS
  6
CONTINUOUS
 62
    7
 10
1265.3946939812179
 20
1605.785493072626
 11
1237.5079837415665
 21
1605.785493072626
  0
LINE
  8
_0-1_DEFPOINTS
  6
CONTINUOUS
 62
    7
 10
1265.3946939812179
 20
1408.050767273091
 11
1237.5079837415665
 21
1408.050767273091
  0
TEXT
  8
_0-1_DEFPOINTS
 62
    7
 10
1260.3946939812179
 20
1488.1681301728581
 40
30
 41
1
 50
90
  1
197
  0
LINE
  8
_0-1_DEFPOINTS
  6
CONTINUOUS
 62
    7
 10
1336.1584315750206
 20
1605.785493072626
 11
1336.1584315750206
 21
1211.7854930433041
  0
LINE
  8
_0-1_DEFPOINTS
  6
CONTINUOUS
 62
    7
 10
1336.1584315750206
 20
1605.785493072626
 11
1337.8949133516901
 21
1595.9374155425039
  0
LINE
  8
_0-1_DEFPOINTS
  6
CONTINUOUS
 62
    7
 10
1336.1584315750206
 20
1605.785493072626
 11
1334.4219497983513
 21
1595.9374155425039
  0
LINE
  8
_0-1_DEFPOINTS
  6
CONTINUOUS
 62
    7
 10
1336.1584315750206
 20
1211.7854930433041
 11
1334.4219497983513
 21
1221.6335705734261
  0
LINE
  8
_0-1_DEFPOINTS
  6
CONTINUOUS
 62
    7
 10
1336.1584315750206
 20
1211.7854930433041
 11
1337.8949133516901
 21
1221.6335705734261
  0
LINE
  8
_0-1_DEFPOINTS
  6
CONTINUOUS
 62
    7
 10
1336.1584315750206
 20
1605.785493072626
 11
1265.3946939812179
 21
1605.785493072626
  0
LINE
  8
_0-1_DEFPOINTS
  6
CONTINUOUS
 62
    7
 10
1336.1584315750206
 20
1211.7854930433041
 11
1265.3946939812179
 21
1211.7854930433041
  0
TEXT
  8
_0-1_DEFPOINTS
 62
    7
 10
1331.1584315750206
 20
1390.0354930579649
 40
30
 41
1
 50
90
  1
394
  0
LINE
  8
_0-1_DEFPOINTS
  6
CENTER1
 62
    7
 10
1275.4467394907797
 20
1408.050767273091
 11
1169.74348540237
 21
1408.050767273091
  0
LINE
  8
_0-1_DEFPOINTS
  6
CONTINUOUS
 62
    7
 10
1107.9532079049777
 20
1161.6260025892907
 11
1146.3213433514761
 21
1161.6260025892907
  0
LINE
  8
_0-1_DEFPOINTS
  6
CONTINUOUS
 62
    7
 10
1107.9532079049777
 20
1161.6260025892907
 11
1117.8012854350998
 21
1163.36248436596
  0
LINE
  8
_0-1_DEFPOINTS
  6
CONTINUOUS
 62
    7
 10
1107.9532079049777
 20
1161.6260025892907
 11
1117.8012854350998
 21
1159.8895208126214
  0
LINE
  8
_0-1_DEFPOINTS
  6
CONTINUOUS
 62
    7
 10
1146.3213433514761
 20
1161.6260025892907
 11
1136.4732658213541
 21
1159.8895208126214
  0
LINE
  8
_0-1_DEFPOINTS
  6
CONTINUOUS
 62
    7
 10
1146.3213433514761
 20
1161.6260025892907
 11
1136.4732658213541
 21
1163.36248436596
  0
LINE
  8
_0-1_DEFPOINTS
  6
CONTINUOUS
 62
    7
 10
1107.9532079049777
 20
1161.6260025892907
 11
1107.9532079049777
 21
1210.385775030255
  0
LINE
  8
_0-1_DEFPOINTS
  6
CONTINUOUS
 62
    7
 10
1146.3213433514761
 20
1161.6260025892907
 11
1146.3213433514761
 21
1210.385775030255
  0
LINE
  8
_0-1_DEFPOINTS
  6
CENTER1
 62
    7
 10
1107.9532079049777
 20
1274.456479185827
 11
1107.9532079049777
 21
1230.3662091985091
  0
LINE
  8
_0-1_DEFPOINTS
  6
CENTER1
 62
    7
 10
1146.3213433514761
 20
1274.456479185827
 11
1146.3213433514761
 21
1211.7854930433041
  0
LINE
  8
_0-1_DEFPOINTS
  6
CONTINUOUS
 62
    7
 10
750.77727138556338
 20
1176.3098932508062
 11
750.77727138556338
 21
1274.4921557246241
  0
LINE
  8
_0-1_DEFPOINTS
  6
CONTINUOUS
 62
    7
 10
948.79746599039117
 20
1176.3098932508062
 11
948.79746599039117
 21
1274.4921557246241
  0
LINE
  8
_0-1_DEFPOINTS
  6
CENTER1
 62
    7
 10
750.77727138556338
 20
1179.5151308191453
 11
750.77727138556338
 21
1156.4952231469474
  0
LINE
  8
_0-1_DEFPOINTS
  6
CONTINUOUS
 62
    7
 10
750.77727138556338
 20
1161.6260025892907
 11
948.79746599039117
 21
1161.6260025892907
  0
LINE
  8
_0-1_DEFPOINTS
  6
CONTINUOUS
 62
    7
 10
750.77727138556338
 20
1161.6260025892907
 11
760.62534891568544
 21
1163.36248436596
  0
LINE
  8
_0-1_DEFPOINTS
  6
CONTINUOUS
 62
    7
 10
750.77727138556338
 20
1161.6260025892907
 11
760.62534891568544
 21
1159.8895208126214
  0
LINE
  8
_0-1_DEFPOINTS
  6
CONTINUOUS
 62
    7
 10
948.79746599039117
 20
1161.6260025892907
 11
938.94938846026912
 21
1159.8895208126214
  0
LINE
  8
_0-1_DEFPOINTS
  6
CONTINUOUS
 62
    7
 10
948.79746599039117
 20
1161.6260025892907
 11
938.94938846026912
 21
1163.36248436596
  0
TEXT
  8
_0-1_DEFPOINTS
 62
    7
 10
831.03736868797728
 20
1166.6260025892907
 40
30
 41
1
 50
0
  1
197
  0
TEXT
  8
_0-1_DEFPOINTS
 62
    7
 10
1111.2799564270156
 20
1166.7521790534811
 40
30
 41
1
 50
0
  1
40
  0
CIRCLE
  8
_0-0_0
  6
CONTINUOUS
 62
    7
 10
948.79746599039117
 20
1408.050767273091
 40
49
  0
CIRCLE
  8
_0-0_0
  6
CONTINUOUS
 62
    7
 10
948.79746599039117
 20
1408.050767273091
 40
74.626190470000012
  0
LINE
  8
_0-1_DEFPOINTS
  6
CENTER1
 62
    7
 10
948.79746599039117
 20
1231.329626399141
 11
948.79746599039117
 21
1530.5252991840209
  0
LINE
  8
_0-0_0
  6
CONTINUOUS
 62
    7
 10
983.44569826853194
 20
1373.4025349949502
 11
914.14923371225029
 21
1442.6989995512317
  0
LINE
  8
_0-0_0
  6
CONTINUOUS
 62
    7
 10
914.14923371225029
 20
1442.6989995512317
 11
920.18501848952553
 21
1432.2447136534404
  0
LINE
  8
_0-0_0
  6
CONTINUOUS
 62
    7
 10
914.14923371225029
 20
1442.6989995512317
 11
924.60351961004164
 21
1436.6632147739565
  0
LINE
  8
_0-0_0
  6
CONTINUOUS
 62
    7
 10
983.44569826853194
 20
1373.4025349949502
 11
977.40991349125693
 21
1383.8568208927413
  0
LINE
  8
_0-0_0
  6
CONTINUOUS
 62
    7
 10
983.44569826853194
 20
1373.4025349949502
 11
972.9914123707407
 21
1379.4383197722252
  0
LINE
  8
_0-0_0
  6
CONTINUOUS
 62
    7
 10
957.15387793587206
 20
1399.3112177581261
 11
987.91751104831542
 21
1514.1226595591734
  0
LINE
  8
_0-0_0
  6
CONTINUOUS
 62
    7
 10
987.91751104831542
 20
1514.1226595591734
 11
994.10729175071936
 21
1514.1226595591734
  0
TEXT
  8
_0-0_0
 62
    7
 10
994.45157212404843
 20
1499.3927489988805
 40
30
 41
1
 50
0
  1
φ98
  0
TEXT
  8
_f-0____-240
 62
    7
 10
2174.7535403050106
 20
164.29057734204775
 40
34.616986052575953
 41
1.000000000000012
 50
0
  1
日鉄物産マテックス株式会社
  0
ENDSEC
  0
EOF
