  0
SECTION
  2
HEADER
  9
$ACADVER
  1
AC1009
  9
$INSBASE
 10
0
 20
0
 30
0
  9
$EXTMIN
 10
0
 20
0
  9
$EXTMAX
 10
2970
 20
2100
  9
$LIMMIN
 10
0
 20
0
  9
$LIMMAX
 10
2970
 20
2100
  9
$LTSCALE
 40
10
  0
ENDSEC
  0
SECTION
  2
TABLES
  0
TABLE
  2
LTYPE
 70
     9
  0
LTYPE
  2
CONTINUOUS
 70
    64
  3
実線
 72
    65
 73
     0
 40
0.0
  0
LTYPE
  2
DASHED1
 70
    64
  3
--  --  --  --  --  --  --  --  
 72
    65
 73
     2
 40
2.5
 49
1.25
 49
-1.25
  0
LTYPE
  2
DASHED2
 70
    64
  3
----    ----    ----    ----    
 72
    65
 73
     2
 40
5.0
 49
2.5
 49
-2.5
  0
LTYPE
  2
DASHED3
 70
    64
  3
------  ------  ------  ------  
 72
    65
 73
     2
 40
5.0
 49
3.75
 49
-1.25
  0
LTYPE
  2
CENTER1
 70
    64
  3
----- - ----- - ----- - ----- - 
 72
    65
 73
     4
 40
10.0
 49
6.25
 49
-1.25
 49
1.25
 49
-1.25
  0
LTYPE
  2
CENTER2
 70
    64
  3
----------  --  ----------  --  
 72
    65
 73
     4
 40
20.0
 49
12.5
 49
-2.5
 49
2.5
 49
-2.5
  0
LTYPE
  2
PHANTOM1
 70
    64
  3
--- - - --- - - --- - - --- - - 
 72
    65
 73
     6
 40
10.0
 49
3.25
 49
-1.25
 49
1.25
 49
-1.25
 49
1.25
 49
-1.25
  0
LTYPE
  2
PHANTOM2
 70
    64
  3
--------  -  -  --------  -  -  
 72
    65
 73
     6
 40
20.0
 49
10.0
 49
-2.5
 49
1.25
 49
-2.5
 49
1.25
 49
-2.5
  0
LTYPE
  2
DOT
 70
    64
  3
-   -   -   -   -   -   -   -   
 72
    65
 73
     2
 40
2.5
 49
0.625
 49
-1.875
  0
LTYPE
  2
DUMMY
 70
    64
  3
ダミー
 72
    65
 73
     0
 40
0.0
  0
LTYPE
  2
RAND1
 70
    64
  3
ランダム線1
 72
    65
 73
     4
 40
10.0
 49
1.0
 49
-2.0
 49
3.0
 49
-4.0
  0
LTYPE
  2
RAND2
 70
    64
  3
ランダム線2
 72
    65
 73
     4
 40
14.0
 49
2.0
 49
-3.0
 49
4.0
 49
-5.0
  0
LTYPE
  2
RAND3
 70
    64
  3
ランダム線3
 72
    65
 73
     4
 40
18.0
 49
3.0
 49
-4.0
 49
5.0
 49
-6.0
  0
LTYPE
  2
RAND4
 70
    64
  3
ランダム線4
 72
    65
 73
     4
 40
22.0
 49
4.0
 49
-5.0
 49
6.0
 49
-7.0
  0
LTYPE
  2
RAND5
 70
    64
  3
ランダム線5
 72
    65
 73
     4
 40
26.0
 49
5.0
 49
-6.0
 49
7.0
 49
-8.0
  0
LTYPE
  2
LONG1
 70
    64
  3
----------  --  ----------  --  
 72
    65
 73
     4
 40
40.0
 49
32.5
 49
-2.5
 49
2.5
 49
-2.5
  0
LTYPE
  2
LONG2
 70
    64
  3
--------  -  -  --------  -  -  
 72
    65
 73
     6
 40
40.0
 49
30.0
 49
-2.5
 49
1.25
 49
-2.5
 49
1.25
 49
-2.5
  0
LTYPE
  2
LONG3
 70
    64
  3
+++++++++++++++..+++++++++++++++
 72
    65
 73
     2
 40
40.0
 49
37.5
 49
-2.5
  0
LTYPE
  2
LONG4
 70
    64
  3
+++++++++++++++..+++++++++++++++
 72
    65
 73
     2
 40
80.0
 49
75.0
 49
-5.0
  0
LTYPE
  2
LONG5
 70
    64
  3
----------  --  ----------  --  
 72
    65
 73
     4
 40
60.0
 49
37.5
 49
-7.5
 49
7.5
 49
-7.5
  0
LTYPE
  2
dashed
 70
   64
  3
-------   -------------   ------
 72
   65
 73
    2
 40
7.5
 49
6
 49
-1.5
  0
LTYPE
  2
dashed_spaced
 70
   64
  3
----        --------        ----
 72
   65
 73
    2
 40
12
 49
6
 49
-6
  0
LTYPE
  2
long_dashed_dotted
 70
   64
  3
------------- --- --------------
 72
   65
 73
    4
 40
15.25
 49
12
 49
-1.5
 49
0.25
 49
-1.5
  0
LTYPE
  2
long_dashed_double-dotted
 70
   64
  3
----------- --- --- ------------
 72
   65
 73
    6
 40
17
 49
12
 49
-1.5
 49
0.25
 49
-1.5
 49
0.25
 49
-1.5
  0
LTYPE
  2
long_dashed_triplicate-dotted
 70
   64
  3
--------- --- --- --- ----------
 72
   65
 73
    8
 40
18.75
 49
12
 49
-1.5
 49
0.25
 49
-1.5
 49
0.25
 49
-1.5
 49
0.25
 49
-1.5
  0
LTYPE
  2
dotted
 70
   64
  3
   -       -       -       -    
 72
   65
 73
    2
 40
1.75
 49
0.25
 49
-1.5
  0
LTYPE
  2
chain
 70
   64
  3
-------------- -- --------------
 72
   65
 73
    4
 40
18.5
 49
12
 49
-1.5
 49
3.5
 49
-1.5
  0
LTYPE
  2
chain_double_dash
 70
   64
  3
------------ -- -- -------------
 72
   65
 73
    6
 40
23.5
 49
12
 49
-1.5
 49
3.5
 49
-1.5
 49
3.5
 49
-1.5
  0
LTYPE
  2
dashed_dotted
 70
   64
  3
-----------     -     ----------
 72
   65
 73
    4
 40
9.25
 49
6
 49
-1.5
 49
0.25
 49
-1.5
  0
LTYPE
  2
double-dashed_dotted
 70
   64
  3
------   -----------   -   -----
 72
   65
 73
    6
 40
16.75
 49
6
 49
-1.5
 49
6
 49
-1.5
 49
0.25
 49
-1.5
  0
LTYPE
  2
dashed_double-dotted
 70
   64
  3
---------    -    -    ---------
 72
   65
 73
    6
 40
11
 49
6
 49
-1.5
 49
0.25
 49
-1.5
 49
0.25
 49
-1.5
  0
LTYPE
  2
double-dashed_double-dotted
 70
   64
  3
-----   ---------   -   -   ----
 72
   65
 73
    8
 40
18.5
 49
6
 49
-1.5
 49
6
 49
-1.5
 49
0.25
 49
-1.5
 49
0.25
 49
-1.5
  0
LTYPE
  2
dashed_triplicate-dotted
 70
   64
  3
-------    -    -    -    ------
 72
   65
 73
    8
 40
12.75
 49
6
 49
-1.5
 49
0.25
 49
-1.5
 49
0.25
 49
-1.5
 49
0.25
 49
-1.5
  0
LTYPE
  2
double-dashed_triplicate-dotted
 70
   64
  3
-----  ---------  -  -  -  -----
 72
   65
 73
   10
 40
20.25
 49
6
 49
-1.5
 49
6
 49
-1.5
 49
0.25
 49
-1.5
 49
0.25
 49
-1.5
 49
0.25
 49
-1.5
  0
LTYPE
  2
undefined
 70
   64
  3
--------------------------------
 72
   65
 73
    0
 40
0
  0
LTYPE
  2
______-30
 70
   64
  3
---------   ---   ---   --------
 72
   65
 73
    6
 40
0.092108333087782
 49
0.048816665001427
 49
-0.008658333617271
 49
0.008658333617271
 49
-0.008658333617271
 49
0.008658333617271
 49
-0.008658333617271
  0
LTYPE
  2
______-17
 70
   64
  3
--------     --    --    -------
 72
   65
 73
    6
 40
1.0000001574803148
 49
0.4999999999999998
 49
-0.1666259842519685
 49
0.0555420472440946
 49
-0.1111450393700787
 49
0.0555420472440944
 49
-0.1111450393700787
  0
LTYPE
  2
______-6
 70
   64
  3
----------      --    ----------
 72
   65
 73
    4
 40
2.083282470703125
 49
1.25
 49
-0.41656494140625
 49
0.13885498046875
 49
-0.277862548828125
  0
LTYPE
  2
______-1
 70
   64
  3
------    ------------    ------
 72
   65
 73
    2
 40
0.5554538302951388
 49
0.41656494140625
 49
-0.1388888888888889
  0
LTYPE
  2
_
 70
   64
  3
                                
 72
   65
 73
    0
 40
0
  0
LTYPE
  2
__22
 70
   64
  3
                                
 72
   65
 73
    0
 40
0
  0
LTYPE
  2
__23
 70
   64
  3
                                
 72
   65
 73
    0
 40
0
  0
LTYPE
  2
__24
 70
   64
  3
                                
 72
   65
 73
    0
 40
0
  0
LTYPE
  2
__25
 70
   64
  3
                                
 72
   65
 73
    0
 40
0
  0
LTYPE
  2
__26
 70
   64
  3
                                
 72
   65
 73
    0
 40
0
  0
LTYPE
  2
__27
 70
   64
  3
                                
 72
   65
 73
    0
 40
0
  0
LTYPE
  2
__28
 70
   64
  3
                                
 72
   65
 73
    0
 40
0
  0
LTYPE
  2
__29
 70
   64
  3
                                
 72
   65
 73
    0
 40
0
  0
LTYPE
  2
__30
 70
   64
  3
                                
 72
   65
 73
    0
 40
0
  0
LTYPE
  2
__31
 70
   64
  3
                                
 72
   65
 73
    0
 40
0
  0
LTYPE
  2
__32
 70
   64
  3
                                
 72
   65
 73
    0
 40
0
  0
ENDTAB
  0
TABLE
  2
STYLE
  5
3
100
AcDbSymbolTable
 70
     1
  0
STYLE
  5
10
100
AcDbSymbolTableRecord
100
AcDbTextStyleTableRecord
  2
STANDARD
 70
     0
 40
0.0
 41
1.0
 50
0.0
 71
     0
 42
0.2
  3
txt
  4
bigfont.shx
  0
STYLE
  5
26
100
AcDbSymbolTableRecord
100
AcDbTextStyleTableRecord
  2
TATEGAKI
 70
    68
 40
0.0
 41
1.0
 50
0.0
 71
     0
 42
1.0
  3
txt
  4
bigfont.shx
  0
ENDTAB
  0
TABLE
  2
LAYER
 70
    4
  0
LAYER
  2
_0-2_____-2
 70
   64
 62
    7
  6
CONTINUOUS
  0
LAYER
  2
_0-3___
 70
   64
 62
    7
  6
CONTINUOUS
  0
LAYER
  2
_f-0_
 70
   64
 62
    7
  6
CONTINUOUS
  0
LAYER
  2
ADD_LINE
 70
   64
 62
    7
  6
CONTINUOUS
  0
ENDTAB
  0
ENDSEC
  0
SECTION
  2
BLOCKS
  0
BLOCK
  2
-000-_DOT
 70
   64
 10
0
 20
0
 30
0
  0
CIRCLE
  8
_0-0_0
  6
CONTINUOUS
 62
    7
 10
0
 20
0
 40
0.25
  0
CIRCLE
  8
_0-0_0
  6
CONTINUOUS
 62
    7
 10
0
 20
-0
 40
0.25
  0
LINE
  8
_0-0_0
  6
CONTINUOUS
 62
    7
 10
-0.5
 20
0
 11
-1
 21
0
  0
ENDBLK
  0
ENDSEC
  0
SECTION
  2
ENTITIES
  0
INSERT
  2
-000-_DOT
  8
_0-3___
 10
552.37818524539932
 20
1846.1319022311327
 41
7.5034179687499991
 42
7.5034179687499991
 50
180
  0
POINT
  8
_0-3___
 62
    7
 10
552.37818524539932
 20
1846.1319022311327
  0
LINE
  8
_0-2_____-2
  6
CONTINUOUS
 62
    1
 10
570.15818524539452
 20
1785.931902231124
 11
1372.7981852454038
 21
1785.931902231124
  0
ARC
  8
_0-2_____-2
  6
CONTINUOUS
 62
    1
 10
1372.7981852453888
 20
1768.1519022311136
 40
17.780000000010329
 50
0.0000000000473012
 51
89.999999999951328
  0
LINE
  8
_0-2_____-2
  6
CONTINUOUS
 62
    1
 10
1390.5781852453993
 20
1768.1519022311284
 11
1390.5781852453993
 21
1265.2319022311326
  0
ARC
  8
_0-2_____-2
  6
CONTINUOUS
 62
    1
 10
1352.4781852453564
 20
1265.2319022311781
 40
38.100000000042769
 50
270.00000000006514
 51
359.99999999993145
  0
LINE
  8
_0-2_____-2
  6
CONTINUOUS
 62
    1
 10
1352.4781852453998
 20
1227.1319022311354
 11
590.47818524539957
 21
1227.13190223113
  0
ARC
  8
_0-2_____-2
  6
CONTINUOUS
 62
    1
 10
590.4781852454239
 20
1265.2319022311549
 40
38.100000000024608
 50
180.00000000004124
 51
269.99999999996356
  0
LINE
  8
_0-2_____-2
  6
CONTINUOUS
 62
    1
 10
552.37818524539932
 20
1265.2319022311272
 11
552.37818524539932
 21
1768.1519022311284
  0
ARC
  8
_0-2_____-2
  6
CONTINUOUS
 62
    1
 10
570.15818524535121
 20
1768.1519022311722
 40
17.779999999951897
 50
89.999999999860336
 51
180.000000000141
  0
LINE
  8
_0-2_____-2
  6
CONTINUOUS
 62
    6
 10
570.15818524537178
 20
1777.0419022311262
 11
1372.7981852454038
 21
1777.0419022311262
  0
ARC
  8
_0-2_____-2
  6
CONTINUOUS
 62
    6
 10
1372.7981852454391
 20
1768.1519022311754
 40
8.8899999999507013
 50
359.99999999975489
 51
90.000000000226109
  0
LINE
  8
_0-2_____-2
  6
CONTINUOUS
 62
    6
 10
1381.6881852453898
 20
1768.1519022311375
 11
1381.6881852453898
 21
1265.2319022311326
  0
ARC
  8
_0-2_____-2
  6
CONTINUOUS
 62
    6
 10
1352.4781852453464
 20
1265.2319022311735
 40
29.21000000004323
 50
270.00000000010436
 51
359.99999999991951
  0
LINE
  8
_0-2_____-2
  6
CONTINUOUS
 62
    6
 10
1352.4781852453998
 20
1236.0219022311303
 11
590.47818524539957
 21
1236.0219022311244
  0
ARC
  8
_0-2_____-2
  6
CONTINUOUS
 62
    6
 10
590.47818524538889
 20
1265.2319022311044
 40
29.20999999998002
 50
179.99999999995543
 51
270.00000000002137
  0
LINE
  8
_0-2_____-2
  6
CONTINUOUS
 62
    6
 10
561.26818524540886
 20
1265.2319022311272
 11
561.26818524540886
 21
1768.1519022311284
  0
ARC
  8
_0-2_____-2
  6
CONTINUOUS
 62
    6
 10
570.15818524533074
 20
1768.1519022312045
 40
8.8899999999218693
 50
89.999999999734882
 51
180.00000000048956
  0
POINT
  8
_0-2_____-2
 62
    2
 10
1201.6656852453998
 20
1470.0194022311239
  0
LINE
  8
_0-2_____-2
  6
CONTINUOUS
 62
    4
 10
602.37818524539853
 20
1680.931902231124
 11
1340.5781852454002
 21
1680.931902231124
  0
ARC
  8
_0-2_____-2
  6
CONTINUOUS
 62
    4
 10
1340.5781852453995
 20
1650.9319022311229
 40
30.000000000000988
 50
0.0000000000018701
 51
89.999999999998934
  0
LINE
  8
_0-2_____-2
  6
CONTINUOUS
 62
    4
 10
1370.5781852454004
 20
1650.931902231124
 11
1370.5781852454002
 21
1277.1319022311241
  0
ARC
  8
_0-2_____-2
  6
CONTINUOUS
 62
    4
 10
1340.5781852454002
 20
1277.1319022311241
 40
30.000000000000036
 50
270.00000000000011
 51
359.99999999999994
  0
LINE
  8
_0-2_____-2
  6
CONTINUOUS
 62
    4
 10
1340.5781852454002
 20
1247.1319022311241
 11
602.37818524539853
 21
1247.1319022311241
  0
ARC
  8
_0-2_____-2
  6
CONTINUOUS
 62
    4
 10
602.37818524539875
 20
1277.1319022311243
 40
30.000000000000192
 50
180.00000000000037
 51
269.99999999999966
  0
LINE
  8
_0-2_____-2
  6
CONTINUOUS
 62
    4
 10
572.37818524539853
 20
1277.1319022311241
 11
572.37818524539784
 21
1650.931902231124
  0
ARC
  8
_0-2_____-2
  6
CONTINUOUS
 62
    4
 10
602.37818524539705
 20
1650.9319022311252
 40
29.999999999998998
 50
89.999999999997158
 51
180.00000000000193
  0
LINE
  8
_0-2_____-2
  6
CONTINUOUS
 62
    2
 10
610.37818524540035
 20
1660.931902231124
 11
1332.5781852453983
 21
1660.931902231124
  0
ARC
  8
_0-2_____-2
  6
CONTINUOUS
 62
    2
 10
1332.5781852454002
 20
1650.9319022311256
 40
9.9999999999980673
 50
359.99999999998892
 51
90.00000000001107
  0
LINE
  8
_0-2_____-2
  6
CONTINUOUS
 62
    2
 10
1342.5781852453983
 20
1650.931902231124
 11
1342.5781852453977
 21
1277.1319022311241
  0
ARC
  8
_0-2_____-2
  6
CONTINUOUS
 62
    2
 10
1332.5781852453993
 20
1277.1319022311229
 40
9.9999999999987494
 50
269.99999999999284
 51
0.0000000000071753
  0
LINE
  8
_0-2_____-2
  6
CONTINUOUS
 62
    2
 10
1332.5781852453977
 20
1267.1319022311241
 11
610.37818524539966
 21
1267.1319022311241
  0
ARC
  8
_0-2_____-2
  6
CONTINUOUS
 62
    2
 10
610.37818524539693
 20
1277.1319022311216
 40
9.9999999999974865
 50
179.99999999998556
 51
270.00000000001683
  0
LINE
  8
_0-2_____-2
  6
CONTINUOUS
 62
    2
 10
600.37818524539944
 20
1277.1319022311241
 11
600.37818524540069
 21
1650.931902231124
  0
ARC
  8
_0-2_____-2
  6
CONTINUOUS
 62
    2
 10
610.37818524539773
 20
1650.931902231127
 40
9.9999999999970584
 50
89.999999999985562
 51
180.00000000001685
  0
LINE
  8
_0-2_____-2
  6
CONTINUOUS
 62
    2
 10
600.37818524539944
 20
1660.931902231124
 11
582.68918449240437
 21
1673.5669027689778
  0
LINE
  8
_0-2_____-2
  6
CONTINUOUS
 62
    2
 10
600.37818524539944
 20
1267.1319022311241
 11
582.68918449240471
 21
1254.496901693271
  0
LINE
  8
_0-2_____-2
  6
CONTINUOUS
 62
    2
 10
1342.5781852453999
 20
1660.931902231124
 11
1360.2671859983952
 21
1673.5669027689778
  0
LINE
  8
_0-2_____-2
  6
CONTINUOUS
 62
    2
 10
1342.5781852453999
 20
1267.1319022311241
 11
1360.2671859983946
 21
1254.496901693271
  0
LINE
  8
_0-2_____-2
  6
______-17
 62
    3
 10
1003.9781852453997
 20
1733.5444022311242
 11
938.97818524539969
 21
1733.5444022311242
  0
CIRCLE
  8
_0-2_____-2
  6
CONTINUOUS
 62
    1
 10
971.47818524539969
 20
1733.5444022311242
 40
17.499999999999709
  0
LINE
  8
_0-2_____-2
  6
______-17
 62
    3
 10
971.47818524539969
 20
1701.0444022311242
 11
971.47818524539969
 21
1766.0444022311242
  0
POINT
  8
_0-2_____-2
 62
    2
 10
1201.6656852453998
 20
1470.0194022311239
  0
LINE
  8
_0-2_____-2
  6
______-6
 62
    3
 10
1114.1656852453998
 20
1470.0194022311239
 11
1289.1656852453998
 21
1470.0194022311239
  0
CIRCLE
  8
_0-2_____-2
  6
CONTINUOUS
 62
    1
 10
1201.6656852453998
 20
1470.0194022311239
 40
48.999999999999858
  0
LINE
  8
_0-2_____-2
  6
______-6
 62
    3
 10
1201.6656852453998
 20
1557.5194022311239
 11
1201.6656852453998
 21
1382.5194022311239
  0
CIRCLE
  8
_0-2_____-2
  6
CONTINUOUS
 62
    3
 10
1201.6656852453998
 20
1470.0194022311239
 40
72
  0
POINT
  8
_0-2_____-2
 62
    2
 10
1201.6656852453998
 20
1470.0194022311239
  0
LINE
  8
_0-2_____-2
  6
______-17
 62
    3
 10
971.47818524539969
 20
694.63190223113259
 11
971.47818524539969
 21
759.63190223113259
  0
LINE
  8
_0-2_____-2
  6
CONTINUOUS
 62
    4
 10
1390.5781852453993
 20
719.1944022311327
 11
1390.5781852453993
 21
721.61504471877697
  0
ARC
  8
_0-2_____-2
  6
CONTINUOUS
 62
    4
 10
1389.1133736886377
 20
721.29204765506756
 40
1.4999999999954645
 50
12.434969114843451
 51
48.764644647525458
  0
ARC
  8
_0-2_____-2
  6
CONTINUOUS
 62
    4
 10
1377.5781852453986
 20
708.13190223113224
 40
19.000000000000387
 50
48.764644647466802
 51
89.999999999999233
  0
LINE
  8
_0-2_____-2
  6
CONTINUOUS
 62
    4
 10
1377.5781852453986
 20
727.13190223113259
 11
565.37818524539966
 21
727.13190223113259
  0
ARC
  8
_0-2_____-2
  6
CONTINUOUS
 62
    4
 10
565.3781852454
 20
708.13190223113224
 40
19.000000000000334
 50
90.00000000000081
 51
131.23535535253328
  0
ARC
  8
_0-2_____-2
  6
CONTINUOUS
 62
    4
 10
553.84299680215713
 20
721.29204765506927
 40
1.4999999999918709
 50
131.23535535241939
 51
167.56503088517252
  0
LINE
  8
_0-2_____-2
  6
CONTINUOUS
 62
    4
 10
552.37818524539932
 20
721.61504471877743
 11
552.37818524539932
 21
719.1944022311327
  0
LINE
  8
_0-2_____-2
  6
CONTINUOUS
 62
    4
 10
552.37818524539932
 20
719.1944022311327
 11
1390.5781852453993
 21
719.1944022311327
  0
LINE
  8
_0-2_____-2
  6
______-6
 62
    3
 10
1201.6656852453998
 20
291.71940223113268
 11
1201.6656852453998
 21
541.71940223113268
  0
LINE
  8
_0-2_____-2
  6
CONTINUOUS
 62
    1
 10
1116.370841792077
 20
469.95690223113286
 11
1272.8296141803989
 21
469.95690223113286
  0
LINE
  8
_0-2_____-2
  6
CONTINUOUS
 62
    1
 10
584.4375676975983
 20
687.21548249511045
 11
591.99356239465385
 21
544.45718495195251
  0
LINE
  8
_0-2_____-2
  6
CONTINUOUS
 62
    1
 10
1358.9965248664055
 20
696.9520243459956
 11
1349.9266056745093
 21
523.88765649876973
  0
ARC
  8
_0-2_____-2
  6
CONTINUOUS
 62
    1
 10
569.76175753504947
 20
708.94419337342185
 40
10.279999998807479
 50
35.589343804077977
 51
85.63695613828753
  0
ARC
  8
_0-2_____-2
  6
CONTINUOUS
 62
    1
 10
507.18319650676449
 20
684.09225491585687
 40
77.350000000736756
 50
1.2210759438226699
 51
23.493027410177
  0
ARC
  8
_0-2_____-2
  6
CONTINUOUS
 62
    1
 10
652.69389976769708
 20
548.99876428063317
 40
60.87000000000009
 50
184.2788789464027
 51
268.21324341394171
  0
LINE
  8
_0-2_____-2
  6
CONTINUOUS
 62
    1
 10
650.67818524518634
 20
488.16214870281073
 11
657.40605589222594
 21
487.94575319058993
  0
LINE
  8
_0-2_____-2
  6
CONTINUOUS
 62
    1
 10
681.20072451652959
 20
487.18042047609401
 11
1083.7781852453988
 21
474.23190223113266
  0
LINE
  8
_0-2_____-2
  6
CONTINUOUS
 62
    1
 10
657.4739370030793
 20
487.34997240612785
 11
657.47292777088069
 21
487.3647173998998
  0
ARC
  8
_0-2_____-2
  6
CONTINUOUS
 62
    1
 10
651.17304080596818
 20
486.93351689415096
 40
6.314626643502443
 50
3.9155458361888331
 51
5.983722770932264
  0
LINE
  8
_0-2_____-2
  6
CONTINUOUS
 62
    1
 10
657.45326252733901
 20
487.59179098391485
 11
657.4531776326362
 21
487.5926009163814
  0
ARC
  8
_0-2_____-2
  6
CONTINUOUS
 62
    1
 10
651.17939316364323
 20
486.93500156019013
 40
6.3081541259421101
 50
5.9837227709489049
 51
8.0392325718945798
  0
LINE
  8
_0-2_____-2
  6
CONTINUOUS
 62
    1
 10
657.42555415439426
 20
487.81720411871049
 11
657.42544951900845
 21
487.81794495703423
  0
ARC
  8
_0-2_____-2
  6
CONTINUOUS
 62
    1
 10
651.1997309684366
 20
486.93862967168485
 40
6.2875087945848884
 50
8.0392325718615556
 51
10.087858680830156
  0
LINE
  8
_0-2_____-2
  6
CONTINUOUS
 62
    1
 10
657.39003688359389
 20
488.03993776606774
 11
657.38991658065311
 21
488.0406139728521
  0
ARC
  8
_0-2_____-2
  6
CONTINUOUS
 62
    1
 10
651.21379097513056
 20
486.94182867620697
 40
6.2731058195534324
 50
10.087858680862841
 51
12.12864509782899
  0
LINE
  8
_0-2_____-2
  6
CONTINUOUS
 62
    1
 10
657.34687050572472
 20
488.25985450854944
 11
657.34673818345755
 21
488.26047023471205
  0
ARC
  8
_0-2_____-2
  6
CONTINUOUS
 62
    1
 10
651.22230708962343
 20
486.94430298956405
 40
6.264259927583006
 50
12.128645097802254
 51
14.160795800801974
  0
LINE
  8
_0-2_____-2
  6
CONTINUOUS
 62
    1
 10
657.29621477942624
 20
488.47681655102946
 11
657.29607362990862
 21
488.47737597781872
  0
ARC
  8
_0-2_____-2
  6
CONTINUOUS
 62
    1
 10
651.22611669415824
 20
486.94585923495225
 40
6.2601853595197445
 50
14.160795800816874
 51
16.183711073374091
  0
LINE
  8
_0-2_____-2
  6
CONTINUOUS
 62
    1
 10
657.23822945528809
 20
488.69068612694036
 11
657.23808223205538
 21
488.6911934108889
  0
ARC
  8
_0-2_____-2
  6
CONTINUOUS
 62
    1
 10
651.22604559047841
 20
486.94638861021019
 40
6.2601060991116828
 50
16.18371107337321
 51
18.196985939065272
  0
LINE
  8
_0-2_____-2
  6
CONTINUOUS
 62
    1
 10
657.17307427245839
 20
488.90132549610769
 11
657.17292331460396
 21
488.90178471844735
  0
ARC
  8
_0-2_____-2
  6
CONTINUOUS
 62
    1
 10
651.22289991372213
 20
486.94586339363468
 40
6.2632584730233587
 50
18.196985939093999
 51
20.200406254933736
  0
LINE
  8
_0-2_____-2
  6
CONTINUOUS
 62
    1
 10
657.10090895570954
 20
489.10859694222836
 11
657.10075621751116
 21
489.10901206341265
  0
ARC
  8
_0-2_____-2
  6
CONTINUOUS
 62
    1
 10
651.2174579370253
 20
486.94433241139279
 40
6.2688943724580461
 50
20.200406254916871
 51
22.193942771136701
  0
LINE
  8
_0-2_____-2
  6
CONTINUOUS
 62
    1
 10
657.02189321302512
 20
489.31236277010157
 11
657.02174029814273
 21
489.31273758984759
  0
ARC
  8
_0-2_____-2
  6
CONTINUOUS
 62
    1
 10
651.21046196997463
 20
486.9419154771586
 40
6.2762849917327914
 50
22.193942771142986
 51
24.177743497151951
  0
LINE
  8
_0-2_____-2
  6
CONTINUOUS
 62
    1
 10
656.93618673365734
 20
489.51248530270334
 11
656.9360349329279
 21
489.51282342586467
  0
ARC
  8
_0-2_____-2
  6
CONTINUOUS
 62
    1
 10
651.20261018344661
 20
486.93879668403895
 40
6.2847253739203541
 50
24.177743497160293
 51
26.152124598121702
  0
LINE
  8
_0-2_____-2
  6
CONTINUOUS
 62
    1
 10
656.84394918665191
 20
489.70882687819085
 11
656.84379951859205
 21
489.70913168651606
  0
ARC
  8
_0-2_____-2
  6
CONTINUOUS
 62
    1
 10
651.19454897188371
 20
486.93521673833942
 40
6.2935392172609372
 50
26.152124598137267
 51
28.117560181204883
  0
LINE
  8
_0-2_____-2
  6
CONTINUOUS
 62
    1
 10
656.74534021981367
 20
489.90124984690453
 11
656.74519347295882
 21
489.90152447673125
  0
ARC
  8
_0-2_____-2
  6
CONTINUOUS
 62
    1
 10
651.18686561840991
 20
486.93146422613495
 40
6.3020842925834222
 50
28.117560181181343
 51
30.074671161653526
  0
LINE
  8
_0-2_____-2
  6
CONTINUOUS
 62
    1
 10
656.64051945907681
 20
490.08961656840796
 11
656.64037623549439
 21
490.08986389398245
  0
ARC
  8
_0-2_____-2
  6
CONTINUOUS
 62
    1
 10
651.18008182337917
 20
486.92786606813485
 40
6.3097579444571537
 50
30.074671161643774
 51
32.02421350047247
  0
LINE
  8
_0-2_____-2
  6
CONTINUOUS
 62
    1
 10
656.52964650817012
 20
490.27378940869113
 11
656.52950726709503
 21
490.27401203158519
  0
ARC
  8
_0-2_____-2
  6
CONTINUOUS
 62
    1
 10
651.17464786070036
 20
486.92477706968418
 40
6.3160030155370936
 50
32.024213500471298
 51
33.967065906574994
  0
LINE
  8
_0-2_____-2
  6
CONTINUOUS
 62
    1
 10
656.4128809488202
 20
490.45363073720864
 11
656.41274605151102
 21
490.45383097887765
  0
ARC
  8
_0-2_____-2
  6
CONTINUOUS
 62
    1
 10
651.17093829654641
 20
486.92256915654553
 40
6.3203131724519306
 50
33.96706590655954
 51
35.904217387441669
  0
LINE
  8
_0-2_____-2
  6
CONTINUOUS
 62
    1
 10
656.29038234018935
 20
490.62900292526137
 11
656.29025208819917
 21
490.62918283344686
  0
ARC
  8
_0-2_____-2
  6
CONTINUOUS
 62
    1
 10
651.16924761339169
 20
486.92161932589244
 40
6.3222396343027825
 50
35.904217387449691
 51
37.836754090033992
  0
LINE
  8
_0-2_____-2
  6
CONTINUOUS
 62
    1
 10
656.16231022277839
 20
490.79976833957033
 11
656.16218492101575
 21
490.79992966383713
  0
ARC
  8
_0-2_____-2
  6
CONTINUOUS
 62
    1
 10
651.16978993698353
 20
486.92229919975773
 40
6.3213942839019417
 50
37.836754090033438
 51
39.765847318125651
  0
LINE
  8
_0-2_____-2
  6
CONTINUOUS
 62
    1
 10
656.02882410498614
 20
490.96578935638377
 11
656.02870401191376
 21
490.96593367139832
  0
ARC
  8
_0-2_____-2
  6
CONTINUOUS
 62
    1
 10
651.17269951708408
 20
486.9249646852785
 40
6.3174528095262792
 50
39.765847318151415
 51
41.692739316424145
  0
LINE
  8
_0-2_____-2
  6
CONTINUOUS
 62
    1
 10
655.89008352207657
 20
491.12692829174051
 11
655.88996927646747
 21
491.12705655092128
  0
ARC
  8
_0-2_____-2
  6
CONTINUOUS
 62
    1
 10
651.17799395922532
 20
486.92991068010372
 40
6.3102095726860741
 50
41.69273931644581
 51
43.618724418634052
  0
LINE
  8
_0-2_____-2
  6
CONTINUOUS
 62
    1
 10
655.74624779834164
 20
491.28304767687041
 11
655.74157809635904
 21
491.28794813923264
  0
ARC
  8
_0-2_____-2
  6
CONTINUOUS
 62
    1
 10
651.46598593007127
 20
487.21369152005281
 40
5.9059508439668438
 50
43.618724418573024
 51
45.545215385326046
  0
LINE
  8
_0-2_____-2
  6
CONTINUOUS
 62
    1
 10
655.60219603862379
 20
491.42937904515009
 11
655.59742142661503
 21
491.43406364246346
  0
ARC
  8
_0-2_____-2
  6
CONTINUOUS
 62
    1
 10
651.19268216125738
 20
486.94468716377088
 40
6.2893743061789564
 50
45.545215385313107
 51
47.232436663603679
  0
LINE
  8
_0-2_____-2
  6
CONTINUOUS
 62
    1
 10
655.46332965287183
 20
491.5618073880654
 11
655.45361368186775
 21
491.57077526827266
  0
ARC
  8
_0-2_____-2
  6
CONTINUOUS
 62
    1
 10
651.70825094103657
 20
486.12408188073857
 40
5.8405141478681877
 50
4.076451874253455
 51
6.2136735402447174
  0
LINE
  8
_0-2_____-2
  6
CONTINUOUS
 62
    1
 10
657.5144530132826
 20
486.75623930392931
 11
657.51444113200273
 21
486.7563484304037
  0
ARC
  8
_0-2_____-2
  6
CONTINUOUS
 62
    1
 10
653.01999797972621
 20
486.26701038008065
 40
4.5210033152542932
 50
6.2136735402310954
 51
8.9772364330327186
  0
LINE
  8
_0-2_____-2
  6
CONTINUOUS
 62
    1
 10
657.48562087574112
 20
486.97247698249896
 11
657.4831559872232
 21
486.98807979426135
  0
ARC
  8
_0-2_____-2
  6
CONTINUOUS
 62
    1
 10
652.23013954391809
 20
486.15822296375967
 40
5.3181617230734615
 50
8.9772364330253076
 51
11.666886914609247
  0
LINE
  8
_0-2_____-2
  6
CONTINUOUS
 62
    1
 10
657.4384272184119
 20
487.23366873760426
 11
657.43836756926476
 21
487.23395761308751
  0
ARC
  8
_0-2_____-2
  6
CONTINUOUS
 62
    1
 10
652.07815634036422
 20
486.12714153968426
 40
5.4732902571282853
 50
11.666886914614071
 51
14.286504320139532
  0
LINE
  8
_0-2_____-2
  6
CONTINUOUS
 62
    1
 10
657.38217898630762
 20
487.47778953605263
 11
657.38209755292473
 21
487.47810932663384
  0
ARC
  8
_0-2_____-2
  6
CONTINUOUS
 62
    1
 10
651.92764988844124
 20
486.0891562053709
 40
5.6285157988278804
 50
14.286504320143447
 51
16.84061606478727
  0
LINE
  8
_0-2_____-2
  6
CONTINUOUS
 62
    1
 10
657.31478322427972
 20
487.71979550317781
 11
657.31468260228303
 21
487.72012792746921
  0
ARC
  8
_0-2_____-2
  6
CONTINUOUS
 62
    1
 10
651.78173264173768
 20
486.0453511814697
 40
5.7808660609668605
 50
16.840616064781209
 51
19.334319090538276
  0
LINE
  8
_0-2_____-2
  6
CONTINUOUS
 62
    1
 10
657.2365741034364
 20
487.95927830719108
 11
657.23645880131869
 21
487.95960692721195
  0
ARC
  8
_0-2_____-2
  6
CONTINUOUS
 62
    1
 10
651.64362777670647
 20
485.99726373488551
 40
5.9271029748381441
 50
19.334319090545403
 51
21.773244799592423
  0
LINE
  8
_0-2_____-2
  6
CONTINUOUS
 62
    1
 10
657.1478861394005
 20
488.19582907415736
 11
657.14776200704034
 21
488.19613984799219
  0
ARC
  8
_0-2_____-2
  6
CONTINUOUS
 62
    1
 10
651.51633683805471
 20
485.94678028464898
 40
6.0640389081114288
 50
21.77324479959643
 51
24.163432707984267
  0
LINE
  8
_0-2_____-2
  6
CONTINUOUS
 62
    1
 10
657.04905406432033
 20
488.42903892815741
 11
657.04892787380254
 21
488.42932019475825
  0
ARC
  8
_0-2_____-2
  6
CONTINUOUS
 62
    1
 10
651.40255434394874
 20
485.89606954670359
 40
6.1886099315196796
 50
24.163432707958222
 51
26.511227704710915
  0
LINE
  8
_0-2_____-2
  6
CONTINUOUS
 62
    1
 10
656.94041280172428
 20
488.65849901840932
 11
656.94029187837884
 21
488.6587414341443
  0
ARC
  8
_0-2_____-2
  6
CONTINUOUS
 62
    1
 10
651.3045891698473
 20
485.84750467637775
 40
6.2979518200100051
 50
26.511227704693184
 51
28.823199642524859
  0
LINE
  8
_0-2_____-2
  6
CONTINUOUS
 62
    1
 10
656.82229744566894
 20
488.88380052989675
 11
656.8221893384424
 21
488.88399698774094
  0
ARC
  8
_0-2_____-2
  6
CONTINUOUS
 62
    1
 10
651.22428912320277
 20
485.80357294893275
 40
6.389483475105572
 50
28.823199642561349
 51
31.106080531791314
  0
LINE
  8
_0-2_____-2
  6
CONTINUOUS
 62
    1
 10
656.69504322578291
 20
489.10453472207564
 11
656.69495544742722
 21
489.10468019901003
  0
ARC
  8
_0-2_____-2
  6
CONTINUOUS
 62
    1
 10
651.1606368403784
 20
485.76530063473712
 40
6.4637557440400073
 50
31.106566489543784
 51
33.367205509131232
  0
ARC
  8
_0-2_____-2
  6
CONTINUOUS
 62
    1
 10
651.12054636148002
 20
485.73893829283463
 40
6.5117371830142199
 50
33.366914896687504
 51
35.612256981975662
  0
ARC
  8
_0-2_____-2
  6
CONTINUOUS
 62
    1
 10
651.10016917978396
 20
485.72438353762692
 40
6.5367785359083328
 50
35.611968609212227
 51
37.848916430365243
  0
ARC
  8
_0-2_____-2
  6
CONTINUOUS
 62
    1
 10
651.09967303382268
 20
485.72404328623833
 40
6.5373790803953131
 50
37.848603081303764
 51
40.084349686323058
  0
LINE
  8
_0-2_____-2
  6
CONTINUOUS
 62
    1
 10
656.10140421164203
 20
489.93355756529951
 11
656.10130026429965
 21
489.93368107341951
  0
ARC
  8
_0-2_____-2
  6
CONTINUOUS
 62
    1
 10
651.12068883161101
 20
485.74188120148733
 40
6.5098138536951575
 50
40.084755154444579
 51
42.326311515688104
  0
LINE
  8
_0-2_____-2
  6
CONTINUOUS
 62
    1
 10
655.93353713308261
 20
490.12527801637674
 11
655.93338380216733
 21
490.12544636947496
  0
ARC
  8
_0-2_____-2
  6
CONTINUOUS
 62
    1
 10
651.15658094928563
 20
485.77487866006749
 40
6.4610591151481618
 50
42.326311515664166
 51
44.580741068126592
  0
LINE
  8
_0-2_____-2
  6
CONTINUOUS
 62
    1
 10
655.75854797704324
 20
490.3099844322486
 11
655.73612560352785
 21
490.33273737976202
  0
ARC
  8
_0-2_____-2
  6
CONTINUOUS
 62
    1
 10
652.32292075118312
 20
486.96912244420758
 40
4.792063521986508
 50
44.580741068105475
 51
46.856558770090665
  0
LINE
  8
_0-2_____-2
  6
CONTINUOUS
 62
    1
 10
655.59986403960238
 20
490.46562290656112
 11
655.59968244915922
 21
490.46579309432161
  0
ARC
  8
_0-2_____-2
  6
CONTINUOUS
 62
    1
 10
649.10864626247064
 20
483.53985357375649
 40
9.4922172867789811
 50
46.856558770096107
 51
48.002593993680215
  0
ARC
  8
_0-2_____-2
  6
CONTINUOUS
 62
    1
 10
652.31901283044579
 20
487.10565150053384
 40
4.6941584756154988
 50
48.00259399368074
 51
50.319792121888504
  0
LINE
  8
_0-2_____-2
  6
CONTINUOUS
 62
    1
 10
655.31624240451606
 20
490.71837051458857
 11
655.28574780359327
 21
490.74366983052755
  0
ARC
  8
_0-2_____-2
  6
CONTINUOUS
 62
    1
 10
651.62080286941455
 20
486.32611824764723
 40
5.7399114416487134
 50
50.319792121930611
 51
52.675674201487297
  0
LINE
  8
_0-2_____-2
  6
CONTINUOUS
 62
    1
 10
655.10106085075017
 20
490.8905883966699
 11
655.09464227444482
 21
490.89548234945909
  0
ARC
  8
_0-2_____-2
  6
CONTINUOUS
 62
    1
 10
651.45559588481524
 20
486.12275610173498
 40
6.0017976025179767
 50
52.675674201485521
 51
54.774733079617739
  0
LINE
  8
_0-2_____-2
  6
CONTINUOUS
 62
    1
 10
654.91738841035931
 20
491.02556825107115
 11
654.90456615508617
 21
491.03459604289895
  0
ARC
  8
_0-2_____-2
  6
CONTINUOUS
 62
    1
 10
686.06698359025131
 20
482.3049541392362
 40
6.9471967557317003
 50
115.3089559448502
 51
117.42730866261876
  0
LINE
  8
_0-2_____-2
  6
CONTINUOUS
 62
    1
 10
682.8669457539288
 20
488.471257781529
 11
682.84800151856734
 21
488.46142656440861
  0
ARC
  8
_0-2_____-2
  6
CONTINUOUS
 62
    1
 10
684.87751311844681
 20
484.55066506392058
 40
4.4060155296759138
 50
117.42730866265133
 51
120.74513502668098
  0
LINE
  8
_0-2_____-2
  6
CONTINUOUS
 62
    1
 10
682.6250693649871
 20
488.33741432750344
 11
682.58823555135473
 21
488.31550474552216
  0
ARC
  8
_0-2_____-2
  6
CONTINUOUS
 62
    1
 10
685.61532375678462
 20
483.22644358022103
 40
5.9213010857098638
 50
120.74513502658485
 51
122.38509851726786
  0
ARC
  8
_0-2_____-2
  6
CONTINUOUS
 62
    1
 10
685.63403727559546
 20
483.19693883435946
 40
5.9562399725643642
 50
122.38509851734416
 51
124.01544339891093
  0
LINE
  8
_0-2_____-2
  6
CONTINUOUS
 62
    1
 10
682.30201930750445
 20
488.13398763613293
 11
682.26700126288938
 21
488.11035393135313
  0
ARC
  8
_0-2_____-2
  6
CONTINUOUS
 62
    1
 10
684.78859828665975
 20
484.37410530244904
 40
4.5075498186128122
 50
124.01544339890424
 51
127.23127294733538
  0
LINE
  8
_0-2_____-2
  6
CONTINUOUS
 62
    1
 10
682.06137836570883
 20
487.96301556463789
 11
682.06109366560838
 21
487.96279922047518
  0
ARC
  8
_0-2_____-2
  6
CONTINUOUS
 62
    1
 10
687.55932374589759
 20
480.72735252716313
 40
9.0874761549924958
 50
127.23127294740212
 51
128.82218931520475
  0
ARC
  8
_0-2_____-2
  6
CONTINUOUS
 62
    1
 10
684.74512583742467
 20
484.22473434150959
 40
4.598446257188801
 50
128.82218931515462
 51
131.96558080126991
  0
LINE
  8
_0-2_____-2
  6
CONTINUOUS
 62
    1
 10
681.67021813602048
 20
487.6438936838187
 11
681.63892300566295
 21
487.6157494449231
  0
ARC
  8
_0-2_____-2
  6
CONTINUOUS
 62
    1
 10
685.78596216390929
 20
483.00442804677175
 40
6.2017915812350166
 50
131.96558080129915
 51
135.06247612219755
  0
LINE
  8
_0-2_____-2
  6
CONTINUOUS
 62
    1
 10
681.39585406517676
 20
487.38497249906544
 11
681.3956872879163
 21
487.38480535769526
  0
ARC
  8
_0-2_____-2
  6
CONTINUOUS
 62
    1
 10
685.83953500400298
 20
482.95063835730474
 40
6.2777081416007841
 50
135.06247612219011
 51
138.11763154106796
  0
LINE
  8
_0-2_____-2
  6
CONTINUOUS
 62
    1
 10
681.16567443306292
 20
487.14165814663204
 11
681.16555076227485
 21
487.14152022792746
  0
ARC
  8
_0-2_____-2
  6
CONTINUOUS
 62
    1
 10
685.89067791887783
 20
482.90453003109775
 40
6.3465669912243259
 50
138.11763154105282
 51
141.13631223363211
  0
ARC
  8
_0-2_____-2
  6
CONTINUOUS
 62
    1
 10
685.93870554320893
 20
482.86572957451824
 40
6.408309378993847
 50
141.13563499918476
 51
144.12389212449352
  0
ARC
  8
_0-2_____-2
  6
CONTINUOUS
 62
    1
 10
685.97587794583444
 20
482.83885810646296
 40
6.4541772675215379
 50
144.12398741835031
 51
147.08851391390905
  0
ARC
  8
_0-2_____-2
  6
CONTINUOUS
 62
    1
 10
686.00229553779855
 20
482.82176607835282
 40
6.4856419551344278
 50
147.08855686942422
 51
150.03647950587418
  0
ARC
  8
_0-2_____-2
  6
CONTINUOUS
 62
    1
 10
686.01567486363797
 20
482.81405760776948
 40
6.5010830322300164
 50
150.0365156440682
 51
152.97536942253015
  0
LINE
  8
_0-2_____-2
  6
CONTINUOUS
 62
    1
 10
680.22443677731542
 20
485.76797737978069
 11
680.2054638430775
 21
485.73077963719328
  0
ARC
  8
_0-2_____-2
  6
CONTINUOUS
 62
    1
 10
684.54626015191468
 20
483.51673014979724
 40
4.8728356967430662
 50
152.97586920123132
 51
155.91364255518224
  0
ARC
  8
_0-2_____-2
  6
CONTINUOUS
 62
    1
 10
688.98404544879725
 20
481.53283770355813
 40
9.7338816313845768
 50
155.9134108320373
 51
157.38385483731426
  0
ARC
  8
_0-2_____-2
  6
CONTINUOUS
 62
    1
 10
684.47346486623417
 20
483.4118952195891
 40
4.8475543459632471
 50
157.3837741947591
 51
160.33437868484364
  0
ARC
  8
_0-2_____-2
  6
CONTINUOUS
 62
    1
 10
689.00142573956259
 20
481.79373148820815
 40
9.6559723323521709
 50
160.3344706466419
 51
161.81524432389924
  0
ARC
  8
_0-2_____-2
  6
CONTINUOUS
 62
    1
 10
684.38213155793164
 20
483.31111042897504
 40
4.7938413606209664
 50
161.8151767925595
 51
164.79585167365809
  0
LINE
  8
_0-2_____-2
  6
CONTINUOUS
 62
    1
 10
679.75608658670581
 20
484.56833869583676
 11
679.74517495037139
 21
484.52818789684073
  0
ARC
  8
_0-2_____-2
  6
CONTINUOUS
 62
    1
 10
685.86446083866178
 20
482.86517186954825
 40
6.3412366372546902
 50
164.7961386562321
 51
166.2975785522132
  0
ARC
  8
_0-2_____-2
  6
CONTINUOUS
 62
    1
 10
685.8425990493156
 20
482.87050217817352
 40
6.318734414620927
 50
166.29757855222715
 51
167.80436474783852
  0
LINE
  8
_0-2_____-2
  6
CONTINUOUS
 62
    1
 10
679.66646589609866
 20
484.20533695306148
 11
679.65769350720791
 21
484.16474807803326
  0
ARC
  8
_0-2_____-2
  6
CONTINUOUS
 62
    1
 10
684.24002296802814
 20
483.1743787704832
 40
4.6881312537980131
 50
167.8043647478533
 51
170.84965102716842
  0
LINE
  8
_0-2_____-2
  6
CONTINUOUS
 62
    1
 10
679.61155079443427
 20
483.91991213063932
 11
679.60660067171773
 21
483.8891804337436
  0
ARC
  8
_0-2_____-2
  6
CONTINUOUS
 62
    1
 10
686.21257215471792
 20
482.82512043033222
 40
6.6911197063774361
 50
170.84965102715501
 51
173.16090348996448
  0
ARC
  8
_0-2_____-2
  6
CONTINUOUS
 62
    1
 10
685.19339498973318
 20
482.9473553440792
 40
5.6646385970701152
 50
173.16090348995843
 51
175.89082842781738
  0
LINE
  8
_0-2_____-2
  6
CONTINUOUS
 62
    1
 10
679.5433183360127
 20
483.35326696315178
 11
679.54257436153512
 21
483.34291122897241
  0
LINE
  8
_0-2_____-2
  6
CONTINUOUS
 62
    1
 10
679.54257436153512
 20
483.34291122897241
 11
679.54112207922753
 21
483.32219406511797
  0
LINE
  8
_0-2_____-2
  6
CONTINUOUS
 62
    1
 10
683.79195097799209
 20
487.80465238924364
 11
683.75525972562457
 21
487.79212498682682
  0
ARC
  8
_0-2_____-2
  6
CONTINUOUS
 62
    1
 10
685.59072751477231
 20
482.41626097097111
 40
5.6805682745629973
 50
108.85131565101871
 51
111.16040240652654
  0
LINE
  8
_0-2_____-2
  6
CONTINUOUS
 62
    1
 10
683.54015514410116
 20
487.71380841055219
 11
683.52762200383324
 21
487.70895708804034
  0
ARC
  8
_0-2_____-2
  6
CONTINUOUS
 62
    1
 10
685.8116647867912
 20
481.80825093896004
 40
6.3273362872677037
 50
111.16040240652626
 51
112.99019064630124
  0
LINE
  8
_0-2_____-2
  6
CONTINUOUS
 62
    1
 10
683.3403747349638
 20
487.63301788467686
 11
683.33983822404662
 21
487.63279025769947
  0
ARC
  8
_0-2_____-2
  6
CONTINUOUS
 62
    1
 10
685.80124156984584
 20
481.83132602321933
 40
6.302022984301515
 50
112.99019064627939
 51
114.81673277845604
  0
LINE
  8
_0-2_____-2
  6
CONTINUOUS
 62
    1
 10
683.15617429380632
 20
487.55138833056265
 11
683.1556880488489
 21
487.55116348150381
  0
ARC
  8
_0-2_____-2
  6
CONTINUOUS
 62
    1
 10
685.79221014135396
 20
481.84958047056881
 40
6.2816635993062055
 50
114.81673277841317
 51
116.63942371218592
  0
LINE
  8
_0-2_____-2
  6
CONTINUOUS
 62
    1
 10
682.97567408888676
 20
487.46441993755298
 11
682.9752352509895
 21
487.46419980610199
  0
ARC
  8
_0-2_____-2
  6
CONTINUOUS
 62
    1
 10
685.78499594511595
 20
481.86286719604254
 40
6.2665526541131396
 50
116.63942371228802
 51
118.45753363974644
  0
LINE
  8
_0-2_____-2
  6
CONTINUOUS
 62
    1
 10
682.79893805062648
 20
487.37223561878665
 11
682.79854375761033
 21
487.37202191338838
  0
ARC
  8
_0-2_____-2
  6
CONTINUOUS
 62
    1
 10
685.77967654637541
 20
481.87174046179393
 40
6.2562168081839786
 50
118.45753363972003
 51
120.27043420481679
  0
LINE
  8
_0-2_____-2
  6
CONTINUOUS
 62
    1
 10
682.62603009708528
 20
487.27495828304484
 11
682.62567750681205
 21
487.27475248992306
  0
ARC
  8
_0-2_____-2
  6
CONTINUOUS
 62
    1
 10
685.77628578412805
 20
481.87674004132191
 40
6.2501896701094655
 50
120.27043420484272
 51
122.07759959730264
  0
LINE
  8
_0-2_____-2
  6
CONTINUOUS
 62
    1
 10
682.45701413486074
 20
487.17271083341615
 11
682.45670044675705
 21
487.17251422809682
  0
ARC
  8
_0-2_____-2
  6
CONTINUOUS
 62
    1
 10
685.77481589308547
 20
481.87838818318113
 40
6.2480125395694941
 50
122.07759959732623
 51
123.87860648764375
  0
LINE
  8
_0-2_____-2
  6
CONTINUOUS
 62
    1
 10
682.29195406014867
 20
487.06561616614948
 11
682.29167653460593
 21
487.06542982710232
  0
ARC
  8
_0-2_____-2
  6
CONTINUOUS
 62
    1
 10
685.77522000298472
 20
481.87718664495236
 40
6.2492353462811048
 50
123.8786064875795
 51
125.67313289154713
  0
LINE
  8
_0-2_____-2
  6
CONTINUOUS
 62
    1
 10
682.13091375989825
 20
486.95379716968347
 11
682.1306697354114
 21
486.95362199375552
  0
ARC
  8
_0-2_____-2
  6
CONTINUOUS
 62
    1
 10
685.77741503963148
 20
481.87361379534764
 40
6.2534178342521951
 50
125.67313289158814
 51
127.46095605073204
  0
LINE
  8
_0-2_____-2
  6
CONTINUOUS
 62
    1
 10
681.97395711305035
 20
486.83737672385945
 11
681.97374402097068
 21
486.83721344314478
  0
ARC
  8
_0-2_____-2
  6
CONTINUOUS
 62
    1
 10
685.78128502856441
 20
481.86812182518025
 40
6.2601309916193824
 50
127.4609560507718
 51
129.24194942029726
  0
LINE
  8
_0-2_____-2
  6
CONTINUOUS
 62
    1
 10
681.82114799180249
 20
486.71647769931951
 11
681.82096336861616
 21
486.71632689910268
  0
ARC
  8
_0-2_____-2
  6
CONTINUOUS
 62
    1
 10
685.78668471826268
 20
481.8611342069579
 40
6.2689585977973916
 50
129.24194942026764
 51
131.01607889197928
  0
LINE
  8
_0-2_____-2
  6
CONTINUOUS
 62
    1
 10
681.6725502628891
 20
486.59122295707732
 11
681.67239176003193
 21
486.59108509453375
  0
ARC
  8
_0-2_____-2
  6
CONTINUOUS
 62
    1
 10
685.79344359794368
 20
481.85304331474214
 40
6.2794990371689163
 50
131.01607889187119
 51
132.78339833170216
  0
LINE
  8
_0-2_____-2
  6
CONTINUOUS
 62
    1
 10
681.52822778885991
 20
486.46173534825323
 11
681.52809318008735
 21
486.46161077159206
  0
ARC
  8
_0-2_____-2
  6
CONTINUOUS
 62
    1
 10
685.80137018512289
 20
481.84420837706796
 40
6.2913671991644291
 50
132.7833983318022
 51
134.54404455263227
  0
LINE
  8
_0-2_____-2
  6
CONTINUOUS
 62
    1
 10
681.38824442932764
 20
486.32813771396201
 11
681.38813161568601
 21
486.32802668170683
  0
ARC
  8
_0-2_____-2
  6
CONTINUOUS
 62
    1
 10
685.81025659605643
 20
481.83495373791089
 40
6.3041965245610072
 50
134.54404455257469
 51
136.29823181125386
  0
ARC
  8
_0-2_____-2
  6
CONTINUOUS
 62
    1
 10
685.82334360562811
 20
481.8224467472163
 40
6.3222988624145016
 50
136.29823181135771
 51
138.04739717030671
  0
LINE
  8
_0-2_____-2
  6
CONTINUOUS
 62
    1
 10
681.12146195073319
 20
486.04900229624803
 11
681.0892594811653
 21
486.0131782785237
  0
ARC
  8
_0-2_____-2
  6
CONTINUOUS
 62
    1
 10
684.6251156942451
 20
482.8347714629362
 40
4.7544241549263244
 50
138.04739717024307
 51
141.52543846508203
  0
LINE
  8
_0-2_____-2
  6
CONTINUOUS
 62
    1
 10
680.9029508745266
 20
485.79281779452003
 11
680.90282706967412
 21
485.79266200856722
  0
ARC
  8
_0-2_____-2
  6
CONTINUOUS
 62
    1
 10
688.36592765870819
 20
479.8616518601915
 40
9.5328249633661351
 50
141.52543846502516
 51
143.25809398903667
  0
ARC
  8
_0-2_____-2
  6
CONTINUOUS
 62
    1
 10
684.56142410308973
 20
482.7017237080662
 40
4.7851670773369195
 50
143.25762716600275
 51
146.70764404280223
  0
ARC
  8
_0-2_____-2
  6
CONTINUOUS
 62
    1
 10
688.57936688733901
 20
480.06327030924353
 40
9.5919644054264541
 50
146.70801560608206
 51
148.4288707931384
  0
ARC
  8
_0-2_____-2
  6
CONTINUOUS
 62
    1
 10
684.50335410762023
 20
482.56803015504772
 40
4.8078550770951543
 50
148.42897616140579
 51
151.86106419770036
  0
ARC
  8
_0-2_____-2
  6
CONTINUOUS
 62
    1
 10
688.75633239162175
 20
480.29350313935083
 40
9.6308518039818036
 50
151.861417697571
 51
153.57588849185768
  0
ARC
  8
_0-2_____-2
  6
CONTINUOUS
 62
    1
 10
684.45047858326393
 20
482.43321556170883
 40
4.822656064495817
 50
153.57598461398172
 51
157.00139901003081
  0
ARC
  8
_0-2_____-2
  6
CONTINUOUS
 62
    1
 10
688.8882310503875
 20
480.54954487233175
 40
9.6436375229190272
 50
157.00093738294805
 51
158.71478588867194
  0
LINE
  8
_0-2_____-2
  6
CONTINUOUS
 62
    1
 10
679.90243485842257
 20
484.05028928886935
 11
679.90233507398568
 21
484.05003315974199
  0
ARC
  8
_0-2_____-2
  6
CONTINUOUS
 62
    1
 10
684.39968844795544
 20
482.29792523554892
 40
4.826600205981161
 50
158.71478588866654
 51
162.14484394330302
  0
LINE
  8
_0-2_____-2
  6
CONTINUOUS
 62
    1
 10
679.80556302128684
 20
483.77781749933547
 11
679.80551544401067
 21
483.77766980211447
  0
ARC
  8
_0-2_____-2
  6
CONTINUOUS
 62
    1
 10
688.98554498635826
 20
480.82053358154297
 40
9.644563081103886
 50
162.14484394330532
 51
163.86363649378518
  0
LINE
  8
_0-2_____-2
  6
CONTINUOUS
 62
    1
 10
679.72094914906233
 20
483.50099268344138
 11
679.72082779840548
 21
483.50057325350463
  0
ARC
  8
_0-2_____-2
  6
CONTINUOUS
 62
    1
 10
684.35603414923719
 20
482.15950222672092
 40
4.8253092557544699
 50
163.86363649379254
 51
167.30865317430053
  0
LINE
  8
_0-2_____-2
  6
CONTINUOUS
 62
    1
 10
679.64861812600986
 20
483.219617219508
 11
679.6485653892945
 21
483.21938304334793
  0
ARC
  8
_0-2_____-2
  6
CONTINUOUS
 62
    1
 10
689.04884482528223
 20
481.10243032080945
 40
9.6357014432845585
 50
167.30865317428362
 51
169.03707164237224
  0
LINE
  8
_0-2_____-2
  6
CONTINUOUS
 62
    1
 10
679.58899073578073
 20
482.93488848116624
 11
679.58887355785487
 21
482.93428356362767
  0
ARC
  8
_0-2_____-2
  6
CONTINUOUS
 62
    1
 10
684.32149254458307
 20
482.01753303026521
 40
4.8205927035956551
 50
169.03707164238031
 51
172.50579144599669
  0
LINE
  8
_0-2_____-2
  6
CONTINUOUS
 62
    1
 10
679.54207710345622
 20
482.64626354095981
 11
679.53569978127098
 21
482.59778510448001
  0
ARC
  8
_0-2_____-2
  6
CONTINUOUS
 62
    1
 10
685.91529995332905
 20
481.75855082497236
 40
6.4345638959625351
 50
172.50579144600351
 51
175.55589982714733
  0
LINE
  8
_0-2_____-2
  6
CONTINUOUS
 62
    1
 10
679.50008217357299
 20
482.25714221030302
 11
679.49822774120184
 21
482.23267787915859
  0
LINE
  8
_0-2_____-2
  6
CONTINUOUS
 62
    1
 10
683.79195097799209
 20
487.80465238924364
 11
684.15655285124456
 21
487.88186219769784
  0
LINE
  8
_0-2_____-2
  6
CONTINUOUS
 62
    1
 10
1081.2843331415161
 20
474.31211459426123
 11
1300.5114024702823
 21
474.31211459426123
  0
ARC
  8
_0-2_____-2
  6
CONTINUOUS
 62
    1
 10
1430.5781852451491
 20
682.63190223126969
 40
72.999999999715158
 50
152.94512025485187
 51
168.68715059079989
  0
ARC
  8
_0-2_____-2
  6
CONTINUOUS
 62
    1
 10
1373.1946129558128
 20
708.94419337226111
 40
10.27999999996992
 50
94.36304386157407
 51
137.9051436429969
  0
ARC
  8
_0-2_____-2
  6
CONTINUOUS
 62
    1
 10
1291.5781852454347
 20
532.63190223113043
 40
58.999999999964658
 50
278.70867370869632
 51
351.47693400189752
  0
ARC
  8
_0-2_____-2
  6
CONTINUOUS
 62
    1
 10
1310.7597776761511
 20
308.85620404807696
 40
165.77300000008211
 50
93.54438492989793
 51
103.6355146847061
  0
ARC
  8
_0-2_____-2
  6
CONTINUOUS
 62
    1
 10
1078.6218634824909
 20
308.53911459426456
 40
165.7729999999961
 50
76.837425760468591
 51
88.217543660577348
  0
LINE
  8
_0-2_____-2
  6
CONTINUOUS
 62
    1
 10
660.96956758026431
 20
469.95690223113286
 11
676.35028302200249
 21
469.95690223113286
  0
LINE
  8
_0-2_____-2
  6
CONTINUOUS
 62
    1
 10
657.47368469502942
 20
487.35365865457084
 11
658.97882512640251
 21
471.76469275583941
  0
LINE
  8
_0-2_____-2
  6
CONTINUOUS
 62
    1
 10
679.54112207922753
 20
483.32219406511797
 11
678.33958823166029
 21
471.75034767943202
  0
ARC
  8
_0-2_____-2
  6
CONTINUOUS
 62
    1
 10
662.87698563473009
 20
426.71505774299419
 40
66.652492536096986
 50
69.631381304530038
 51
97.928588622219053
  0
ARC
  8
_0-2_____-2
  6
CONTINUOUS
 62
    1
 10
660.96956758026408
 20
471.95690223113274
 40
1.9999999999997089
 50
185.51490757225304
 51
270.00000000001307
  0
ARC
  8
_0-2_____-2
  6
CONTINUOUS
 62
    1
 10
676.35028302200249
 20
471.95690223113274
 40
2
 50
270
 51
354.07207788852031
  0
LINE
  8
_0-2_____-2
  6
CONTINUOUS
 62
    4
 10
2499.2781852453991
 20
719.1944022311327
 11
2499.2781852453991
 21
721.61504471877697
  0
ARC
  8
_0-2_____-2
  6
CONTINUOUS
 62
    4
 10
2497.8133736886384
 20
721.29204765506756
 40
1.4999999999955289
 50
12.434969114845753
 51
48.764644647526879
  0
ARC
  8
_0-2_____-2
  6
CONTINUOUS
 62
    4
 10
2486.2781852453986
 20
708.13190223113281
 40
18.999999999999858
 50
48.764644647466206
 51
89.99999999999865
  0
LINE
  8
_0-2_____-2
  6
CONTINUOUS
 62
    4
 10
2486.2781852453991
 20
727.13190223113259
 11
1953.4781852454
 21
727.13190223113259
  0
ARC
  8
_0-2_____-2
  6
CONTINUOUS
 62
    4
 10
1953.4781852454007
 20
708.13190223113224
 40
19.000000000000426
 50
90.000000000000711
 51
131.23535535253316
  0
ARC
  8
_0-2_____-2
  6
CONTINUOUS
 62
    4
 10
1941.9429968021575
 20
721.29204765506961
 40
1.499999999991755
 50
131.23535535242689
 51
167.56503088518002
  0
LINE
  8
_0-2_____-2
  6
CONTINUOUS
 62
    4
 10
1940.4781852453998
 20
721.61504471877743
 11
1940.4781852453998
 21
719.1944022311327
  0
LINE
  8
_0-2_____-2
  6
CONTINUOUS
 62
    4
 10
1940.4781852453998
 20
719.1944022311327
 11
2499.2781852453991
 21
719.1944022311327
  0
LINE
  8
_0-2_____-2
  6
CONTINUOUS
 62
    1
 10
1962.0185913866703
 20
713.00411144511963
 11
1973.1856182955426
 21
499.92454460139186
  0
LINE
  8
_0-2_____-2
  6
CONTINUOUS
 62
    1
 10
2403.3377791041294
 20
713.00411144511963
 11
2392.1684796899453
 21
499.88118261690772
  0
LINE
  8
_0-2_____-2
  6
CONTINUOUS
 62
    1
 10
2288.1182548149427
 20
473.85496890843484
 11
2327.2922596907301
 21
476.59428218045804
  0
LINE
  8
_0-2_____-2
  6
CONTINUOUS
 62
    1
 10
2364.3776873568809
 20
479.18754790671358
 11
2371.9187627578081
 21
479.71487126812633
  0
LINE
  8
_0-2_____-2
  6
CONTINUOUS
 62
    1
 10
2094.6537888571625
 20
476.85466114504209
 11
2038.9001721399477
 21
478.80162034275514
  0
LINE
  8
_0-2_____-2
  6
CONTINUOUS
 62
    1
 10
1999.6009200855599
 20
480.17398046494463
 11
1992.548838156514
 21
480.42024459242555
  0
ARC
  8
_0-2_____-2
  6
CONTINUOUS
 62
    1
 10
1955.0655797378386
 20
712.19440223113247
 40
7.0000000000004334
 50
6.6424294518649347
 51
90
  0
ARC
  8
_0-2_____-2
  6
CONTINUOUS
 62
    1
 10
1994.7856916361036
 20
502.00464837213502
 40
21.700000000338584
 50
185.50066563908231
 51
264.08339521268891
  0
ARC
  8
_0-2_____-2
  6
CONTINUOUS
 62
    1
 10
2410.2907907529611
 20
712.19440223113247
 40
7.0000000000002274
 50
90
 51
173.3575705481351
  0
ARC
  8
_0-2_____-2
  6
CONTINUOUS
 62
    1
 10
2370.2397592810084
 20
501.65070832361351
 40
21.99999999999995
 50
273.62302525370296
 51
358.61345424876566
  0
ARC
  8
_0-2_____-2
  6
CONTINUOUS
 62
    1
 10
2284.4031375285285
 20
322.60058747262121
 40
151.299999999942
 50
88.592981250961628
 51
103.11043692024201
  0
ARC
  8
_0-2_____-2
  6
CONTINUOUS
 62
    1
 10
2089.4781852454007
 20
338.7516085819064
 40
138.20000000000849
 50
71.692993619597388
 51
88.146234471390244
  0
LINE
  8
_0-2_____-2
  6
CONTINUOUS
 62
    1
 10
2116.3602756726318
 20
474.31190223113276
 11
2294.6527057644171
 21
474.31190223113276
  0
LINE
  8
_0-2_____-2
  6
CONTINUOUS
 62
    1
 10
2132.8879873461083
 20
469.95690223113286
 11
2250.0839519208703
 21
469.95690223113286
  0
LINE
  8
_0-2_____-2
  6
CONTINUOUS
 62
    1
 10
2007.7205614137761
 20
469.95690223113286
 11
2031.2358090770235
 21
469.95690223113286
  0
LINE
  8
_0-2_____-2
  6
CONTINUOUS
 62
    1
 10
2000.1258667895986
 20
479.45282837170851
 11
2006.0737422292243
 21
470.82200726974065
  0
LINE
  8
_0-2_____-2
  6
CONTINUOUS
 62
    1
 10
2038.3726625991321
 20
477.36755027909169
 11
2032.7694797303093
 21
470.67321444695381
  0
ARC
  8
_0-2_____-2
  6
CONTINUOUS
 62
    1
 10
1992.5658822838209
 20
472.16596402944617
 40
10.50008369824435
 50
43.946115233804782
 51
98.742547533061241
  0
ARC
  8
_0-2_____-2
  6
CONTINUOUS
 62
    1
 10
1991.1389381929403
 20
473.46263033313051
 40
10.800340649387961
 50
33.685266424311308
 51
66.504773258521794
  0
ARC
  8
_0-2_____-2
  6
CONTINUOUS
 62
    1
 10
2047.7254860908724
 20
468.26255186017079
 40
13.095146960115549
 50
89.368022177227132
 51
146.3706162511231
  0
ARC
  8
_0-2_____-2
  6
CONTINUOUS
 62
    1
 10
2052.5588151769352
 20
467.86490212411366
 40
17.497723709265671
 50
117.62753204026669
 51
154.07470181878216
  0
ARC
  8
_0-2_____-2
  6
CONTINUOUS
 62
    1
 10
2015.0847153183486
 20
387.81014747268557
 40
97.754976904394823
 50
74.036154447020323
 51
104.2814973735842
  0
ARC
  8
_0-2_____-2
  6
CONTINUOUS
 62
    1
 10
2007.7205614137761
 20
471.95690223113274
 40
2.0000000000000329
 50
214.57242193618237
 51
270
  0
ARC
  8
_0-2_____-2
  6
CONTINUOUS
 62
    1
 10
2031.2358090770235
 20
471.95690223113246
 40
1.9999999999997731
 50
270
 51
320.0705482968778
  0
LINE
  8
_0-2_____-2
  6
CONTINUOUS
 62
    1
 10
2356.9658090770245
 20
469.95690223113286
 11
2333.4505614137775
 21
469.95690223113286
  0
LINE
  8
_0-2_____-2
  6
CONTINUOUS
 62
    1
 10
2364.5605037012024
 20
479.45282837170851
 11
2358.6126282615764
 21
470.82200726974065
  0
LINE
  8
_0-2_____-2
  6
CONTINUOUS
 62
    1
 10
2326.3137078916689
 20
477.36755027909169
 11
2331.9168907604917
 21
470.67321444695381
  0
ARC
  8
_0-2_____-2
  6
CONTINUOUS
 62
    1
 10
2372.1204882069796
 20
472.16596402944617
 40
10.500083698244291
 50
81.257452466938759
 51
136.05388476619521
  0
ARC
  8
_0-2_____-2
  6
CONTINUOUS
 62
    1
 10
2373.5474322978607
 20
473.46263033313051
 40
10.80034064938787
 50
113.49522674147821
 51
146.31473357568871
  0
ARC
  8
_0-2_____-2
  6
CONTINUOUS
 62
    1
 10
2316.9608843999285
 20
468.26255186017079
 40
13.095146960115549
 50
33.62938374887689
 51
90.631977822772868
  0
ARC
  8
_0-2_____-2
  6
CONTINUOUS
 62
    1
 10
2312.1275553138657
 20
467.86490212411366
 40
17.497723709265511
 50
25.925298181217769
 51
62.372467959733314
  0
ARC
  8
_0-2_____-2
  6
CONTINUOUS
 62
    1
 10
2349.6016551724524
 20
387.81014747268557
 40
97.754976904394823
 50
75.718502626415813
 51
105.96384555297969
  0
ARC
  8
_0-2_____-2
  6
CONTINUOUS
 62
    1
 10
2356.9658090770245
 20
471.95690223113274
 40
2
 50
270
 51
325.42757806381758
  0
ARC
  8
_0-2_____-2
  6
CONTINUOUS
 62
    1
 10
2333.4505614137775
 20
471.95690223113246
 40
1.9999999999998992
 50
219.92945170312208
 51
270
  0
LINE
  8
_0-2_____-2
  6
______-6
 62
    3
 10
2183.3656852453996
 20
291.71940223113268
 11
2183.3656852453996
 21
541.71940223113268
  0
LINE
  8
_0-2_____-2
  6
______-17
 62
    3
 10
2446.8906852454002
 20
694.63190223113259
 11
2446.8906852454002
 21
759.63190223113259
  0
POINT
  8
_0-3___
 62
    2
 10
1201.6656852453998
 20
1470.0194022311239
  0
LINE
  8
_0-3___
  6
CONTINUOUS
 62
    4
 10
1249.6629994302382
 20
1946.9198317387327
 11
1101.1867344359043
 21
1946.9198317387327
  0
LINE
  8
_0-3___
  6
CONTINUOUS
 62
    4
 10
1101.1867344359043
 20
1946.9198317387327
 11
996.80877466845686
 21
1766.1319022311329
  0
LINE
  8
_0-3___
  6
CONTINUOUS
 62
    7
 10
1011.4488972031259
 20
1780.7720247658017
 11
996.80877466845686
 21
1766.1319022311329
  0
LINE
  8
_0-3___
  6
CONTINUOUS
 62
    7
 10
996.80877466845686
 20
1766.1319022311329
 11
1002.1674314306629
 21
1786.1306815280079
  0
LINE
  8
_0-3___
  6
CONTINUOUS
 62
    7
 10
1002.1674314306629
 20
1786.1306815280079
 11
1011.4488972031259
 21
1780.7720247658017
  0
LINE
  8
_f-0_
  6
CONTINUOUS
 62
    7
 10
145.92190945814195
 20
272.17690842700108
 11
2782.5613812702341
 21
272.17690842700108
  0
LINE
  8
_f-0_
  6
CONTINUOUS
 62
    7
 10
93.498778584810225
 20
2041.1430038495319
 11
2835.164073948858
 21
2041.1430038495319
  0
LINE
  8
_f-0_
  6
CONTINUOUS
 62
    7
 10
2835.164073948858
 20
2041.1430038495319
 11
2835.164073948858
 21
102.59178490525528
  0
LINE
  8
_f-0_
  6
CONTINUOUS
 62
    7
 10
2835.164073948858
 20
102.59178490525528
 11
93.498778584810225
 21
102.59178490525528
  0
LINE
  8
_f-0_
  6
CONTINUOUS
 62
    7
 10
93.498778584810225
 20
102.59178490525528
 11
93.498778584810225
 21
2041.1430038495319
  0
LINE
  8
_f-0_
  6
CONTINUOUS
 62
    7
 10
145.92190945814195
 20
154.63137802700089
 11
2782.5613812702341
 21
154.63137802700089
  0
LINE
  8
_f-0_
  6
CONTINUOUS
 62
    7
 10
145.92190945814195
 20
272.17690842700108
 11
145.92190945814195
 21
154.63137802700089
  0
LINE
  8
_f-0_
  6
CONTINUOUS
 62
    7
 10
1084.5597312581417
 20
272.17690842700108
 11
1084.5597312581417
 21
154.63137802700089
  0
LINE
  8
_f-0_
  6
CONTINUOUS
 62
    7
 10
1521.3244371581418
 20
272.17690842700108
 11
1521.3244371581418
 21
154.63137802700089
  0
LINE
  8
_f-0_
  6
CONTINUOUS
 62
    7
 10
1755.1479665581417
 20
272.17690842700108
 11
1755.1479665581417
 21
154.63137802700089
  0
LINE
  8
_f-0_
  6
CONTINUOUS
 62
    7
 10
2026.471495958142
 20
272.17690842700108
 11
2026.471495958142
 21
154.63137802700089
  0
LINE
  8
_f-0_
  6
CONTINUOUS
 62
    7
 10
2782.5613812581419
 20
272.17690842700108
 11
2782.5613812581419
 21
154.63137802700089
  0
TEXT
  8
_f-0_
 62
    7
 10
1568.5886917757796
 20
188.15385166346772
 40
34.616986052576095
 41
1.0000000000000095
 50
0
  1
S=1/10
  0
TEXT
  8
_f-0_
 62
    7
 10
1111.1467034703228
 20
216.01644236760961
 40
34.616986052576095
 41
1.0000000000000056
 50
0
  1
キッチンシンク
  0
TEXT
  8
_f-0_
 62
    7
 10
1118.9898407252258
 20
170.91840315192343
 40
34.616986052576095
 41
1.0000000000000056
 50
0
  1
K-8437-1
  0
TEXT
  8
_0-3___
 62
    7
 10
1257.9146809186627
 20
1929.4775780682651
 40
33.826244212962962
 41
1
 50
0
  1
φ35
  0
LINE
  8
_0-3___
  6
CONTINUOUS
 62
    7
 10
1112.2234655141856
 20
1605.1319022311325
 11
1119.7268834829356
 21
1605.1319022311325
  0
LINE
  8
_0-3___
  6
CONTINUOUS
 62
    7
 10
1119.7268834829356
 20
1605.1319022311325
 11
1172.3661543287428
 21
1518.3326895361206
  0
LINE
  8
_0-3___
  6
CONTINUOUS
 62
    7
 10
1230.9652161620572
 20
1421.7061149261278
 11
1234.8560715237202
 21
1415.2903121105498
  0
LINE
  8
_0-3___
  6
CONTINUOUS
 62
    7
 10
1227.0743608003943
 20
1428.1219177417056
 11
1176.2570096904058
 21
1511.9168867205422
  0
INSERT
  2
-000-_DOT
  8
_0-3___
 10
1227.0743608003943
 20
1428.1219177417056
 41
7.5034179687499991
 42
7.5034179687499991
 50
121.234663220766
  0
INSERT
  2
-000-_DOT
  8
_0-3___
 10
1176.2570096904058
 20
1511.9168867205422
 41
7.5034179687499991
 42
7.5034179687499991
 50
301.23466322076592
  0
POINT
  8
_0-3___
 62
    7
 10
1176.2570096904058
 20
1511.9168867205422
  0
POINT
  8
_0-3___
 62
    7
 10
1227.0743608003943
 20
1428.1219177417056
  0
TEXT
  8
_0-3___
 62
    7
 10
1027.5452968220561
 20
1588.2187801246509
 40
33.826244212962962
 41
1
 50
0
  1
φ98
  0
TEXT
  8
_f-0_
 62
    7
 10
1817.2741544507153
 20
193.95761883819773
 40
34.616986052576237
 41
1.0000000000000038
 50
0
  1
19/04/10
  0
TEXT
  8
_f-0_
 62
    7
 10
2174.7535403050106
 20
164.29057734204775
 40
34.616986052575953
 41
1.000000000000012
 50
0
  1
日鉄物産マテックス株式会社
  0
LINE
  8
_0-3___
  6
CONTINUOUS
 62
    7
 10
971.47818524538798
 20
1797.0419021566204
 11
971.47818524538798
 21
1856.1319021938798
  0
LINE
  8
_0-3___
  6
CONTINUOUS
 62
    7
 10
552.37818524539932
 20
1805.9319021566182
 11
552.37818524539932
 21
1856.1319021938798
  0
LINE
  8
_0-3___
  6
CONTINUOUS
 62
    7
 10
963.97476727663786
 20
1846.1319022311327
 11
559.88160321414944
 21
1846.1319022311327
  0
INSERT
  2
-000-_DOT
  8
_0-3___
 10
971.47818524538798
 20
1846.1319022311327
 41
7.5034179687499991
 42
7.5034179687499991
 50
0
  0
TEXT
  8
_0-3___
 62
    7
 10
736.55850208567142
 20
1851.2164678230386
 40
33.826244212962962
 41
1
 50
0
  1
419
  0
LINE
  8
_0-3___
  6
CONTINUOUS
 62
    7
 10
532.47818531990561
 20
1227.1319022311327
 11
374.72688352018747
 21
1227.1319022311327
  0
LINE
  8
_0-3___
  6
CONTINUOUS
 62
    7
 10
532.37818531990513
 20
1785.931902231124
 11
374.72688352018747
 21
1785.931902231124
  0
LINE
  8
_0-3___
  6
CONTINUOUS
 62
    7
 10
384.72688348293559
 20
1234.6353201998827
 11
384.72688348293559
 21
1778.428484262374
  0
INSERT
  2
-000-_DOT
  8
_0-3___
 10
384.72688348293559
 20
1227.1319022311327
 41
7.5034179687499991
 42
7.5034179687499991
 50
270
  0
INSERT
  2
-000-_DOT
  8
_0-3___
 10
384.72688348293559
 20
1785.931902231124
 41
7.5034179687499991
 42
7.5034179687499991
 50
90
  0
TEXT
  8
_0-3___
 62
    7
 10
379.72688350156102
 20
1481.1622190714061
 40
33.826244212962962
 41
1
 50
90
  1
559
  0
POINT
  8
_0-3___
 62
    7
 10
384.72688348293559
 20
1785.931902231124
  0
LINE
  8
_0-3___
  6
CONTINUOUS
 62
    7
 10
1068.7268835574414
 20
469.95690223113263
 11
374.72688352018747
 21
469.95690223113263
  0
LINE
  8
_0-3___
  6
CONTINUOUS
 62
    7
 10
532.47818531990561
 20
727.13190223113259
 11
374.72688352018747
 21
727.13190223113259
  0
LINE
  8
_0-3___
  6
CONTINUOUS
 62
    7
 10
384.72688348293559
 20
477.46032019988263
 11
384.72688348293559
 21
719.62848426238247
  0
INSERT
  2
-000-_DOT
  8
_0-3___
 10
384.72688348293559
 20
469.95690223113263
 41
7.5034179687499991
 42
7.5034179687499991
 50
270
  0
INSERT
  2
-000-_DOT
  8
_0-3___
 10
384.72688348293559
 20
727.13190223113259
 41
7.5034179687499991
 42
7.5034179687499991
 50
90
  0
TEXT
  8
_0-3___
 62
    7
 10
379.72688350156102
 20
573.17471907141032
 40
33.826244212962962
 41
1
 50
90
  1
257
  0
POINT
  8
_0-3___
 62
    7
 10
384.72688348293559
 20
727.13190223113259
  0
LINE
  8
_0-3___
  6
CONTINUOUS
 62
    7
 10
532.37818531990513
 20
719.19440223113259
 11
476.72688352018753
 21
719.19440223113259
  0
LINE
  8
_0-3___
  6
CONTINUOUS
 62
    7
 10
532.47818531990561
 20
727.13190223113259
 11
476.72688352018753
 21
727.13190223113259
  0
LINE
  8
_0-3___
  6
CONTINUOUS
 62
    7
 10
486.72688348293502
 20
719.19440223113259
 11
486.72688348293502
 21
727.13190223113259
  0
LINE
  8
_0-3___
  6
CONTINUOUS
 62
    7
 10
486.72688348293502
 20
711.6909842623827
 11
486.72688348293502
 21
704.18756629363259
  0
LINE
  8
_0-3___
  6
CONTINUOUS
 62
    7
 10
486.72688348293502
 20
734.6353201998827
 11
486.72688348293502
 21
742.13873816863259
  0
INSERT
  2
-000-_DOT
  8
_0-3___
 10
486.72688348293502
 20
719.19440223113259
 41
7.5034179687499991
 42
7.5034179687499991
 50
90
  0
INSERT
  2
-000-_DOT
  8
_0-3___
 10
486.72688348293502
 20
727.13190223113259
 41
7.5034179687499991
 42
7.5034179687499991
 50
270
  0
TEXT
  8
_0-3___
 62
    7
 10
481.72688350156108
 20
714.70659117789182
 40
33.826244212962962
 41
1
 50
90
  1
8
  0
POINT
  8
_0-3___
 62
    7
 10
486.72688348293502
 20
727.13190223113259
  0
LINE
  8
_0-3___
  6
CONTINUOUS
 62
    7
 10
2499.2781852453995
 20
772.66340047695462
 11
2499.2781852453995
 21
862.13190219387968
  0
LINE
  8
_0-3___
  6
CONTINUOUS
 62
    7
 10
2183.3656852453996
 20
602.13190215662689
 11
2183.3656852453996
 21
862.13190219387968
  0
LINE
  8
_0-3___
  6
CONTINUOUS
 62
    7
 10
2491.7747672766495
 20
852.13190223113259
 11
2190.8691032141496
 21
852.13190223113259
  0
INSERT
  2
-000-_DOT
  8
_0-3___
 10
2499.2781852453995
 20
852.13190223113259
 41
7.5034179687499991
 42
7.5034179687499991
 50
0
  0
INSERT
  2
-000-_DOT
  8
_0-3___
 10
2183.3656852453996
 20
852.13190223113259
 41
7.5034179687499991
 42
7.5034179687499991
 50
180
  0
TEXT
  8
_0-3___
 62
    7
 10
2315.9522520856772
 20
857.21646782303856
 40
33.826244212962962
 41
1
 50
0
  1
316
  0
POINT
  8
_0-3___
 62
    7
 10
2183.3656852453996
 20
852.13190223113259
  0
LINE
  8
_0-3___
  6
CONTINUOUS
 62
    7
 10
2499.2781852453995
 20
747.13190215662678
 11
2499.2781852453995
 21
930.13190219387968
  0
LINE
  8
_0-3___
  6
CONTINUOUS
 62
    7
 10
1940.4781852453998
 20
747.13190215662678
 11
1940.4781852453998
 21
930.13190219387968
  0
LINE
  8
_0-3___
  6
CONTINUOUS
 62
    7
 10
2491.7747672766495
 20
920.13190223113259
 11
1947.9816032141498
 21
920.13190223113259
  0
INSERT
  2
-000-_DOT
  8
_0-3___
 10
2499.2781852453995
 20
920.13190223113259
 41
7.5034179687499991
 42
7.5034179687499991
 50
0
  0
INSERT
  2
-000-_DOT
  8
_0-3___
 10
1940.4781852453998
 20
920.13190223113259
 41
7.5034179687499991
 42
7.5034179687499991
 50
180
  0
TEXT
  8
_0-3___
 62
    7
 10
2194.5085020856777
 20
925.13190221250613
 40
33.826244212962962
 41
1
 50
0
  1
559
  0
POINT
  8
_0-3___
 62
    7
 10
1940.4781852453998
 20
920.13190223113259
  0
LINE
  8
_0-3___
  6
CONTINUOUS
 62
    7
 10
1410.5781851708934
 20
1785.931902231124
 11
1520.7268834456827
 21
1785.931902231124
  0
LINE
  8
_0-3___
  6
CONTINUOUS
 62
    7
 10
1309.165685170894
 20
1470.0194022311239
 11
1520.7268834456827
 21
1470.0194022311239
  0
LINE
  8
_0-3___
  6
CONTINUOUS
 62
    7
 10
1510.7268834829356
 20
1778.428484262374
 11
1510.7268834829356
 21
1477.5228201998739
  0
INSERT
  2
-000-_DOT
  8
_0-3___
 10
1510.7268834829356
 20
1785.931902231124
 41
7.5034179687499991
 42
7.5034179687499991
 50
90.000000000000014
  0
INSERT
  2
-000-_DOT
  8
_0-3___
 10
1510.7268834829356
 20
1470.0194022311239
 41
7.5034179687499991
 42
7.5034179687499991
 50
270
  0
TEXT
  8
_0-3___
 62
    7
 10
1505.6423178910295
 20
1602.6059690714014
 40
33.826244212962962
 41
1
 50
90.000000000000014
  1
316
  0
POINT
  8
_0-3___
 62
    7
 10
1510.7268834829356
 20
1470.0194022311239
  0
LINE
  8
_0-3___
  6
CONTINUOUS
 62
    7
 10
1201.6656852453998
 20
1362.5194023056297
 11
1201.6656852453998
 21
1108.1319022683854
  0
LINE
  8
_0-3___
  6
CONTINUOUS
 62
    7
 10
1390.4781852453996
 20
1207.1319023056385
 11
1390.4781852453996
 21
1108.1319022683854
  0
LINE
  8
_0-3___
  6
CONTINUOUS
 62
    7
 10
1209.1691032141498
 20
1118.1319022311325
 11
1382.9747672766498
 21
1118.1319022311325
  0
INSERT
  2
-000-_DOT
  8
_0-3___
 10
1201.6656852453998
 20
1118.1319022311325
 41
7.5034179687499991
 42
7.5034179687499991
 50
180
  0
INSERT
  2
-000-_DOT
  8
_0-3___
 10
1390.4781852453996
 20
1118.1319022311325
 41
7.5034179687499991
 42
7.5034179687499991
 50
0
  0
TEXT
  8
_0-3___
 62
    7
 10
1270.7022520856774
 20
1123.2164678230386
 40
33.826244212962962
 41
1
 50
0
  1
189
  0
POINT
  8
_0-3___
 62
    7
 10
1390.4781852453996
 20
1118.1319022311325
  0
LINE
  8
_0-3___
  6
CONTINUOUS
 62
    7
 10
1390.5781852453993
 20
1207.1319023056296
 11
1390.5781852453993
 21
1047.1319022683856
  0
LINE
  8
_0-3___
  6
CONTINUOUS
 62
    7
 10
552.37818524539932
 20
1207.1319023056296
 11
552.37818524539932
 21
1047.1319022683856
  0
LINE
  8
_0-3___
  6
CONTINUOUS
 62
    7
 10
1383.0747672766493
 20
1057.1319022311327
 11
559.88160321414944
 21
1057.1319022311327
  0
INSERT
  2
-000-_DOT
  8
_0-3___
 10
1390.5781852453993
 20
1057.1319022311327
 41
7.5034179687499991
 42
7.5034179687499991
 50
0
  0
INSERT
  2
-000-_DOT
  8
_0-3___
 10
552.37818524539932
 20
1057.1319022311327
 41
7.5034179687499991
 42
7.5034179687499991
 50
180
  0
TEXT
  8
_0-3___
 62
    7
 10
946.10850208567717
 20
1062.1319022125062
 40
33.826244212962962
 41
1
 50
0
  1
838
  0
POINT
  8
_0-3___
 62
    7
 10
552.37818524539932
 20
1057.1319022311327
  0
LINE
  8
_0-3___
  6
CONTINUOUS
 62
    7
 10
918.97818531990549
 20
1733.544402231124
 11
878.72688352018838
 21
1733.544402231124
  0
LINE
  8
_0-3___
  6
CONTINUOUS
 62
    7
 10
888.72688348293548
 20
1785.931902231124
 11
888.72688348293548
 21
1733.544402231124
  0
LINE
  8
_0-3___
  6
CONTINUOUS
 62
    7
 10
888.72688348293548
 20
1793.4353201998738
 11
888.72688348293548
 21
1800.9387381686238
  0
LINE
  8
_0-3___
  6
CONTINUOUS
 62
    7
 10
888.72688348293548
 20
1726.040984262374
 11
888.72688348293548
 21
1718.5375662936237
  0
INSERT
  2
-000-_DOT
  8
_0-3___
 10
888.72688348293548
 20
1785.931902231124
 41
7.5034179687499991
 42
7.5034179687499991
 50
270
  0
INSERT
  2
-000-_DOT
  8
_0-3___
 10
888.72688348293548
 20
1733.544402231124
 41
7.5034179687499991
 42
7.5034179687499991
 50
90
  0
TEXT
  8
_0-3___
 62
    7
 10
883.72688350156193
 20
1742.8250301246426
 40
33.826244212962962
 41
1
 50
90
  1
52
  0
POINT
  8
_0-3___
 62
    7
 10
888.72688348293548
 20
1733.544402231124
  0
TEXT
  8
_f-0_
 62
    7
 10
2045.7055269997343
 20
224.34977570094276
 40
34.616986052576095
 41
1.000000000000008
 50
0
  1
KOHLER　ケノン
  0
ENDSEC
  0
EOF
