  0
SECTION
  2
HEADER
  9
$ACADVER
  1
AC1009
  9
$INSBASE
 10
0
 20
0
 30
0
  9
$EXTMIN
 10
0
 20
0
  9
$EXTMAX
 10
594
 20
420
  9
$LIMMIN
 10
0
 20
0
  9
$LIMMAX
 10
594
 20
420
  9
$LTSCALE
 40
2
  0
ENDSEC
  0
SECTION
  2
TABLES
  0
TABLE
  2
LTYPE
 70
     9
  0
LTYPE
  2
CONTINUOUS
 70
    64
  3
実線
 72
    65
 73
     0
 40
0.0
  0
LTYPE
  2
DASHED1
 70
    64
  3
--  --  --  --  --  --  --  --  
 72
    65
 73
     2
 40
2.5
 49
1.25
 49
-1.25
  0
LTYPE
  2
DASHED2
 70
    64
  3
----    ----    ----    ----    
 72
    65
 73
     2
 40
5.0
 49
2.5
 49
-2.5
  0
LTYPE
  2
DASHED3
 70
    64
  3
------  ------  ------  ------  
 72
    65
 73
     2
 40
5.0
 49
3.75
 49
-1.25
  0
LTYPE
  2
CENTER1
 70
    64
  3
----- - ----- - ----- - ----- - 
 72
    65
 73
     4
 40
10.0
 49
6.25
 49
-1.25
 49
1.25
 49
-1.25
  0
LTYPE
  2
CENTER2
 70
    64
  3
----------  --  ----------  --  
 72
    65
 73
     4
 40
20.0
 49
12.5
 49
-2.5
 49
2.5
 49
-2.5
  0
LTYPE
  2
PHANTOM1
 70
    64
  3
--- - - --- - - --- - - --- - - 
 72
    65
 73
     6
 40
10.0
 49
3.25
 49
-1.25
 49
1.25
 49
-1.25
 49
1.25
 49
-1.25
  0
LTYPE
  2
PHANTOM2
 70
    64
  3
--------  -  -  --------  -  -  
 72
    65
 73
     6
 40
20.0
 49
10.0
 49
-2.5
 49
1.25
 49
-2.5
 49
1.25
 49
-2.5
  0
LTYPE
  2
DOT
 70
    64
  3
-   -   -   -   -   -   -   -   
 72
    65
 73
     2
 40
2.5
 49
0.625
 49
-1.875
  0
LTYPE
  2
DUMMY
 70
    64
  3
ダミー
 72
    65
 73
     0
 40
0.0
  0
LTYPE
  2
RAND1
 70
    64
  3
ランダム線1
 72
    65
 73
     4
 40
10.0
 49
1.0
 49
-2.0
 49
3.0
 49
-4.0
  0
LTYPE
  2
RAND2
 70
    64
  3
ランダム線2
 72
    65
 73
     4
 40
14.0
 49
2.0
 49
-3.0
 49
4.0
 49
-5.0
  0
LTYPE
  2
RAND3
 70
    64
  3
ランダム線3
 72
    65
 73
     4
 40
18.0
 49
3.0
 49
-4.0
 49
5.0
 49
-6.0
  0
LTYPE
  2
RAND4
 70
    64
  3
ランダム線4
 72
    65
 73
     4
 40
22.0
 49
4.0
 49
-5.0
 49
6.0
 49
-7.0
  0
LTYPE
  2
RAND5
 70
    64
  3
ランダム線5
 72
    65
 73
     4
 40
26.0
 49
5.0
 49
-6.0
 49
7.0
 49
-8.0
  0
LTYPE
  2
LONG1
 70
    64
  3
----------  --  ----------  --  
 72
    65
 73
     4
 40
40.0
 49
32.5
 49
-2.5
 49
2.5
 49
-2.5
  0
LTYPE
  2
LONG2
 70
    64
  3
--------  -  -  --------  -  -  
 72
    65
 73
     6
 40
40.0
 49
30.0
 49
-2.5
 49
1.25
 49
-2.5
 49
1.25
 49
-2.5
  0
LTYPE
  2
LONG3
 70
    64
  3
+++++++++++++++..+++++++++++++++
 72
    65
 73
     2
 40
40.0
 49
37.5
 49
-2.5
  0
LTYPE
  2
LONG4
 70
    64
  3
+++++++++++++++..+++++++++++++++
 72
    65
 73
     2
 40
80.0
 49
75.0
 49
-5.0
  0
LTYPE
  2
LONG5
 70
    64
  3
----------  --  ----------  --  
 72
    65
 73
     4
 40
60.0
 49
37.5
 49
-7.5
 49
7.5
 49
-7.5
  0
LTYPE
  2
dashed
 70
   64
  3
-------   -------------   ------
 72
   65
 73
    2
 40
7.5
 49
6
 49
-1.5
  0
LTYPE
  2
dashed_spaced
 70
   64
  3
----        --------        ----
 72
   65
 73
    2
 40
12
 49
6
 49
-6
  0
LTYPE
  2
long_dashed_dotted
 70
   64
  3
------------- --- --------------
 72
   65
 73
    4
 40
15.25
 49
12
 49
-1.5
 49
0.25
 49
-1.5
  0
LTYPE
  2
long_dashed_double-dotted
 70
   64
  3
----------- --- --- ------------
 72
   65
 73
    6
 40
17
 49
12
 49
-1.5
 49
0.25
 49
-1.5
 49
0.25
 49
-1.5
  0
LTYPE
  2
long_dashed_triplicate-dotted
 70
   64
  3
--------- --- --- --- ----------
 72
   65
 73
    8
 40
18.75
 49
12
 49
-1.5
 49
0.25
 49
-1.5
 49
0.25
 49
-1.5
 49
0.25
 49
-1.5
  0
LTYPE
  2
dotted
 70
   64
  3
   -       -       -       -    
 72
   65
 73
    2
 40
1.75
 49
0.25
 49
-1.5
  0
LTYPE
  2
chain
 70
   64
  3
-------------- -- --------------
 72
   65
 73
    4
 40
18.5
 49
12
 49
-1.5
 49
3.5
 49
-1.5
  0
LTYPE
  2
chain_double_dash
 70
   64
  3
------------ -- -- -------------
 72
   65
 73
    6
 40
23.5
 49
12
 49
-1.5
 49
3.5
 49
-1.5
 49
3.5
 49
-1.5
  0
LTYPE
  2
dashed_dotted
 70
   64
  3
-----------     -     ----------
 72
   65
 73
    4
 40
9.25
 49
6
 49
-1.5
 49
0.25
 49
-1.5
  0
LTYPE
  2
double-dashed_dotted
 70
   64
  3
------   -----------   -   -----
 72
   65
 73
    6
 40
16.75
 49
6
 49
-1.5
 49
6
 49
-1.5
 49
0.25
 49
-1.5
  0
LTYPE
  2
dashed_double-dotted
 70
   64
  3
---------    -    -    ---------
 72
   65
 73
    6
 40
11
 49
6
 49
-1.5
 49
0.25
 49
-1.5
 49
0.25
 49
-1.5
  0
LTYPE
  2
double-dashed_double-dotted
 70
   64
  3
-----   ---------   -   -   ----
 72
   65
 73
    8
 40
18.5
 49
6
 49
-1.5
 49
6
 49
-1.5
 49
0.25
 49
-1.5
 49
0.25
 49
-1.5
  0
LTYPE
  2
dashed_triplicate-dotted
 70
   64
  3
-------    -    -    -    ------
 72
   65
 73
    8
 40
12.75
 49
6
 49
-1.5
 49
0.25
 49
-1.5
 49
0.25
 49
-1.5
 49
0.25
 49
-1.5
  0
LTYPE
  2
double-dashed_triplicate-dotted
 70
   64
  3
-----  ---------  -  -  -  -----
 72
   65
 73
   10
 40
20.25
 49
6
 49
-1.5
 49
6
 49
-1.5
 49
0.25
 49
-1.5
 49
0.25
 49
-1.5
 49
0.25
 49
-1.5
  0
LTYPE
  2
undefined
 70
   64
  3
--------------------------------
 72
   65
 73
    0
 40
0
  0
LTYPE
  2
AI9-LType1
 70
   64
  3
----------    ----    ----------
 72
   65
 73
    4
 40
9.5229919999999986
 49
6.3489979999999999
 49
-1.057998
 49
1.057998
 49
-1.057998
  0
LTYPE
  2
_
 70
   64
  3
                                
 72
   65
 73
    0
 40
0
  0
LTYPE
  2
__19
 70
   64
  3
                                
 72
   65
 73
    0
 40
0
  0
LTYPE
  2
__20
 70
   64
  3
                                
 72
   65
 73
    0
 40
0
  0
LTYPE
  2
__21
 70
   64
  3
                                
 72
   65
 73
    0
 40
0
  0
LTYPE
  2
__22
 70
   64
  3
                                
 72
   65
 73
    0
 40
0
  0
LTYPE
  2
__23
 70
   64
  3
                                
 72
   65
 73
    0
 40
0
  0
LTYPE
  2
__24
 70
   64
  3
                                
 72
   65
 73
    0
 40
0
  0
LTYPE
  2
__25
 70
   64
  3
                                
 72
   65
 73
    0
 40
0
  0
LTYPE
  2
__26
 70
   64
  3
                                
 72
   65
 73
    0
 40
0
  0
LTYPE
  2
__27
 70
   64
  3
                                
 72
   65
 73
    0
 40
0
  0
LTYPE
  2
__28
 70
   64
  3
                                
 72
   65
 73
    0
 40
0
  0
LTYPE
  2
__29
 70
   64
  3
                                
 72
   65
 73
    0
 40
0
  0
LTYPE
  2
__30
 70
   64
  3
                                
 72
   65
 73
    0
 40
0
  0
LTYPE
  2
__31
 70
   64
  3
                                
 72
   65
 73
    0
 40
0
  0
LTYPE
  2
__32
 70
   64
  3
                                
 72
   65
 73
    0
 40
0
  0
ENDTAB
  0
TABLE
  2
STYLE
  5
3
100
AcDbSymbolTable
 70
     1
  0
STYLE
  5
10
100
AcDbSymbolTableRecord
100
AcDbTextStyleTableRecord
  2
STANDARD
 70
     0
 40
0.0
 41
1.0
 50
0.0
 71
     0
 42
0.2
  3
txt
  4
bigfont.shx
  0
STYLE
  5
26
100
AcDbSymbolTableRecord
100
AcDbTextStyleTableRecord
  2
TATEGAKI
 70
    68
 40
0.0
 41
1.0
 50
0.0
 71
     0
 42
1.0
  3
txt
  4
bigfont.shx
  0
ENDTAB
  0
TABLE
  2
LAYER
 70
    4
  0
LAYER
  2
_0-0_0
 70
   64
 62
    7
  6
CONTINUOUS
  0
LAYER
  2
_0-1_レイヤ___1
 70
   64
 62
    7
  6
CONTINUOUS
  0
LAYER
  2
_f-0_
 70
   64
 62
    7
  6
CONTINUOUS
  0
LAYER
  2
ADD_LINE
 70
   64
 62
    7
  6
CONTINUOUS
  0
ENDTAB
  0
ENDSEC
  0
SECTION
  2
BLOCKS
  0
ENDSEC
  0
SECTION
  2
ENTITIES
  0
LINE
  8
_0-0_0
  6
CONTINUOUS
 62
    7
 10
242.75281189018614
 20
195.82824670383206
 11
242.75281189018614
 21
194.46823684373641
  0
LINE
  8
_0-0_0
  6
CONTINUOUS
 62
    7
 10
242.75281189018614
 20
194.46823684373641
 11
243.67623679036649
 21
194.04069116847705
  0
LINE
  8
_0-0_0
  6
CONTINUOUS
 62
    7
 10
243.67623679036649
 20
194.04069116847705
 11
244.59966274004
 21
193.61332705553579
  0
LINE
  8
_0-0_0
  6
CONTINUOUS
 62
    7
 10
244.59966274004
 20
193.61332705553579
 11
245.52308764022033
 21
193.18596294259453
  0
LINE
  8
_0-0_0
  6
CONTINUOUS
 62
    7
 10
245.52308764022033
 20
193.18596294259453
 11
246.44669410271871
 21
192.75859882965321
  0
LINE
  8
_0-0_0
  6
CONTINUOUS
 62
    7
 10
243.77421957151731
 20
192.7385314707879
 11
351.3764084693268
 21
192.7385314707879
  0
LINE
  8
_0-0_0
  6
CONTINUOUS
 62
    7
 10
351.3764084693268
 20
192.7385314707879
 11
352.7199664745209
 21
192.66748498128698
  0
LINE
  8
_0-0_0
  6
CONTINUOUS
 62
    7
 10
352.7199664745209
 20
192.66748498128698
 11
354.06352552920816
 21
192.59625797896115
  0
LINE
  8
_0-0_0
  6
CONTINUOUS
 62
    7
 10
354.06352552920816
 20
192.59625797896115
 11
356.75064153959636
 21
192.45416499995929
  0
LINE
  8
_0-0_0
  6
CONTINUOUS
 62
    7
 10
356.75064153959636
 20
192.45416499995929
 11
356.75136568988228
 21
191.7596072728974
  0
LINE
  8
_0-0_0
  6
CONTINUOUS
 62
    7
 10
356.75136568988228
 20
191.7596072728974
 11
356.75172671553207
 21
191.06504954583551
  0
LINE
  8
_0-0_0
  6
CONTINUOUS
 62
    7
 10
356.75172671553207
 20
191.06504954583551
 11
356.75208879067503
 21
190.37049181877359
  0
LINE
  8
_0-0_0
  6
CONTINUOUS
 62
    7
 10
356.75208879067503
 20
190.37049181877359
 11
356.75281189146779
 21
189.67575357888677
  0
LINE
  8
_0-0_0
  6
CONTINUOUS
 62
    7
 10
356.75281189146779
 20
189.67575357888677
 11
243.61061408155777
 21
189.67575357888677
  0
LINE
  8
_0-0_0
  6
CONTINUOUS
 62
    7
 10
243.61061408155777
 20
189.67575357888677
 11
243.61061408155777
 21
192.7385314707879
  0
LINE
  8
_0-0_0
  6
CONTINUOUS
 62
    7
 10
242.75281189018614
 20
194.46823684373641
 11
356.75281189146779
 21
194.46823684373641
  0
LINE
  8
_0-0_0
  6
CONTINUOUS
 62
    7
 10
356.75281189146779
 20
194.46823684373641
 11
356.75281189146779
 21
195.82716152789635
  0
LINE
  8
_0-0_0
  6
CONTINUOUS
 62
    7
 10
356.75281189146779
 20
195.82716152789635
 11
355.94219281394311
 21
195.82752360303934
  0
LINE
  8
_0-0_0
  6
CONTINUOUS
 62
    7
 10
355.94219281394311
 20
195.82752360303934
 11
354.32095570838686
 21
195.82788462868911
  0
LINE
  8
_0-0_0
  6
CONTINUOUS
 62
    7
 10
354.32095570838686
 20
195.82788462868911
 11
353.51033768035535
 21
195.82824670383206
  0
LINE
  8
_0-0_0
  6
CONTINUOUS
 62
    7
 10
353.51033768035535
 20
195.82824670383206
 11
242.75281189018614
 21
195.82824670383206
  0
LINE
  8
_0-0_0
  6
CONTINUOUS
 62
    7
 10
356.75281189146779
 20
194.46823684373641
 11
355.80624671642624
 21
194.04069116847705
  0
LINE
  8
_0-0_0
  6
CONTINUOUS
 62
    7
 10
355.80624671642624
 20
194.04069116847705
 11
354.86004256703444
 21
193.61332705553579
  0
LINE
  8
_0-0_0
  6
CONTINUOUS
 62
    7
 10
354.86004256703444
 20
193.61332705553579
 11
353.91383946713586
 21
193.18596294259453
  0
LINE
  8
_0-0_0
  6
CONTINUOUS
 62
    7
 10
353.91383946713586
 20
193.18596294259453
 11
352.96727429209426
 21
192.75859882965321
  0
LINE
  8
_0-0_0
  6
CONTINUOUS
 62
    7
 10
356.75064153959636
 20
172.58443094563154
 11
355.40527525767379
 21
172.6558395102754
  0
LINE
  8
_0-0_0
  6
CONTINUOUS
 62
    7
 10
355.40527525767379
 20
172.6558395102754
 11
354.05990897575123
 21
172.72742858774421
  0
LINE
  8
_0-0_0
  6
CONTINUOUS
 62
    7
 10
354.05990897575123
 20
172.72742858774421
 11
352.71418166817892
 21
172.79901661571981
  0
LINE
  8
_0-0_0
  6
CONTINUOUS
 62
    7
 10
352.71418166817892
 20
172.79901661571981
 11
351.3688153862563
 21
172.8704251803637
  0
LINE
  8
_0-0_0
  6
CONTINUOUS
 62
    7
 10
351.3688153862563
 20
172.8704251803637
 11
243.59633257852764
 21
172.8704251803637
  0
LINE
  8
_0-0_0
  6
CONTINUOUS
 62
    7
 10
243.61061408155777
 20
172.8704251803637
 11
243.61061408155777
 21
169.80620108687708
  0
LINE
  8
_0-0_0
  6
CONTINUOUS
 62
    7
 10
243.61061408155777
 20
169.80620108687708
 11
356.75281189146779
 21
169.80620108687708
  0
LINE
  8
_0-0_0
  6
CONTINUOUS
 62
    7
 10
356.75281189146779
 20
169.80620108687708
 11
356.75208879067503
 21
170.50075881393897
  0
LINE
  8
_0-0_0
  6
CONTINUOUS
 62
    7
 10
356.75208879067503
 20
170.50075881393897
 11
356.75172671553207
 21
171.19531549150773
  0
LINE
  8
_0-0_0
  6
CONTINUOUS
 62
    7
 10
356.75172671553207
 20
171.19531549150773
 11
356.75136568988228
 21
171.88987321856962
  0
LINE
  8
_0-0_0
  6
CONTINUOUS
 62
    7
 10
356.75136568988228
 20
171.88987321856962
 11
356.75064153959636
 21
172.58443094563154
  0
LINE
  8
_0-0_0
  6
CONTINUOUS
 62
    7
 10
356.75281189146779
 20
169.27452574898194
 11
243.77421957151731
 21
169.27452574898194
  0
LINE
  8
_0-0_0
  6
CONTINUOUS
 62
    7
 10
243.70678858598012
 20
169.25753235560569
 11
243.70678858598012
 21
166.08483999472676
  0
LINE
  8
_0-0_0
  6
CONTINUOUS
 62
    7
 10
243.77421957151731
 20
166.08483999472676
 11
356.75281189146779
 21
166.08483999472676
  0
LINE
  8
_0-0_0
  6
CONTINUOUS
 62
    7
 10
356.75281189146779
 20
164.22316505387491
 11
274.7283111042957
 21
164.22316505387491
  0
LINE
  8
_0-0_0
  6
CONTINUOUS
 62
    7
 10
274.7283111042957
 20
164.24883670625735
 11
252.82787388795754
 21
164.24883670625735
  0
LINE
  8
_0-0_0
  6
CONTINUOUS
 62
    7
 10
252.74453363548668
 20
162.36257528895879
 11
252.74453363548668
 21
166.15606804654576
  0
LINE
  8
_0-0_0
  6
CONTINUOUS
 62
    7
 10
252.82787388795754
 20
162.27507799404947
 11
356.75281189146779
 21
162.27507799404947
  0
LINE
  8
_0-0_0
  6
CONTINUOUS
 62
    7
 10
356.74051812849785
 20
162.25627737343791
 11
356.74051812849785
 21
169.26837991699011
  0
LINE
  8
_0-0_0
  6
CONTINUOUS
 62
    7
 10
352.84217365697549
 20
166.05555388787371
 11
352.84217365697549
 21
162.31521166228697
  0
LINE
  8
_0-0_0
  6
CONTINUOUS
 62
    7
 10
351.87391545815137
 20
162.09755202670959
 11
351.87391545815137
 21
155.686000958682
  0
LINE
  8
_0-0_0
  6
CONTINUOUS
 62
    7
 10
351.87391545815137
 20
157.07005470725653
 11
347.35404853862144
 21
157.07005470725653
  0
LINE
  8
_0-0_0
  6
CONTINUOUS
 62
    7
 10
347.30487663522109
 20
158.25308013848704
 11
351.78677918889184
 21
158.25308013848704
  0
LINE
  8
_0-0_0
  6
CONTINUOUS
 62
    7
 10
351.87391545815137
 20
159.6696734227354
 11
347.35404853862144
 21
159.6696734227354
  0
LINE
  8
_0-0_0
  6
CONTINUOUS
 62
    7
 10
347.30487663522109
 20
160.85052955158764
 11
351.78677918889184
 21
160.85052955158764
  0
LINE
  8
_0-0_0
  6
CONTINUOUS
 62
    7
 10
347.35404853862144
 20
162.09755202670959
 11
347.35404853862144
 21
155.7264956525693
  0
LINE
  8
_0-0_0
  6
CONTINUOUS
 62
    7
 10
345.67243094263068
 20
155.72577255177654
 11
353.53022347690262
 21
155.72577255177654
  0
LINE
  8
_0-0_0
  6
CONTINUOUS
 62
    7
 10
353.53022347690262
 20
155.74602042346677
 11
353.53022347690262
 21
154.07416416343159
  0
LINE
  8
_0-0_0
  6
CONTINUOUS
 62
    7
 10
353.53022347690262
 20
154.0633176515403
 11
345.68978536165673
 21
154.0633176515403
  0
LINE
  8
_0-0_0
  6
CONTINUOUS
 62
    7
 10
345.67243094263068
 20
154.07416416343159
 11
345.67243094263068
 21
155.74602042346677
  0
LINE
  8
_0-0_0
  6
CONTINUOUS
 62
    7
 10
345.71111735978951
 20
154.07127176026057
 11
346.56476145922949
 21
153.86192830854645
  0
LINE
  8
_0-0_0
  6
CONTINUOUS
 62
    7
 10
346.56476145922949
 20
153.86192830854645
 11
348.27277380839547
 21
153.44324140511819
  0
LINE
  8
_0-0_0
  6
CONTINUOUS
 62
    7
 10
348.27277380839547
 20
153.44324140511819
 11
349.12677893348524
 21
153.23389795340407
  0
LINE
  8
_0-0_0
  6
CONTINUOUS
 62
    7
 10
349.12822513507075
 20
153.23389795340407
 11
349.12822513507075
 21
154.06187144995482
  0
LINE
  8
_0-0_0
  6
CONTINUOUS
 62
    7
 10
350.01404879402799
 20
154.06187144995482
 11
350.01404879402799
 21
153.29464051898157
  0
LINE
  8
_0-0_0
  6
CONTINUOUS
 62
    7
 10
350.01404879402799
 20
153.29464051898157
 11
350.88396318605152
 21
153.4887988540479
  0
LINE
  8
_0-0_0
  6
CONTINUOUS
 62
    7
 10
350.88396318605152
 20
153.4887988540479
 11
351.75351550293209
 21
153.68295613962107
  0
LINE
  8
_0-0_0
  6
CONTINUOUS
 62
    7
 10
351.75351550293209
 20
153.68295613962107
 11
352.62306781981266
 21
153.8771144746874
  0
LINE
  8
_0-0_0
  6
CONTINUOUS
 62
    7
 10
352.62306781981266
 20
153.8771144746874
 11
353.49298221183614
 21
154.07127176026057
  0
LINE
  8
_0-0_0
  6
CONTINUOUS
 62
    7
 10
342.46069008945
 20
160.4383516047873
 11
341.09869143980092
 21
159.41441149644177
  0
LINE
  8
_0-0_0
  6
CONTINUOUS
 62
    7
 10
341.09869143980092
 20
159.41441149644177
 11
339.73705486529491
 21
158.3908345127324
  0
LINE
  8
_0-0_0
  6
CONTINUOUS
 62
    7
 10
339.73705486529491
 20
158.3908345127324
 11
338.37541829078879
 21
157.3672564795298
  0
LINE
  8
_0-0_0
  6
CONTINUOUS
 62
    7
 10
338.37541829078879
 20
157.3672564795298
 11
337.01342069063298
 21
156.34331742067741
  0
LINE
  8
_0-0_0
  6
CONTINUOUS
 62
    7
 10
337.01595101866099
 20
156.35344188126913
 11
335.91029947124133
 21
155.92824602121294
  0
LINE
  8
_0-0_0
  6
CONTINUOUS
 62
    7
 10
335.91029947124133
 20
155.92824602121294
 11
334.80428584867872
 21
155.50305121064991
  0
LINE
  8
_0-0_0
  6
CONTINUOUS
 62
    7
 10
334.80428584867872
 20
155.50305121064991
 11
333.69827327560921
 21
155.07785640008689
  0
LINE
  8
_0-0_0
  6
CONTINUOUS
 62
    7
 10
333.69827327560921
 20
155.07785640008689
 11
332.59262067869633
 21
154.6522995143809
  0
LINE
  8
_0-0_0
  6
CONTINUOUS
 62
    7
 10
332.5698424789781
 20
154.67941631885569
 11
323.74342967073903
 21
145.91519227777965
  0
LINE
  8
_0-0_0
  6
CONTINUOUS
 62
    7
 10
323.74342967073903
 20
145.91519227777965
 11
323.74342967073903
 21
136.40940685912648
  0
LINE
  8
_0-0_0
  6
CONTINUOUS
 62
    7
 10
323.74342967073903
 20
136.40940685912648
 11
276.10296349307134
 21
136.40940685912648
  0
LINE
  8
_0-0_0
  6
CONTINUOUS
 62
    7
 10
276.10278298024645
 20
136.40940685912648
 11
276.10278298024645
 21
145.96725658435096
  0
LINE
  8
_0-0_0
  6
CONTINUOUS
 62
    7
 10
276.10278298024645
 20
145.96725658435096
 11
274.90692224757134
 21
147.59355539545641
  0
LINE
  8
_0-0_0
  6
CONTINUOUS
 62
    7
 10
274.90692224757134
 20
147.59355539545641
 11
273.71106046540302
 21
149.22021628170484
  0
LINE
  8
_0-0_0
  6
CONTINUOUS
 62
    7
 10
273.71106046540302
 20
149.22021628170484
 11
272.51501921990302
 21
150.8468761184601
  0
LINE
  8
_0-0_0
  6
CONTINUOUS
 62
    7
 10
272.51501921990302
 20
150.8468761184601
 11
271.31915848722787
 21
152.4731749295656
  0
LINE
  8
_0-0_0
  6
CONTINUOUS
 62
    7
 10
271.31915848722787
 20
152.4731749295656
 11
270.9058943149987
 21
152.75808503785521
  0
LINE
  8
_0-0_0
  6
CONTINUOUS
 62
    7
 10
270.9058943149987
 20
152.75808503785521
 11
270.49263119226265
 21
153.04263307100189
  0
LINE
  8
_0-0_0
  6
CONTINUOUS
 62
    7
 10
270.49263119226265
 20
153.04263307100189
 11
270.07936702003343
 21
153.32718110414856
  0
LINE
  8
_0-0_0
  6
CONTINUOUS
 62
    7
 10
270.07936702003343
 20
153.32718110414856
 11
269.66610389729743
 21
153.61209016294504
  0
LINE
  8
_0-0_0
  6
CONTINUOUS
 62
    7
 10
269.66610389729743
 20
153.61209016294504
 11
269.03427647587324
 21
153.89989267440566
  0
LINE
  8
_0-0_0
  6
CONTINUOUS
 62
    7
 10
269.03427647587324
 20
153.89989267440566
 11
268.40226959111726
 21
154.18769413637312
  0
LINE
  8
_0-0_0
  6
CONTINUOUS
 62
    7
 10
268.40226959111726
 20
154.18769413637312
 11
267.77044216969307
 21
154.47549664783378
  0
LINE
  8
_0-0_0
  6
CONTINUOUS
 62
    7
 10
267.77044216969307
 20
154.47549664783378
 11
267.13861579776204
 21
154.76329915929443
  0
LINE
  8
_0-0_0
  6
CONTINUOUS
 62
    7
 10
267.13861579776204
 20
154.76329915929443
 11
266.06152725640266
 21
155.16101509023972
  0
LINE
  8
_0-0_0
  6
CONTINUOUS
 62
    7
 10
266.06152725640266
 20
155.16101509023972
 11
263.90735017368388
 21
155.95572490083066
  0
LINE
  8
_0-0_0
  6
CONTINUOUS
 62
    7
 10
263.90735017368388
 20
155.95572490083066
 11
262.83008111949954
 21
156.35344188126913
  0
LINE
  8
_0-0_0
  6
CONTINUOUS
 62
    7
 10
262.82465733880736
 20
156.44961638569148
 11
261.55033754638572
 21
157.44680071521202
  0
LINE
  8
_0-0_0
  6
CONTINUOUS
 62
    7
 10
261.55033754638572
 20
157.44680071521202
 11
259.00133693589265
 21
159.44116727526676
  0
LINE
  8
_0-0_0
  6
CONTINUOUS
 62
    7
 10
259.00133693589265
 20
159.44116727526676
 11
257.72683663064612
 21
160.4383516047873
  0
LINE
  8
_0-0_0
  6
CONTINUOUS
 62
    7
 10
257.72683663064612
 20
160.4383516047873
 11
257.72683663064612
 21
162.13913084703941
  0
LINE
  8
_0-0_0
  6
CONTINUOUS
 62
    7
 10
257.73930985694778
 20
160.4383516047873
 11
270.96428601587985
 21
160.4383516047873
  0
LINE
  8
_0-0_0
  6
CONTINUOUS
 62
    7
 10
271.16260244287781
 20
160.93368929123363
 11
275.64631327327697
 21
160.93368929123363
  0
LINE
  8
_0-0_0
  6
CONTINUOUS
 62
    7
 10
275.81046135120437
 20
160.4383516047873
 11
342.46069008945
 21
160.4383516047873
  0
LINE
  8
_0-0_0
  6
CONTINUOUS
 62
    7
 10
342.46069008945
 20
160.4383516047873
 11
342.46069008945
 21
162.13913084703941
  0
LINE
  8
_0-0_0
  6
CONTINUOUS
 62
    7
 10
342.79874863075344
 20
162.31521166228697
 11
342.79874863075344
 21
166.05555388787371
  0
LINE
  8
_0-0_0
  6
CONTINUOUS
 62
    7
 10
344.99848211290879
 20
172.8704251803637
 11
344.99848211290879
 21
189.57975958728935
  0
LINE
  8
_0-0_0
  6
CONTINUOUS
 62
    7
 10
344.99848211290879
 20
187.74845592922622
 11
257.04493369220398
 21
187.74845592922622
  0
LINE
  8
_0-0_0
  6
CONTINUOUS
 62
    7
 10
257.04493369220398
 20
189.56891202590487
 11
257.04493369220398
 21
172.90838954622293
  0
LINE
  8
_0-0_0
  6
CONTINUOUS
 62
    7
 10
257.04493369220398
 20
175.10559165085704
 11
344.99848211290879
 21
175.10559165085704
  0
LINE
  8
_0-0_0
  6
CONTINUOUS
 62
    7
 10
344.87410562807594
 20
177.23283244192595
 11
257.02287859327845
 21
177.23283244192595
  0
LINE
  8
_0-0_0
  6
CONTINUOUS
 62
    7
 10
257.14255439821181
 20
179.35935013220208
 11
344.99305833221655
 21
179.35935013220208
  0
LINE
  8
_0-0_0
  6
CONTINUOUS
 62
    7
 10
344.99305833221655
 20
181.13081588779849
 11
257.14255439821181
 21
181.13081588779849
  0
LINE
  8
_0-0_0
  6
CONTINUOUS
 62
    7
 10
257.04493369220398
 20
183.61310861354713
 11
344.99848211290879
 21
183.61310861354713
  0
LINE
  8
_0-0_0
  6
CONTINUOUS
 62
    7
 10
344.87410562807594
 20
185.62193823895009
 11
257.02287859327845
 21
185.62193823895009
  0
LINE
  8
_0-0_0
  6
CONTINUOUS
 62
    7
 10
259.87974802460434
 20
166.05555388787371
 11
259.87974802460434
 21
162.31521166228697
  0
LINE
  8
_0-0_0
  6
CONTINUOUS
 62
    7
 10
271.19930111997644
 20
162.09755202670959
 11
271.19930111997644
 21
155.7264956525693
  0
LINE
  8
_0-0_0
  6
CONTINUOUS
 62
    7
 10
271.19930111997644
 20
157.15249029661663
 11
275.71862545153851
 21
157.15249029661663
  0
LINE
  8
_0-0_0
  6
CONTINUOUS
 62
    7
 10
275.64631327327697
 20
158.33334642546885
 11
271.16260244287781
 21
158.33334642546885
  0
LINE
  8
_0-0_0
  6
CONTINUOUS
 62
    7
 10
271.19930111997644
 20
159.75174798644568
 11
275.71862545153851
 21
159.75174798644568
  0
LINE
  8
_0-0_0
  6
CONTINUOUS
 62
    7
 10
275.71862545153851
 20
162.09755202670959
 11
275.71862545153851
 21
155.72577255177654
  0
LINE
  8
_0-0_0
  6
CONTINUOUS
 62
    7
 10
277.37565657108257
 20
155.72577255177654
 11
269.51696042319293
 21
155.72577255177654
  0
LINE
  8
_0-0_0
  6
CONTINUOUS
 62
    7
 10
269.51696042319293
 20
155.74602042346677
 11
269.51696042319293
 21
154.07416416343159
  0
LINE
  8
_0-0_0
  6
CONTINUOUS
 62
    7
 10
269.53521845583663
 20
154.0633176515403
 11
277.37565657108257
 21
154.0633176515403
  0
LINE
  8
_0-0_0
  6
CONTINUOUS
 62
    7
 10
277.37565657108257
 20
154.07416416343159
 11
277.37565657108257
 21
155.74602042346677
  0
LINE
  8
_0-0_0
  6
CONTINUOUS
 62
    7
 10
277.37565657108257
 20
154.57492563057011
 11
280.21047090348287
 21
154.57492563057011
  0
LINE
  8
_0-0_0
  6
CONTINUOUS
 62
    7
 10
280.26271677237224
 20
152.96923571680466
 11
280.26271677237224
 21
160.38267074475908
  0
LINE
  8
_0-0_0
  6
CONTINUOUS
 62
    7
 10
280.88315404444415
 20
160.38267074475908
 11
280.88315404444415
 21
152.96923571680466
  0
LINE
  8
_0-0_0
  6
CONTINUOUS
 62
    7
 10
280.32851999400589
 20
152.89186183299387
 11
310.78438143716699
 21
152.89186183299387
  0
LINE
  8
_0-0_0
  6
CONTINUOUS
 62
    7
 10
310.8360847180885
 20
152.96923571680466
 11
310.8360847180885
 21
160.38267074475908
  0
LINE
  8
_0-0_0
  6
CONTINUOUS
 62
    7
 10
310.21528537087363
 20
160.38267074475908
 11
310.21528537087363
 21
152.96923571680466
  0
LINE
  8
_0-0_0
  6
CONTINUOUS
 62
    7
 10
310.87296390801203
 20
154.57564873136286
 11
332.14211734038702
 21
154.57564873136286
  0
LINE
  8
_0-0_0
  6
CONTINUOUS
 62
    7
 10
323.74342967073903
 20
145.91519227777965
 11
276.12284928961861
 21
145.91519227777965
  0
LINE
  8
_0-0_0
  6
CONTINUOUS
 62
    7
 10
275.59840600914413
 20
153.68295613962107
 11
274.72885369226356
 21
153.4887988540479
  0
LINE
  8
_0-0_0
  6
CONTINUOUS
 62
    7
 10
274.72885369226356
 20
153.4887988540479
 11
273.85911981306498
 21
153.29464051898157
  0
LINE
  8
_0-0_0
  6
CONTINUOUS
 62
    7
 10
273.85911981306498
 20
153.29464051898157
 11
273.85911981306498
 21
154.06187144995482
  0
LINE
  8
_0-0_0
  6
CONTINUOUS
 62
    7
 10
272.97293512845795
 20
154.06187144995482
 11
272.97293512845795
 21
153.23389795340407
  0
LINE
  8
_0-0_0
  6
CONTINUOUS
 62
    7
 10
272.97293512845795
 20
153.23389795340407
 11
272.11350622267588
 21
153.44143417788288
  0
LINE
  8
_0-0_0
  6
CONTINUOUS
 62
    7
 10
272.11350622267588
 20
153.44143417788288
 11
270.39464841111186
 21
153.85578247655465
  0
LINE
  8
_0-0_0
  6
CONTINUOUS
 62
    7
 10
270.39464841111186
 20
153.85578247655465
 11
269.53521845583663
 21
154.0633176515403
  0
LINE
  8
_0-0_0
  6
CONTINUOUS
 62
    7
 10
269.39963338396956
 20
154.57311840333483
 11
267.71548545995074
 21
154.57311840333483
  0
LINE
  8
_0-0_0
  6
CONTINUOUS
 62
    7
 10
275.59840600914413
 20
153.68295613962107
 11
276.46795937551786
 21
153.8771144746874
  0
LINE
  8
_0-0_0
  6
CONTINUOUS
 62
    7
 10
276.46795937551786
 20
153.8771144746874
 11
277.33769220522333
 21
154.07127176026057
  0
LINE
  8
_0-0_0
  6
CONTINUOUS
 62
    7
 10
278.63406709657045
 20
136.37795144989519
 11
320.8299757657673
 21
136.37795144989519
  0
LINE
  8
_0-0_0
  6
CONTINUOUS
 62
    7
 10
320.8299757657673
 20
136.37795144989519
 11
322.05891967157726
 21
135.38763710265235
  0
LINE
  8
_0-0_0
  6
CONTINUOUS
 62
    7
 10
322.05891967157726
 20
135.38763710265235
 11
323.28750255173748
 21
134.39732380490273
  0
LINE
  8
_0-0_0
  6
CONTINUOUS
 62
    7
 10
323.28750255173748
 20
134.39732380490273
 11
324.51608438240453
 21
133.40664843201012
  0
LINE
  8
_0-0_0
  6
CONTINUOUS
 62
    7
 10
324.51608438240453
 20
133.40664843201012
 11
325.74502828821448
 21
132.4163340847673
  0
LINE
  8
_0-0_0
  6
CONTINUOUS
 62
    7
 10
325.713933904633
 20
132.41307960645332
 11
325.713933904633
 21
125.26575406617697
  0
LINE
  8
_0-0_0
  6
CONTINUOUS
 62
    7
 10
325.713933904633
 20
125.26575406617697
 11
324.86173600677847
 21
124.10442165872905
  0
LINE
  8
_0-0_0
  6
CONTINUOUS
 62
    7
 10
324.86173600677847
 20
124.10442165872905
 11
324.00990018406691
 21
122.94272822563136
  0
LINE
  8
_0-0_0
  6
CONTINUOUS
 62
    7
 10
324.00990018406691
 20
122.94272822563136
 11
323.15770228621238
 21
121.78103479253363
  0
LINE
  8
_0-0_0
  6
CONTINUOUS
 62
    7
 10
323.15770228621238
 20
121.78103479253363
 11
322.30550438835786
 21
120.6197023850857
  0
LINE
  8
_0-0_0
  6
CONTINUOUS
 62
    7
 10
322.30550438835786
 20
120.6197023850857
 11
277.46351594113486
 21
120.6197023850857
  0
LINE
  8
_0-0_0
  6
CONTINUOUS
 62
    7
 10
277.44616047261565
 20
120.64971159273151
 11
276.62939556309914
 21
121.76440242480717
  0
LINE
  8
_0-0_0
  6
CONTINUOUS
 62
    7
 10
276.62939556309914
 20
121.76440242480717
 11
275.81263065358263
 21
122.87945533202578
  0
LINE
  8
_0-0_0
  6
CONTINUOUS
 62
    7
 10
275.81263065358263
 20
122.87945533202578
 11
274.99586574406612
 21
123.99450718975126
  0
LINE
  8
_0-0_0
  6
CONTINUOUS
 62
    7
 10
274.99586574406612
 20
123.99450718975126
 11
274.17910083454967
 21
125.10956009696987
  0
LINE
  8
_0-0_0
  6
CONTINUOUS
 62
    7
 10
274.17910083454967
 20
125.10956009696987
 11
274.17910083454967
 21
131.76227105159268
  0
LINE
  8
_0-0_0
  6
CONTINUOUS
 62
    7
 10
274.13390546076289
 20
131.84181423778173
 11
275.25890126625518
 21
132.97566776561189
  0
LINE
  8
_0-0_0
  6
CONTINUOUS
 62
    7
 10
275.25890126625518
 20
132.97566776561189
 11
276.38407758457231
 21
134.10988336858503
  0
LINE
  8
_0-0_0
  6
CONTINUOUS
 62
    7
 10
276.38407758457231
 20
134.10988336858503
 11
277.50907234057138
 21
135.24409792206501
  0
LINE
  8
_0-0_0
  6
CONTINUOUS
 62
    7
 10
277.50907234057138
 20
135.24409792206501
 11
278.63406709657045
 21
136.37795144989519
  0
LINE
  8
_0-0_0
  6
CONTINUOUS
 62
    7
 10
284.96372516320588
 20
136.19355550027757
 11
284.96372516320588
 21
131.42891214069547
  0
LINE
  8
_0-0_0
  6
CONTINUOUS
 62
    7
 10
284.96372516320588
 20
131.42891214069547
 11
308.06472379211863
 21
131.42891214069547
  0
LINE
  8
_0-0_0
  6
CONTINUOUS
 62
    7
 10
308.06472379211863
 20
131.42891214069547
 11
308.06472379211863
 21
136.19355550027757
  0
LINE
  8
_0-0_0
  6
CONTINUOUS
 62
    7
 10
308.18295444495965
 20
131.42891214069547
 11
314.3866082628586
 21
131.42891214069547
  0
LINE
  8
_0-0_0
  6
CONTINUOUS
 62
    7
 10
314.3866082628586
 20
131.42891214069547
 11
314.3866082628586
 21
136.19355550027757
  0
LINE
  8
_0-0_0
  6
CONTINUOUS
 62
    7
 10
314.3866082628586
 20
131.42891214069547
 11
317.20822521867137
 21
130.46933115138438
  0
LINE
  8
_0-0_0
  6
CONTINUOUS
 62
    7
 10
317.20822521867137
 20
130.46933115138438
 11
320.02984322397725
 21
129.51011118772306
  0
LINE
  8
_0-0_0
  6
CONTINUOUS
 62
    7
 10
320.02984322397725
 20
129.51011118772306
 11
322.85146017979002
 21
128.55089122406176
  0
LINE
  8
_0-0_0
  6
CONTINUOUS
 62
    7
 10
322.85146017979002
 20
128.55089122406176
 11
325.6730781850959
 21
127.59131023475065
  0
LINE
  8
_0-0_0
  6
CONTINUOUS
 62
    7
 10
322.5658280202008
 20
120.97439329411566
 11
277.2084345276661
 21
120.97439329411566
  0
LINE
  8
_0-0_0
  6
CONTINUOUS
 62
    7
 10
276.85627499615737
 20
128.49159590956293
 11
274.15288764369251
 21
127.53237594590161
  0
LINE
  8
_0-0_0
  6
CONTINUOUS
 62
    7
 10
276.85627499615737
 20
128.49159590956293
 11
279.55948183579733
 21
129.45117689887402
  0
LINE
  8
_0-0_0
  6
CONTINUOUS
 62
    7
 10
279.55948183579733
 20
129.45117689887402
 11
282.26268762594412
 21
130.41075893767831
  0
LINE
  8
_0-0_0
  6
CONTINUOUS
 62
    7
 10
282.26268762594412
 20
130.41075893767831
 11
284.96607497840904
 21
131.36997785184644
  0
LINE
  8
_0-0_0
  6
CONTINUOUS
 62
    7
 10
291.16701690596187
 20
131.42891214069547
 11
291.16701690596187
 21
136.19355550027757
  0
LINE
  8
_0-0_0
  6
CONTINUOUS
 62
    7
 10
299.88460042115884
 20
117.15016822809017
 11
299.88460042115884
 21
203.85669522316618
  0
LINE
  8
_0-0_0
  6
CONTINUOUS
 62
    7
 10
299.78951004317901
 20
199.79854127847301
 11
298.43094638466886
 21
199.65301330833228
  0
LINE
  8
_0-0_0
  6
CONTINUOUS
 62
    7
 10
298.43094638466886
 20
199.65301330833228
 11
297.07256428847677
 21
199.50748533819154
  0
LINE
  8
_0-0_0
  6
CONTINUOUS
 62
    7
 10
297.07256428847677
 20
199.50748533819154
 11
295.71418219228468
 21
199.36213788087571
  0
LINE
  8
_0-0_0
  6
CONTINUOUS
 62
    7
 10
295.71418219228468
 20
199.36213788087571
 11
294.35561853377448
 21
199.216609910735
  0
LINE
  8
_0-0_0
  6
CONTINUOUS
 62
    7
 10
294.30192646329959
 20
199.20720960042922
 11
294.30192646329959
 21
197.89510595497327
  0
LINE
  8
_0-0_0
  6
CONTINUOUS
 62
    7
 10
294.30192646329959
 20
197.89510595497327
 11
305.0945049006761
 21
197.89510595497327
  0
LINE
  8
_0-0_0
  6
CONTINUOUS
 62
    7
 10
305.0945049006761
 20
197.89510595497327
 11
305.0945049006761
 21
199.20720960042922
  0
LINE
  8
_0-0_0
  6
CONTINUOUS
 62
    7
 10
305.0945049006761
 20
199.20720960042922
 11
294.30192646329959
 21
199.20720960042922
  0
LINE
  8
_0-0_0
  6
CONTINUOUS
 62
    7
 10
297.22532326654499
 20
197.79296613138399
 11
297.22532326654499
 21
195.81667604165486
  0
LINE
  8
_0-0_0
  6
CONTINUOUS
 62
    7
 10
302.27704603679496
 20
195.81667604165486
 11
302.27704603679496
 21
197.89908353407998
  0
LINE
  8
_0-0_0
  6
CONTINUOUS
 62
    7
 10
302.39690340404644
 20
199.50748533819154
 11
303.75528550023853
 21
199.36213788087571
  0
LINE
  8
_0-0_0
  6
CONTINUOUS
 62
    7
 10
303.75528550023853
 20
199.36213788087571
 11
305.11330657078082
 21
199.216609910735
  0
LINE
  8
_0-0_0
  6
CONTINUOUS
 62
    7
 10
302.39690340404644
 20
199.50748533819154
 11
299.68049918781884
 21
199.79854127847301
  0
LINE
  8
_0-0_0
  6
CONTINUOUS
 62
    7
 10
296.03578992817972
 20
166.05555388787371
 11
296.03578992817972
 21
162.31521166228697
  0
LINE
  8
_0-1_レイヤ___1
  6
CONTINUOUS
 62
  131
 10
371.83858462066792
 20
195.82824670383209
 11
371.83858462066792
 21
172.58443094563154
  0
LINE
  8
_0-1_レイヤ___1
  6
CONTINUOUS
 62
  131
 10
371.83858462066792
 20
195.82824670383209
 11
372.18588097600178
 21
193.85863119780765
  0
LINE
  8
_0-1_レイヤ___1
  6
CONTINUOUS
 62
  131
 10
371.83858462066792
 20
195.82824670383209
 11
371.49128826533411
 21
193.85863119780765
  0
LINE
  8
_0-1_レイヤ___1
  6
CONTINUOUS
 62
  131
 10
371.83858462066792
 20
172.58443094563154
 11
371.49128826533411
 21
174.55404645165595
  0
LINE
  8
_0-1_レイヤ___1
  6
CONTINUOUS
 62
  131
 10
371.83858462066792
 20
172.58443094563154
 11
372.18588097600178
 21
174.55404645165595
  0
LINE
  8
_0-1_レイヤ___1
  6
CONTINUOUS
 62
  131
 10
371.83858462066792
 20
195.82824670383209
 11
362.4268199147856
 21
195.82824670383209
  0
LINE
  8
_0-1_レイヤ___1
  6
CONTINUOUS
 62
  131
 10
371.83858462066792
 20
172.58443094563154
 11
362.4268199147856
 21
172.58443094563154
  0
LINE
  8
_0-1_レイヤ___1
  6
CONTINUOUS
 62
  131
 10
371.83858462066792
 20
172.58443094563154
 11
371.83858462066792
 21
120.6197023850857
  0
LINE
  8
_0-1_レイヤ___1
  6
CONTINUOUS
 62
  131
 10
371.83858462066792
 20
172.58443094563154
 11
372.18588097600178
 21
170.61481543960713
  0
LINE
  8
_0-1_レイヤ___1
  6
CONTINUOUS
 62
  131
 10
371.83858462066792
 20
172.58443094563154
 11
371.49128826533411
 21
170.61481543960713
  0
LINE
  8
_0-1_レイヤ___1
  6
CONTINUOUS
 62
  131
 10
371.83858462066792
 20
120.6197023850857
 11
371.49128826533411
 21
122.58931789111013
  0
LINE
  8
_0-1_レイヤ___1
  6
CONTINUOUS
 62
  131
 10
371.83858462066792
 20
120.6197023850857
 11
372.18588097600178
 21
122.58931789111013
  0
LINE
  8
_0-1_レイヤ___1
  6
CONTINUOUS
 62
  131
 10
371.83858462066792
 20
120.6197023850857
 11
362.4268199147856
 21
120.6197023850857
  0
TEXT
  8
_0-1_レイヤ___1
 62
    7
 10
370.83858462066792
 20
144.10206666535862
 40
6
 41
1
 50
90
  1
51
  0
TEXT
  8
_0-1_レイヤ___1
 62
    7
 10
370.83858462066792
 20
181.7063388247318
 40
6
 41
1
 50
90
  1
22
  0
LINE
  8
_0-1_レイヤ___1
  6
CONTINUOUS
 62
  131
 10
242.75281189018614
 20
206.25514977306995
 11
356.75281189146779
 21
206.25514977306995
  0
LINE
  8
_0-1_レイヤ___1
  6
CONTINUOUS
 62
  131
 10
242.75281189018614
 20
206.25514977306995
 11
244.72242739621055
 21
206.60244612840381
  0
LINE
  8
_0-1_レイヤ___1
  6
CONTINUOUS
 62
  131
 10
242.75281189018614
 20
206.25514977306995
 11
244.72242739621055
 21
205.90785341773608
  0
LINE
  8
_0-1_レイヤ___1
  6
CONTINUOUS
 62
  131
 10
356.75281189146779
 20
206.25514977306995
 11
354.78319638544338
 21
205.90785341773608
  0
LINE
  8
_0-1_レイヤ___1
  6
CONTINUOUS
 62
  131
 10
356.75281189146779
 20
206.25514977306995
 11
354.78319638544338
 21
206.60244612840381
  0
TEXT
  8
_0-1_レイヤ___1
 62
    7
 10
293.63460042115884
 20
207.62954078114245
 40
6
 41
1
 50
0
  1
φ114
  0
LINE
  8
_0-1_レイヤ___1
  6
CONTINUOUS
 62
  131
 10
257.04493369220398
 20
182.33358114561895
 11
259.01454919822839
 21
182.68087750095282
  0
LINE
  8
_0-1_レイヤ___1
  6
CONTINUOUS
 62
  131
 10
257.04493369220398
 20
182.33358114561895
 11
259.01454919822839
 21
181.98628479028511
  0
LINE
  8
_0-1_レイヤ___1
  6
CONTINUOUS
 62
  131
 10
344.99848211290879
 20
182.33358114561895
 11
343.02886660688438
 21
181.98628479028511
  0
LINE
  8
_0-1_レイヤ___1
  6
CONTINUOUS
 62
  131
 10
344.99848211290879
 20
182.33358114561895
 11
343.02886660688438
 21
182.68087750095282
  0
CIRCLE
  8
_0-0_0
  6
CONTINUOUS
 62
    7
 10
299.88460042115884
 20
300.01485198853038
 40
57.000000040756916
  0
CIRCLE
  8
_0-0_0
  6
CONTINUOUS
 62
    7
 10
299.88460042115884
 20
300.01485198853038
 40
53.64700360224095
  0
CIRCLE
  8
_0-0_0
  6
CONTINUOUS
 62
    7
 10
299.88460042115884
 20
300.01485198853038
 40
47.625912823334644
  0
CIRCLE
  8
_0-0_0
  6
CONTINUOUS
 62
    7
 10
299.88460042115884
 20
300.01485198853038
 40
39.009602570525594
  0
CIRCLE
  8
_0-0_0
  6
CONTINUOUS
 62
    7
 10
299.88460042115884
 20
300.01485198853038
 40
34.918032166974811
  0
CIRCLE
  8
_0-0_0
  6
CONTINUOUS
 62
    7
 10
299.88460042115884
 20
300.01485198853038
 40
8.1644273546139914
  0
CIRCLE
  8
_0-0_0
  6
CONTINUOUS
 62
    7
 10
299.88460042115884
 20
300.01485198853038
 40
6.2860025103071404
  0
CIRCLE
  8
_0-0_0
  6
CONTINUOUS
 62
    7
 10
299.88460042115884
 20
300.01485198853038
 40
3.9250202870053017
  0
CIRCLE
  8
_0-0_0
  6
CONTINUOUS
 62
    7
 10
292.77907152347086
 20
268.80127934067036
 40
2.363305270927766
  0
CIRCLE
  8
_0-0_0
  6
CONTINUOUS
 62
    7
 10
299.90126545572519
 20
268.00002009652917
 40
2.363305270927766
  0
CIRCLE
  8
_0-0_0
  6
CONTINUOUS
 62
    7
 10
307.00231752705332
 20
268.80127934067036
 40
2.363305270927766
  0
CIRCLE
  8
_0-0_0
  6
CONTINUOUS
 62
    7
 10
313.77814332181532
 20
271.16101519445527
 40
2.363305270927766
  0
CIRCLE
  8
_0-0_0
  6
CONTINUOUS
 62
    7
 10
319.84009507178178
 20
274.97105243352496
 40
2.363305270927766
  0
CIRCLE
  8
_0-0_0
  6
CONTINUOUS
 62
    7
 10
324.90593184850741
 20
280.03688921025059
 40
2.363305270927766
  0
CIRCLE
  8
_0-0_0
  6
CONTINUOUS
 62
    7
 10
328.71596908757704
 20
286.12033465705628
 40
2.363305270927766
  0
CIRCLE
  8
_0-0_0
  6
CONTINUOUS
 62
    7
 10
319.14736084235471
 20
286.01216045547631
 40
2.363305270927766
  0
CIRCLE
  8
_0-0_0
  6
CONTINUOUS
 62
    7
 10
313.88666935930837
 20
280.7296234396776
 40
2.363305270927766
  0
CIRCLE
  8
_0-0_0
  6
CONTINUOUS
 62
    7
 10
307.24051044018677
 20
277.35263382006212
 40
2.363305270927766
  0
CIRCLE
  8
_0-0_0
  6
CONTINUOUS
 62
    7
 10
299.90126545572519
 20
276.18351274158931
 40
2.363305270927766
  0
CIRCLE
  8
_0-0_0
  6
CONTINUOUS
 62
    7
 10
299.90126545572519
 20
284.3884990834888
 40
2.363305270927766
  0
CIRCLE
  8
_0-0_0
  6
CONTINUOUS
 62
    7
 10
307.69505073370152
 20
286.46670177176975
 40
2.363305270927766
  0
CIRCLE
  8
_0-0_0
  6
CONTINUOUS
 62
    7
 10
313.41028251026256
 20
292.18193252555204
 40
2.363305270927766
  0
CIRCLE
  8
_0-0_0
  6
CONTINUOUS
 62
    7
 10
322.52435046197024
 20
292.63647384184554
 40
2.363305270927766
  0
CIRCLE
  8
_0-0_0
  6
CONTINUOUS
 62
    7
 10
331.87661234959012
 20
300.01870621998563
 40
2.363305270927766
  0
CIRCLE
  8
_0-0_0
  6
CONTINUOUS
 62
    7
 10
323.693471540443
 20
299.99721252314635
 40
2.363305270927766
  0
CIRCLE
  8
_0-0_0
  6
CONTINUOUS
 62
    7
 10
315.48848519854357
 20
299.99721252314635
 40
2.363305270927766
  0
CIRCLE
  8
_0-0_0
  6
CONTINUOUS
 62
    7
 10
322.52435046197024
 20
307.35777528649078
 40
2.363305270927766
  0
CIRCLE
  8
_0-0_0
  6
CONTINUOUS
 62
    7
 10
331.07570494136195
 20
307.11958237335728
 40
2.363305270927766
  0
CIRCLE
  8
_0-0_0
  6
CONTINUOUS
 62
    7
 10
328.71596908757704
 20
313.87409141201533
 40
2.363305270927766
  0
CIRCLE
  8
_0-0_0
  6
CONTINUOUS
 62
    7
 10
319.14736084235471
 20
313.9822645908165
 40
2.363305270927766
  0
CIRCLE
  8
_0-0_0
  6
CONTINUOUS
 62
    7
 10
313.41028251026256
 20
307.81231660278422
 40
2.363305270927766
  0
CIRCLE
  8
_0-0_0
  6
CONTINUOUS
 62
    7
 10
324.90593184850741
 20
319.95735991808567
 40
2.363305270927766
  0
CIRCLE
  8
_0-0_0
  6
CONTINUOUS
 62
    7
 10
319.84009507178178
 20
325.02319771759011
 40
2.363305270927766
  0
CIRCLE
  8
_0-0_0
  6
CONTINUOUS
 62
    7
 10
313.88666935930837
 20
319.26462568865867
 40
2.363305270927766
  0
CIRCLE
  8
_0-0_0
  6
CONTINUOUS
 62
    7
 10
307.69505073370152
 20
313.5277242973018
 40
2.363305270927766
  0
CIRCLE
  8
_0-0_0
  6
CONTINUOUS
 62
    7
 10
307.24051044018677
 20
322.64179224900943
 40
2.363305270927766
  0
CIRCLE
  8
_0-0_0
  6
CONTINUOUS
 62
    7
 10
307.00231752705332
 20
331.19314570562238
 40
2.363305270927766
  0
CIRCLE
  8
_0-0_0
  6
CONTINUOUS
 62
    7
 10
299.90126545572519
 20
331.99405311385055
 40
2.363305270927766
  0
CIRCLE
  8
_0-0_0
  6
CONTINUOUS
 62
    7
 10
299.90126545572519
 20
323.81091332748224
 40
2.363305270927766
  0
CIRCLE
  8
_0-0_0
  6
CONTINUOUS
 62
    7
 10
299.90126545572519
 20
315.60592596280401
 40
2.363305270927766
  0
CIRCLE
  8
_0-0_0
  6
CONTINUOUS
 62
    7
 10
292.08633729404391
 20
313.5277242973018
 40
2.363305270927766
  0
CIRCLE
  8
_0-0_0
  6
CONTINUOUS
 62
    7
 10
292.54087861033736
 20
322.64179224900943
 40
2.363305270927766
  0
CIRCLE
  8
_0-0_0
  6
CONTINUOUS
 62
    7
 10
292.77907152347086
 20
331.19314570562238
 40
2.363305270927766
  0
CIRCLE
  8
_0-0_0
  6
CONTINUOUS
 62
    7
 10
286.02438656685626
 20
328.83341087461633
 40
2.363305270927766
  0
CIRCLE
  8
_0-0_0
  6
CONTINUOUS
 62
    7
 10
285.89471969121581
 20
319.26462568865867
 40
2.363305270927766
  0
CIRCLE
  8
_0-0_0
  6
CONTINUOUS
 62
    7
 10
286.37075368156979
 20
307.81231660278422
 40
2.363305270927766
  0
CIRCLE
  8
_0-0_0
  6
CONTINUOUS
 62
    7
 10
280.63402820816947
 20
313.9822645908165
 40
2.363305270927766
  0
CIRCLE
  8
_0-0_0
  6
CONTINUOUS
 62
    7
 10
274.89695089885606
 20
319.95735991808567
 40
2.363305270927766
  0
CIRCLE
  8
_0-0_0
  6
CONTINUOUS
 62
    7
 10
271.08691365978638
 20
313.87409141201533
 40
2.363305270927766
  0
CIRCLE
  8
_0-0_0
  6
CONTINUOUS
 62
    7
 10
277.25668572986217
 20
307.35777528649078
 40
2.363305270927766
  0
CIRCLE
  8
_0-0_0
  6
CONTINUOUS
 62
    7
 10
284.29255201606759
 20
299.99721252314635
 40
2.363305270927766
  0
CIRCLE
  8
_0-0_0
  6
CONTINUOUS
 62
    7
 10
276.08774159212464
 20
299.99721252314635
 40
2.363305270927766
  0
CIRCLE
  8
_0-0_0
  6
CONTINUOUS
 62
    7
 10
267.90442486502104
 20
299.99721252314635
 40
2.363305270927766
  0
CIRCLE
  8
_0-0_0
  6
CONTINUOUS
 62
    7
 10
268.70550819120569
 20
307.11958237335728
 40
2.363305270927766
  0
CIRCLE
  8
_0-0_0
  6
CONTINUOUS
 62
    7
 10
268.70550819120569
 20
292.87466675497905
 40
2.363305270927766
  0
CIRCLE
  8
_0-0_0
  6
CONTINUOUS
 62
    7
 10
277.25668572986217
 20
292.63647384184554
 40
2.363305270927766
  0
CIRCLE
  8
_0-0_0
  6
CONTINUOUS
 62
    7
 10
280.63402820816947
 20
286.01216045547631
 40
2.363305270927766
  0
CIRCLE
  8
_0-0_0
  6
CONTINUOUS
 62
    7
 10
271.08691365978638
 20
286.12033465705628
 40
2.363305270927766
  0
CIRCLE
  8
_0-0_0
  6
CONTINUOUS
 62
    7
 10
292.08633729404391
 20
286.46670177176975
 40
2.363305270927766
  0
CIRCLE
  8
_0-0_0
  6
CONTINUOUS
 62
    7
 10
285.89471969121581
 20
280.7296234396776
 40
2.363305270927766
  0
CIRCLE
  8
_0-0_0
  6
CONTINUOUS
 62
    7
 10
274.89695089885606
 20
280.03688921025059
 40
2.363305270927766
  0
CIRCLE
  8
_0-0_0
  6
CONTINUOUS
 62
    7
 10
279.94129397874246
 20
274.97105243352496
 40
2.363305270927766
  0
CIRCLE
  8
_0-0_0
  6
CONTINUOUS
 62
    7
 10
286.02438656685626
 20
271.16101519445527
 40
2.363305270927766
  0
CIRCLE
  8
_0-0_0
  6
CONTINUOUS
 62
    7
 10
292.54087861033736
 20
277.35263382006212
 40
2.363305270927766
  0
CIRCLE
  8
_0-0_0
  6
CONTINUOUS
 62
    7
 10
331.10086462389
 20
292.86450327825798
 40
2.363305270927766
  0
CIRCLE
  8
_0-0_0
  6
CONTINUOUS
 62
    7
 10
286.37151925700994
 20
292.2046859102345
 40
2.363305270927766
  0
CIRCLE
  8
_0-0_0
  6
CONTINUOUS
 62
    7
 10
279.92904982122008
 20
325.01756730406601
 40
2.363305270927766
  0
CIRCLE
  8
_0-0_0
  6
CONTINUOUS
 62
    7
 10
313.74513696316063
 20
328.85584198713775
 40
2.363305270927766
  0
LINE
  8
_0-1_レイヤ___1
  6
CONTINUOUS
 62
  131
 10
242.75281189018614
 20
302.26715686274508
 11
242.75281189018614
 21
195.82824670383206
  0
LINE
  8
_0-1_レイヤ___1
  6
CONTINUOUS
 62
  131
 10
356.75281189146779
 20
301.38480392156862
 11
356.75281189146779
 21
195.82716152789635
  0
LINE
  8
_0-1_レイヤ___1
  6
CONTINUOUS
 62
  131
 10
218.12291212781406
 20
182.33358114561895
 11
344.99848211290879
 21
182.33358114561895
  0
TEXT
  8
_0-1_レイヤ___1
 62
    7
 10
231.06408859840232
 20
182.74782135076254
 40
6
 41
1
 50
0
  1
86
  0
LINE
  8
_f-0_
  6
CONTINUOUS
 62
    7
 10
29.184381891628391
 20
54.435381685400216
 11
556.51227625404681
 21
54.435381685400216
  0
LINE
  8
_f-0_
  6
CONTINUOUS
 62
    7
 10
18.699755716962045
 20
408.22860076990639
 11
567.03281478977158
 21
408.22860076990639
  0
LINE
  8
_f-0_
  6
CONTINUOUS
 62
    7
 10
567.03281478977158
 20
408.22860076990639
 11
567.03281478977158
 21
20.518356981051056
  0
LINE
  8
_f-0_
  6
CONTINUOUS
 62
    7
 10
567.03281478977158
 20
20.518356981051056
 11
18.699755716962045
 21
20.518356981051056
  0
LINE
  8
_f-0_
  6
CONTINUOUS
 62
    7
 10
18.699755716962045
 20
20.518356981051056
 11
18.699755716962045
 21
408.22860076990639
  0
TEXT
  8
_f-0_
 62
    7
 10
366.58083694629437
 20
37.715316159599638
 40
6.9233972105152475
 41
1.0000000000000038
 50
0
  1
19/04/18
  0
LINE
  8
_f-0_
  6
CONTINUOUS
 62
    7
 10
29.184381891628391
 20
30.926275605400178
 11
556.51227625404681
 21
30.926275605400178
  0
LINE
  8
_f-0_
  6
CONTINUOUS
 62
    7
 10
29.184381891628391
 20
54.435381685400216
 11
29.184381891628391
 21
30.926275605400178
  0
LINE
  8
_f-0_
  6
CONTINUOUS
 62
    7
 10
216.91194625162836
 20
54.435381685400216
 11
216.91194625162836
 21
30.926275605400178
  0
LINE
  8
_f-0_
  6
CONTINUOUS
 62
    7
 10
304.26488743162838
 20
54.435381685400216
 11
304.26488743162838
 21
30.926275605400178
  0
LINE
  8
_f-0_
  6
CONTINUOUS
 62
    7
 10
351.02959331162833
 20
54.435381685400216
 11
351.02959331162833
 21
30.926275605400178
  0
LINE
  8
_f-0_
  6
CONTINUOUS
 62
    7
 10
405.2942991916284
 20
54.435381685400216
 11
405.2942991916284
 21
30.926275605400178
  0
LINE
  8
_f-0_
  6
CONTINUOUS
 62
    7
 10
556.51227625162835
 20
54.435381685400216
 11
556.51227625162835
 21
30.926275605400178
  0
TEXT
  8
_f-0_
 62
    7
 10
434.95070806100176
 20
32.858115468409551
 40
6.9233972105151906
 41
1.000000000000012
 50
0
  1
日鉄物産マテックス株式会社
  0
TEXT
  8
_f-0_
 62
    7
 10
313.71773835515592
 20
37.630770332693544
 40
6.9233972105152191
 41
1.0000000000000095
 50
0
  1
S=1/2
  0
TEXT
  8
_0-1_レイヤ___1
 62
    7
 10
379.41527475187604
 20
173.49552166545632
 40
6
 41
1
 50
90
  1
(最大)
  0
LINE
  8
ADD_LINE
  6
DOT
 62
    9
 10
29.184381891628391
 20
42.519063180800202
 11
556.51227625404681
 21
42.519063180800202
  0
LINE
  8
ADD_LINE
  6
DOT
 62
    9
 10
29.184381891628391
 20
35.152808036800224
 11
556.51227625404681
 21
35.152808036800224
  0
LINE
  8
ADD_LINE
  6
DOT
 62
    9
 10
220.90613652862839
 20
54.435381685400216
 11
220.90613652862839
 21
30.926275605400178
  0
LINE
  8
ADD_LINE
  6
DOT
 62
    9
 10
408.50599128542842
 20
54.435381685400216
 11
408.50599128542842
 21
30.926275605400178
  0
LINE
  8
ADD_LINE
  6
DOT
 62
    9
 10
397.12254901960785
 20
45.677499394800208
 11
556.51227625404681
 21
45.677499394800208
  0
TEXT
  8
_f-0_
 62
    7
 10
220.90613652862839
 20
35.152808036800224
 40
6.9233972105152191
 41
1.0000000000000056
 50
0
  1
K-8799
  0
TEXT
  8
_f-0_
 62
    7
 10
220.90613652862839
 20
42.519063180800202
 40
6.9233972105152191
 41
1.0000000000000056
 50
0
  1
キッチンシンクドレイン
  0
TEXT
  8
_f-0_
 62
    7
 10
408.50599128542842
 20
45.677499394800208
 40
6.9233972105152191
 41
1.000000000000008
 50
0
  1
KOHLER　ディオストレーナー
  0
ENDSEC
  0
EOF
