  0
SECTION
  2
HEADER
  9
$ACADVER
  1
AC1009
  9
$DWGCODEPAGE
  3
ansi_932
  9
$INSBASE
 10
0.0
 20
0.0
 30
0.0
  9
$EXTMIN
 10
93.49877858481022
 20
102.5917849052553
 30
0.0
  9
$EXTMAX
 10
2835.164073948858
 20
2041.143003849532
 30
0.0
  9
$LIMMIN
 10
0.0
 20
0.0
  9
$LIMMAX
 10
2970.0
 20
2100.0
  9
$ORTHOMODE
 70
     0
  9
$REGENMODE
 70
     1
  9
$FILLMODE
 70
     1
  9
$QTEXTMODE
 70
     0
  9
$MIRRTEXT
 70
     1
  9
$DRAGMODE
 70
     2
  9
$LTSCALE
 40
10.0
  9
$OSMODE
 70
   511
  9
$ATTMODE
 70
     1
  9
$TEXTSIZE
 40
0.2
  9
$TRACEWID
 40
0.05
  9
$TEXTSTYLE
  7
STANDARD
  9
$CLAYER
  8
0
  9
$CELTYPE
  6
BYBLOCK
  9
$CECOLOR
 62
   256
  9
$DIMSCALE
 40
1.0
  9
$DIMASZ
 40
0.18
  9
$DIMEXO
 40
0.0625
  9
$DIMDLI
 40
0.38
  9
$DIMRND
 40
0.0
  9
$DIMDLE
 40
0.0
  9
$DIMEXE
 40
0.18
  9
$DIMTP
 40
0.0
  9
$DIMTM
 40
0.0
  9
$DIMTXT
 40
0.18
  9
$DIMCEN
 40
0.09
  9
$DIMTSZ
 40
0.0
  9
$DIMTOL
 70
     0
  9
$DIMLIM
 70
     0
  9
$DIMTIH
 70
     1
  9
$DIMTOH
 70
     1
  9
$DIMSE1
 70
     0
  9
$DIMSE2
 70
     0
  9
$DIMTAD
 70
     0
  9
$DIMZIN
 70
     0
  9
$DIMBLK
  1

  9
$DIMASO
 70
     1
  9
$DIMSHO
 70
     1
  9
$DIMPOST
  1

  9
$DIMAPOST
  1

  9
$DIMALT
 70
     0
  9
$DIMALTD
 70
     2
  9
$DIMALTF
 40
25.4
  9
$DIMLFAC
 40
1.0
  9
$DIMTOFL
 70
     0
  9
$DIMTVP
 40
0.0
  9
$DIMTIX
 70
     0
  9
$DIMSOXD
 70
     0
  9
$DIMSAH
 70
     0
  9
$DIMBLK1
  1

  9
$DIMBLK2
  1

  9
$DIMSTYLE
  2
STANDARD
  9
$DIMCLRD
 70
     0
  9
$DIMCLRE
 70
     0
  9
$DIMCLRT
 70
     0
  9
$DIMTFAC
 40
1.0
  9
$DIMGAP
 40
0.09
  9
$LUNITS
 70
     2
  9
$LUPREC
 70
     4
  9
$SKETCHINC
 40
0.1
  9
$FILLETRAD
 40
0.5
  9
$AUNITS
 70
     0
  9
$AUPREC
 70
     0
  9
$MENU
  1
.
  9
$ELEVATION
 40
0.0
  9
$PELEVATION
 40
0.0
  9
$THICKNESS
 40
0.0
  9
$LIMCHECK
 70
     0
  9
$CHAMFERA
 40
0.0
  9
$CHAMFERB
 40
0.0
  9
$SKPOLY
 70
     0
  9
$TDCREATE
 40
2458661.423076181
  9
$TDUPDATE
 40
2458661.423207766
  9
$TDINDWG
 40
0.0001297222
  9
$TDUSRTIMER
 40
0.0001297106
  9
$USRTIMER
 70
     1
  9
$ANGBASE
 50
0.0
  9
$ANGDIR
 70
     0
  9
$PDMODE
 70
     0
  9
$PDSIZE
 40
0.0
  9
$PLINEWID
 40
0.0
  9
$COORDS
 70
     2
  9
$SPLFRAME
 70
     0
  9
$SPLINETYPE
 70
     6
  9
$SPLINESEGS
 70
     8
  9
$ATTDIA
 70
     0
  9
$ATTREQ
 70
     1
  9
$HANDLING
 70
     1
  9
$HANDSEED
  5
27E
  9
$SURFTAB1
 70
     6
  9
$SURFTAB2
 70
     6
  9
$SURFTYPE
 70
     6
  9
$SURFU
 70
     6
  9
$SURFV
 70
     6
  9
$UCSNAME
  2

  9
$UCSORG
 10
0.0
 20
0.0
 30
0.0
  9
$UCSXDIR
 10
1.0
 20
0.0
 30
0.0
  9
$UCSYDIR
 10
0.0
 20
1.0
 30
0.0
  9
$PUCSNAME
  2

  9
$PUCSORG
 10
0.0
 20
0.0
 30
0.0
  9
$PUCSXDIR
 10
1.0
 20
0.0
 30
0.0
  9
$PUCSYDIR
 10
0.0
 20
1.0
 30
0.0
  9
$USERI1
 70
     0
  9
$USERI2
 70
     0
  9
$USERI3
 70
     0
  9
$USERI4
 70
     0
  9
$USERI5
 70
     0
  9
$USERR1
 40
0.0
  9
$USERR2
 40
0.0
  9
$USERR3
 40
0.0
  9
$USERR4
 40
0.0
  9
$USERR5
 40
0.0
  9
$WORLDVIEW
 70
     1
  9
$SHADEDGE
 70
     3
  9
$SHADEDIF
 70
    70
  9
$TILEMODE
 70
     1
  9
$MAXACTVP
 70
    64
  9
$PLIMCHECK
 70
     0
  9
$PEXTMIN
 10
1.000000000000000E+20
 20
1.000000000000000E+20
 30
1.000000000000000E+20
  9
$PEXTMAX
 10
-1.000000000000000E+20
 20
-1.000000000000000E+20
 30
-1.000000000000000E+20
  9
$PLIMMIN
 10
0.0
 20
0.0
  9
$PLIMMAX
 10
0.0
 20
0.0
  9
$UNITMODE
 70
     0
  9
$VISRETAIN
 70
     1
  9
$PLINEGEN
 70
     0
  9
$PSLTSCALE
 70
     1
  0
ENDSEC
  0
SECTION
  2
TABLES
  0
TABLE
  2
VPORT
 70
     1
  0
VPORT
  2
*ACTIVE
 70
     0
 10
0.0
 20
0.0
 11
1.0
 21
1.0
 12
501.243510807757
 22
1637.091578315676
 13
0.0
 23
0.0
 14
0.5
 24
0.5
 15
0.5
 25
0.5
 16
0.0
 26
0.0
 36
1.0
 17
0.0
 27
0.0
 37
0.0
 40
1219.727444046192
 41
2.217142857142857
 42
50.0
 43
0.0
 44
0.0
 50
0.0
 51
0.0
 71
    16
 72
   100
 73
     1
 74
     3
 75
     0
 76
     0
 77
     0
 78
     0
  0
ENDTAB
  0
TABLE
  2
LTYPE
 70
    51
  0
LTYPE
  2
CONTINUOUS
 70
     0
  3
実線
 72
    65
 73
     0
 40
0.0
  0
LTYPE
  2
DASHED1
 70
     0
  3
--  --  --  --  --  --  --  --  
 72
    65
 73
     2
 40
2.5
 49
1.25
 49
-1.25
  0
LTYPE
  2
DASHED2
 70
     0
  3
----    ----    ----    ----    
 72
    65
 73
     2
 40
5.0
 49
2.5
 49
-2.5
  0
LTYPE
  2
DASHED3
 70
     0
  3
------  ------  ------  ------  
 72
    65
 73
     2
 40
5.0
 49
3.75
 49
-1.25
  0
LTYPE
  2
CENTER1
 70
     0
  3
----- - ----- - ----- - ----- - 
 72
    65
 73
     4
 40
10.0
 49
6.25
 49
-1.25
 49
1.25
 49
-1.25
  0
LTYPE
  2
CENTER2
 70
     0
  3
----------  --  ----------  --  
 72
    65
 73
     4
 40
20.0
 49
12.5
 49
-2.5
 49
2.5
 49
-2.5
  0
LTYPE
  2
PHANTOM1
 70
     0
  3
--- - - --- - - --- - - --- - - 
 72
    65
 73
     6
 40
9.5
 49
3.25
 49
-1.25
 49
1.25
 49
-1.25
 49
1.25
 49
-1.25
  0
LTYPE
  2
PHANTOM2
 70
     0
  3
--------  -  -  --------  -  -  
 72
    65
 73
     6
 40
20.0
 49
10.0
 49
-2.5
 49
1.25
 49
-2.5
 49
1.25
 49
-2.5
  0
LTYPE
  2
DOT
 70
     0
  3
-   -   -   -   -   -   -   -   
 72
    65
 73
     2
 40
2.5
 49
0.625
 49
-1.875
  0
LTYPE
  2
DUMMY
 70
     0
  3
ダミー
 72
    65
 73
     0
 40
0.0
  0
LTYPE
  2
RAND1
 70
     0
  3
ランダム線1
 72
    65
 73
     4
 40
10.0
 49
1.0
 49
-2.0
 49
3.0
 49
-4.0
  0
LTYPE
  2
RAND2
 70
     0
  3
ランダム線2
 72
    65
 73
     4
 40
14.0
 49
2.0
 49
-3.0
 49
4.0
 49
-5.0
  0
LTYPE
  2
RAND3
 70
     0
  3
ランダム線3
 72
    65
 73
     4
 40
18.0
 49
3.0
 49
-4.0
 49
5.0
 49
-6.0
  0
LTYPE
  2
RAND4
 70
     0
  3
ランダム線4
 72
    65
 73
     4
 40
22.0
 49
4.0
 49
-5.0
 49
6.0
 49
-7.0
  0
LTYPE
  2
RAND5
 70
     0
  3
ランダム線5
 72
    65
 73
     4
 40
26.0
 49
5.0
 49
-6.0
 49
7.0
 49
-8.0
  0
LTYPE
  2
LONG1
 70
     0
  3
----------  --  ----------  --  
 72
    65
 73
     4
 40
40.0
 49
32.5
 49
-2.5
 49
2.5
 49
-2.5
  0
LTYPE
  2
LONG2
 70
     0
  3
--------  -  -  --------  -  -  
 72
    65
 73
     6
 40
40.0
 49
30.0
 49
-2.5
 49
1.25
 49
-2.5
 49
1.25
 49
-2.5
  0
LTYPE
  2
LONG3
 70
     0
  3
+++++++++++++++..+++++++++++++++
 72
    65
 73
     2
 40
40.0
 49
37.5
 49
-2.5
  0
LTYPE
  2
LONG4
 70
     0
  3
+++++++++++++++..+++++++++++++++
 72
    65
 73
     2
 40
80.0
 49
75.0
 49
-5.0
  0
LTYPE
  2
LONG5
 70
     0
  3
----------  --  ----------  --  
 72
    65
 73
     4
 40
60.0
 49
37.5
 49
-7.5
 49
7.5
 49
-7.5
  0
LTYPE
  2
DASHED
 70
     0
  3
-------   -------------   ------
 72
    65
 73
     2
 40
7.5
 49
6.0
 49
-1.5
  0
LTYPE
  2
DASHED_SPACED
 70
     0
  3
----        --------        ----
 72
    65
 73
     2
 40
12.0
 49
6.0
 49
-6.0
  0
LTYPE
  2
LONG_DASHED_DOTTED
 70
     0
  3
------------- --- --------------
 72
    65
 73
     4
 40
15.25
 49
12.0
 49
-1.5
 49
0.25
 49
-1.5
  0
LTYPE
  2
LONG_DASHED_DOUBLE-DOTTED
 70
     0
  3
----------- --- --- ------------
 72
    65
 73
     6
 40
17.0
 49
12.0
 49
-1.5
 49
0.25
 49
-1.5
 49
0.25
 49
-1.5
  0
LTYPE
  2
LONG_DASHED_TRIPLICATE-DOT
 70
     0
  3
--------- --- --- --- ----------
 72
    65
 73
     8
 40
18.75
 49
12.0
 49
-1.5
 49
0.25
 49
-1.5
 49
0.25
 49
-1.5
 49
0.25
 49
-1.5
  0
LTYPE
  2
DOTTED
 70
     0
  3
   -       -       -       -    
 72
    65
 73
     2
 40
1.75
 49
0.25
 49
-1.5
  0
LTYPE
  2
CHAIN
 70
     0
  3
-------------- -- --------------
 72
    65
 73
     4
 40
18.5
 49
12.0
 49
-1.5
 49
3.5
 49
-1.5
  0
LTYPE
  2
CHAIN_DOUBLE_DASH
 70
     0
  3
------------ -- -- -------------
 72
    65
 73
     6
 40
23.5
 49
12.0
 49
-1.5
 49
3.5
 49
-1.5
 49
3.5
 49
-1.5
  0
LTYPE
  2
DASHED_DOTTED
 70
     0
  3
-----------     -     ----------
 72
    65
 73
     4
 40
9.25
 49
6.0
 49
-1.5
 49
0.25
 49
-1.5
  0
LTYPE
  2
DOUBLE-DASHED_DOTTED
 70
     0
  3
------   -----------   -   -----
 72
    65
 73
     6
 40
16.75
 49
6.0
 49
-1.5
 49
6.0
 49
-1.5
 49
0.25
 49
-1.5
  0
LTYPE
  2
DASHED_DOUBLE-DOTTED
 70
     0
  3
---------    -    -    ---------
 72
    65
 73
     6
 40
11.0
 49
6.0
 49
-1.5
 49
0.25
 49
-1.5
 49
0.25
 49
-1.5
  0
LTYPE
  2
DOUBLE-DASHED_DOUBLE-DOTTE
 70
     0
  3
-----   ---------   -   -   ----
 72
    65
 73
     8
 40
18.5
 49
6.0
 49
-1.5
 49
6.0
 49
-1.5
 49
0.25
 49
-1.5
 49
0.25
 49
-1.5
  0
LTYPE
  2
DASHED_TRIPLICATE-DOTTED
 70
     0
  3
-------    -    -    -    ------
 72
    65
 73
     8
 40
12.75
 49
6.0
 49
-1.5
 49
0.25
 49
-1.5
 49
0.25
 49
-1.5
 49
0.25
 49
-1.5
  0
LTYPE
  2
DOUBLE-DASHED_TRIPLICATE-D
 70
     0
  3
-----  ---------  -  -  -  -----
 72
    65
 73
    10
 40
20.25
 49
6.0
 49
-1.5
 49
6.0
 49
-1.5
 49
0.25
 49
-1.5
 49
0.25
 49
-1.5
 49
0.25
 49
-1.5
  0
LTYPE
  2
UNDEFINED
 70
     0
  3
--------------------------------
 72
    65
 73
     0
 40
0.0
  0
LTYPE
  2
AI9-LTYPE1
 70
     0
  3
---------     -----     --------
 72
    65
 73
     4
 40
7.408332
 49
4.233333
 49
-1.058333
 49
1.058333
 49
-1.058333
  0
LTYPE
  2
_
 70
     0
  3
                                
 72
    65
 73
     0
 40
0.0
  0
LTYPE
  2
__19
 70
     0
  3
                                
 72
    65
 73
     0
 40
0.0
  0
LTYPE
  2
__20
 70
     0
  3
                                
 72
    65
 73
     0
 40
0.0
  0
LTYPE
  2
__21
 70
     0
  3
                                
 72
    65
 73
     0
 40
0.0
  0
LTYPE
  2
__22
 70
     0
  3
                                
 72
    65
 73
     0
 40
0.0
  0
LTYPE
  2
__23
 70
     0
  3
                                
 72
    65
 73
     0
 40
0.0
  0
LTYPE
  2
__24
 70
     0
  3
                                
 72
    65
 73
     0
 40
0.0
  0
LTYPE
  2
__25
 70
     0
  3
                                
 72
    65
 73
     0
 40
0.0
  0
LTYPE
  2
__26
 70
     0
  3
                                
 72
    65
 73
     0
 40
0.0
  0
LTYPE
  2
__27
 70
     0
  3
                                
 72
    65
 73
     0
 40
0.0
  0
LTYPE
  2
__28
 70
     0
  3
                                
 72
    65
 73
     0
 40
0.0
  0
LTYPE
  2
__29
 70
     0
  3
                                
 72
    65
 73
     0
 40
0.0
  0
LTYPE
  2
__30
 70
     0
  3
                                
 72
    65
 73
     0
 40
0.0
  0
LTYPE
  2
__31
 70
     0
  3
                                
 72
    65
 73
     0
 40
0.0
  0
LTYPE
  2
__32
 70
     0
  3
                                
 72
    65
 73
     0
 40
0.0
  0
ENDTAB
  0
TABLE
  2
LAYER
 70
     8
  0
LAYER
  2
0
 70
     0
 62
     7
  6
CONTINUOUS
  0
LAYER
  2
_0-0_0
 70
     0
 62
     7
  6
CONTINUOUS
  0
LAYER
  2
_0-1_DEFPOINTS
 70
     0
 62
     7
  6
CONTINUOUS
  0
LAYER
  2
_0-2_躯体
 70
     0
 62
     7
  6
CONTINUOUS
  0
LAYER
  2
_0-3_什器配置
 70
     0
 62
     7
  6
CONTINUOUS
  0
LAYER
  2
_0-4_レイアウ
 70
     0
 62
     7
  6
CONTINUOUS
  0
LAYER
  2
_F-0____-240
 70
     0
 62
     7
  6
CONTINUOUS
  0
LAYER
  2
ADD_LINE
 70
     0
 62
     7
  6
CONTINUOUS
  0
ENDTAB
  0
TABLE
  2
STYLE
 70
     2
  0
STYLE
  2
STANDARD
 70
     0
 40
0.0
 41
1.0
 50
0.0
 71
     0
 42
0.2
  3
txt
  4
bigfont.shx
  0
STYLE
  2
TATEGAKI
 70
     4
 40
0.0
 41
1.0
 50
0.0
 71
     0
 42
1.0
  3
txt
  4
bigfont.shx
  0
ENDTAB
  0
TABLE
  2
VIEW
 70
     0
  0
ENDTAB
  0
TABLE
  2
UCS
 70
     0
  0
ENDTAB
  0
TABLE
  2
APPID
 70
     1
  0
APPID
  2
ACAD
 70
     0
  0
ENDTAB
  0
TABLE
  2
DIMSTYLE
 70
     1
  0
DIMSTYLE
  2
STANDARD
 70
     0
  3

  4

  5

  6

  7

 40
1.0
 41
0.18
 42
0.0625
 43
0.38
 44
0.18
 45
0.0
 46
0.0
 47
0.0
 48
0.0
140
0.18
141
0.09
142
0.0
143
25.4
144
1.0
145
0.0
146
1.0
147
0.09
 71
     0
 72
     0
 73
     1
 74
     1
 75
     0
 76
     0
 77
     0
 78
     0
170
     0
171
     2
172
     0
173
     0
174
     0
175
     0
176
     0
177
     0
178
     0
  0
ENDTAB
  0
ENDSEC
  0
SECTION
  2
BLOCKS
  0
BLOCK
  8
0
  2
$MODEL_SPACE
 70
     0
 10
0.0
 20
0.0
 30
0.0
  3
$MODEL_SPACE
  1

  0
ENDBLK
  5
259
  8
0
  0
BLOCK
 67
     1
  8
0
  2
$PAPER_SPACE
 70
     0
 10
0.0
 20
0.0
 30
0.0
  3
$PAPER_SPACE
  1

  0
ENDBLK
  5
25B
 67
     1
  8
0
  0
ENDSEC
  0
SECTION
  2
ENTITIES
  0
LINE
  5
5E
  8
_F-0____-240
  6
CONTINUOUS
 62
     7
 10
93.49877858481022
 20
2041.143003849532
 30
0.0
 11
2835.164073948858
 21
2041.143003849532
 31
0.0
  0
LINE
  5
5F
  8
_F-0____-240
  6
CONTINUOUS
 62
     7
 10
2835.164073948858
 20
2041.143003849532
 30
0.0
 11
2835.164073948858
 21
102.5917849052553
 31
0.0
  0
LINE
  5
60
  8
_F-0____-240
  6
CONTINUOUS
 62
     7
 10
2835.164073948858
 20
102.5917849052553
 30
0.0
 11
93.49877858481022
 21
102.5917849052553
 31
0.0
  0
LINE
  5
61
  8
_F-0____-240
  6
CONTINUOUS
 62
     7
 10
93.49877858481022
 20
102.5917849052553
 30
0.0
 11
93.49877858481022
 21
2041.143003849532
 31
0.0
  0
LINE
  5
62
  8
_F-0____-240
  6
CONTINUOUS
 62
     7
 10
1084.559731258142
 20
272.1769084270011
 30
0.0
 11
1084.559731258142
 21
154.6313780270009
 31
0.0
  0
LINE
  5
63
  8
_F-0____-240
  6
CONTINUOUS
 62
     7
 10
1521.324437158142
 20
154.6313780270009
 30
0.0
 11
1521.324437158142
 21
272.1769084270011
 31
0.0
  0
LINE
  5
64
  8
_F-0____-240
  6
CONTINUOUS
 62
     7
 10
1755.147966558142
 20
272.1769084270011
 30
0.0
 11
1755.147966558142
 21
154.6313780270009
 31
0.0
  0
LINE
  5
65
  8
_F-0____-240
  6
CONTINUOUS
 62
     7
 10
2026.471495958142
 20
154.6313780270009
 30
0.0
 11
2026.471495958142
 21
272.1769084270011
 31
0.0
  0
LINE
  5
66
  8
_F-0____-240
  6
CONTINUOUS
 62
     7
 10
2782.561381258142
 20
272.1769084270011
 30
0.0
 11
2782.561381258142
 21
154.6313780270009
 31
0.0
  0
LINE
  5
67
  8
_F-0____-240
  6
CONTINUOUS
 62
     7
 10
2782.561381270234
 20
154.6313780270009
 30
0.0
 11
145.921909458142
 21
154.6313780270009
 31
0.0
  0
LINE
  5
68
  8
_F-0____-240
  6
CONTINUOUS
 62
     7
 10
145.921909458142
 20
154.6313780270009
 30
0.0
 11
145.921909458142
 21
272.1769084270011
 31
0.0
  0
LINE
  5
69
  8
_F-0____-240
  6
CONTINUOUS
 62
     7
 10
145.921909458142
 20
272.1769084270011
 30
0.0
 11
2782.561381270234
 21
272.1769084270011
 31
0.0
  0
TEXT
  5
6A
  8
_F-0____-240
 62
     7
 10
1568.58869177578
 20
188.1538516634677
 30
0.0
 40
34.6169860525761
  1
S=1/10
 41
1.00000000000001
  0
TEXT
  5
6B
  8
_F-0____-240
 62
     7
 10
2174.753540305009
 20
164.2905773420478
 30
0.0
 40
34.61698605257595
  1
日鉄物産マテックス株式会社
 41
1.000000000000012
  0
TEXT
  5
6C
  8
_F-0____-240
 62
     7
 10
1832.904184731472
 20
188.5765807979982
 30
0.0
 40
34.61698605257624
  1
19/04/18
 41
1.000000000000004
  0
ARC
  5
6D
  8
_0-4_レイアウ
  6
CONTINUOUS
 62
     7
 10
873.714230919777
 20
1033.765565898527
 30
0.0
 40
379.0091344311212
 50
239.2679935343572
 51
270.5744990067591
  0
LINE
  5
6E
  8
_0-1_DEFPOINTS
  6
CONTINUOUS
 62
     7
 10
1208.954050675129
 20
789.4889853966997
 30
0.0
 11
1209.371107750265
 21
788.991735782592
 31
0.0
  0
LINE
  5
6F
  8
_0-1_DEFPOINTS
  6
CONTINUOUS
 62
     7
 10
1209.371107750265
 20
788.991735782592
 30
0.0
 11
1209.836277244758
 21
788.3875369162973
 31
0.0
  0
LINE
  5
70
  8
_0-1_DEFPOINTS
  6
CONTINUOUS
 62
     7
 10
1209.836277244758
 20
788.3875369162973
 30
0.0
 11
1210.282729456107
 21
787.7779991234677
 31
0.0
  0
LINE
  5
71
  8
_0-1_DEFPOINTS
  6
CONTINUOUS
 62
     7
 10
1210.282729456107
 20
787.7779991234677
 30
0.0
 11
1210.63829575528
 21
787.2379760165393
 31
0.0
  0
LINE
  5
72
  8
_0-1_DEFPOINTS
  6
CONTINUOUS
 62
     7
 10
1210.63829575528
 20
787.2379760165393
 30
0.0
 11
1211.050013903882
 21
785.5751021626628
 31
0.0
  0
LINE
  5
73
  8
_0-1_DEFPOINTS
  6
CONTINUOUS
 62
     7
 10
1211.050013903882
 20
785.5751021626628
 30
0.0
 11
1211.293292024333
 21
784.2437383982816
 31
0.0
  0
LINE
  5
74
  8
_0-1_DEFPOINTS
  6
CONTINUOUS
 62
     7
 10
1211.293292024333
 20
784.2437383982816
 30
0.0
 11
1211.392201846447
 21
782.9123746339006
 31
0.0
  0
LINE
  5
75
  8
_0-1_DEFPOINTS
  6
CONTINUOUS
 62
     7
 10
1211.392201846447
 20
782.9123746339006
 30
0.0
 11
1211.384177936509
 21
781.244161853489
 31
0.0
  0
LINE
  5
76
  8
_0-1_DEFPOINTS
  6
CONTINUOUS
 62
     7
 10
1211.384177936509
 20
781.244161853489
 30
0.0
 11
1210.961781934838
 21
762.9259169087143
 31
0.0
  0
LINE
  5
77
  8
_0-1_DEFPOINTS
  6
CONTINUOUS
 62
     7
 10
1210.961781934838
 20
762.9259169087143
 30
0.0
 11
1210.116989931495
 21
726.3000893520995
 31
0.0
  0
LINE
  5
78
  8
_0-1_DEFPOINTS
  6
CONTINUOUS
 62
     7
 10
1210.116989931495
 20
726.3000893520995
 30
0.0
 11
1209.69726339309
 21
707.9818444073247
 31
0.0
  0
LINE
  5
79
  8
_0-1_DEFPOINTS
  6
CONTINUOUS
 62
     7
 10
1209.69726339309
 20
707.9818444073247
 30
0.0
 11
629.0737774652246
 21
707.9818444073247
 31
0.0
  0
LINE
  5
7A
  8
_0-1_DEFPOINTS
  6
CONTINUOUS
 62
     7
 10
629.0737774652246
 20
707.9818444073247
 30
0.0
 11
628.6486964801503
 21
726.3000893520995
 31
0.0
  0
LINE
  5
7B
  8
_0-1_DEFPOINTS
  6
CONTINUOUS
 62
     7
 10
628.6486964801503
 20
726.3000893520995
 30
0.0
 11
627.803904476807
 21
762.9259169087143
 31
0.0
  0
LINE
  5
7C
  8
_0-1_DEFPOINTS
  6
CONTINUOUS
 62
     7
 10
627.803904476807
 20
762.9259169087143
 30
0.0
 11
627.3814929550002
 21
781.244161853489
 31
0.0
  0
LINE
  5
7D
  8
_0-1_DEFPOINTS
  6
CONTINUOUS
 62
     7
 10
627.3814929550002
 20
781.244161853489
 30
0.0
 11
627.3814929550002
 21
783.4951867537849
 31
0.0
  0
LINE
  5
7E
  8
_0-1_DEFPOINTS
  6
CONTINUOUS
 62
     7
 10
627.3814929550002
 20
783.4951867537849
 30
0.0
 11
627.4296208944912
 21
783.6395550521223
 31
0.0
  0
LINE
  5
7F
  8
_0-1_DEFPOINTS
  6
CONTINUOUS
 62
     7
 10
627.4296208944912
 20
783.6395550521223
 30
0.0
 11
627.4777488339819
 21
783.7785689037894
 31
0.0
  0
LINE
  5
80
  8
_0-1_DEFPOINTS
  6
CONTINUOUS
 62
     7
 10
627.4777488339819
 20
783.7785689037894
 30
0.0
 11
627.5258612533376
 21
783.9175827554566
 31
0.0
  0
LINE
  5
81
  8
_0-1_DEFPOINTS
  6
CONTINUOUS
 62
     7
 10
627.5258612533376
 20
783.9175827554566
 30
0.0
 11
627.5739891928285
 21
784.0565966071235
 31
0.0
  0
LINE
  5
82
  8
_0-1_DEFPOINTS
  6
CONTINUOUS
 62
     7
 10
627.5739891928285
 20
784.0565966071235
 30
0.0
 11
627.5900214925684
 21
784.7196167861143
 31
0.0
  0
LINE
  5
83
  8
_0-1_DEFPOINTS
  6
CONTINUOUS
 62
     7
 10
627.5900214925684
 20
784.7196167861143
 30
0.0
 11
627.7290508643707
 21
785.4895551770215
 31
0.0
  0
LINE
  5
84
  8
_0-1_DEFPOINTS
  6
CONTINUOUS
 62
     7
 10
627.7290508643707
 20
785.4895551770215
 30
0.0
 11
627.9295554920014
 21
786.2434612681884
 31
0.0
  0
LINE
  5
85
  8
_0-1_DEFPOINTS
  6
CONTINUOUS
 62
     7
 10
627.9295554920014
 20
786.2434612681884
 30
0.0
 11
628.1380840295699
 21
786.8743858074283
 31
0.0
  0
LINE
  5
86
  8
_0-1_DEFPOINTS
  6
CONTINUOUS
 62
     7
 10
628.1380840295699
 20
786.8743858074283
 30
0.0
 11
628.4669091356625
 21
787.7886924966729
 31
0.0
  0
LINE
  5
87
  8
_0-1_DEFPOINTS
  6
CONTINUOUS
 62
     7
 10
628.4669091356625
 20
787.7886924966729
 30
0.0
 11
628.8839662107991
 21
788.3501178701467
 31
0.0
  0
LINE
  5
88
  8
_0-1_DEFPOINTS
  6
CONTINUOUS
 62
     7
 10
628.8839662107991
 20
788.3501178701467
 30
0.0
 11
629.2528953464449
 21
788.7297403789978
 31
0.0
  0
LINE
  5
89
  8
_0-1_DEFPOINTS
  6
CONTINUOUS
 62
     7
 10
629.2528953464449
 20
788.7297403789978
 30
0.0
 11
629.445376064138
 21
789.1147173345189
 31
0.0
  0
LINE
  5
8A
  8
_0-1_DEFPOINTS
  6
CONTINUOUS
 62
     7
 10
629.445376064138
 20
789.1147173345189
 30
0.0
 11
629.5389469597169
 21
789.1574908273396
 31
0.0
  0
LINE
  5
8B
  8
_0-1_DEFPOINTS
  6
CONTINUOUS
 62
     7
 10
629.5389469597169
 20
789.1574908273396
 30
0.0
 11
629.6325178552959
 21
789.2056032466952
 31
0.0
  0
LINE
  5
8C
  8
_0-1_DEFPOINTS
  6
CONTINUOUS
 62
     7
 10
629.6325178552959
 20
789.2056032466952
 30
0.0
 11
629.7234192876076
 21
789.2537311861861
 31
0.0
  0
LINE
  5
8D
  8
_0-1_DEFPOINTS
  6
CONTINUOUS
 62
     7
 10
629.7234192876076
 20
789.2537311861861
 30
0.0
 11
629.8169901831866
 21
789.2965046790067
 31
0.0
  0
LINE
  5
8E
  8
_0-1_DEFPOINTS
  6
CONTINUOUS
 62
     7
 10
629.8169901831866
 20
789.2965046790067
 30
0.0
 11
629.8624331392745
 21
789.3446170983624
 31
0.0
  0
LINE
  5
8F
  8
_0-1_DEFPOINTS
  6
CONTINUOUS
 62
     7
 10
629.8624331392745
 20
789.3446170983624
 30
0.0
 11
629.9105455586302
 21
789.3927450378533
 31
0.0
  0
LINE
  5
90
  8
_0-1_DEFPOINTS
  6
CONTINUOUS
 62
     7
 10
629.9105455586302
 20
789.3927450378533
 30
0.0
 11
629.958673498121
 21
789.4408729773442
 31
0.0
  0
LINE
  5
91
  8
_0-1_DEFPOINTS
  6
CONTINUOUS
 62
     7
 10
629.958673498121
 20
789.4408729773442
 30
0.0
 11
630.0041164542091
 21
789.4889853966997
 31
0.0
  0
LINE
  5
92
  8
_0-1_DEFPOINTS
  6
CONTINUOUS
 62
     7
 10
630.0041164542091
 20
789.4889853966997
 30
0.0
 11
630.1966126920374
 21
789.4889853966997
 31
0.0
  0
LINE
  5
93
  8
_0-1_DEFPOINTS
  6
CONTINUOUS
 62
     7
 10
630.1966126920374
 20
789.4889853966997
 30
0.0
 11
630.1966126920374
 21
789.6761271878577
 31
0.0
  0
LINE
  5
94
  8
_0-1_DEFPOINTS
  6
CONTINUOUS
 62
     7
 10
630.1966126920374
 20
789.6761271878577
 30
0.0
 11
630.5682112909508
 21
789.6761271878577
 31
0.0
  0
LINE
  5
95
  8
_0-1_DEFPOINTS
  6
CONTINUOUS
 62
     7
 10
630.5682112909508
 20
789.6761271878577
 30
0.0
 11
630.7099101260206
 21
789.7242551273486
 31
0.0
  0
LINE
  5
96
  8
_0-1_DEFPOINTS
  6
CONTINUOUS
 62
     7
 10
630.7099101260206
 20
789.7242551273486
 30
0.0
 11
630.851593440955
 21
789.7670286201692
 31
0.0
  0
LINE
  5
97
  8
_0-1_DEFPOINTS
  6
CONTINUOUS
 62
     7
 10
630.851593440955
 20
789.7670286201692
 30
0.0
 11
630.9906072926221
 21
789.8151410395249
 31
0.0
  0
LINE
  5
98
  8
_0-1_DEFPOINTS
  6
CONTINUOUS
 62
     7
 10
630.9906072926221
 20
789.8151410395249
 30
0.0
 11
631.1323061276923
 21
789.8632689790157
 31
0.0
  0
LINE
  5
99
  8
_0-1_DEFPOINTS
  6
CONTINUOUS
 62
     7
 10
631.1323061276923
 20
789.8632689790157
 30
0.0
 11
631.1777490837803
 21
789.9060424718364
 31
0.0
  0
LINE
  5
9A
  8
_0-1_DEFPOINTS
  6
CONTINUOUS
 62
     7
 10
631.1777490837803
 20
789.9060424718364
 30
0.0
 11
631.2258770232713
 21
789.9541704113273
 31
0.0
  0
LINE
  5
9B
  8
_0-1_DEFPOINTS
  6
CONTINUOUS
 62
     7
 10
631.2258770232713
 20
789.9541704113273
 30
0.0
 11
631.2713199793592
 21
790.0022828306828
 31
0.0
  0
LINE
  5
9C
  8
_0-1_DEFPOINTS
  6
CONTINUOUS
 62
     7
 10
631.2713199793592
 20
790.0022828306828
 30
0.0
 11
631.3167629354473
 21
790.0450563235036
 31
0.0
  0
LINE
  5
9D
  8
_0-1_DEFPOINTS
  6
CONTINUOUS
 62
     7
 10
631.3167629354473
 20
790.0450563235036
 30
0.0
 11
1207.451592939465
 21
790.0450563235036
 31
0.0
  0
LINE
  5
9E
  8
_0-1_DEFPOINTS
  6
CONTINUOUS
 62
     7
 10
1207.451592939465
 20
790.0450563235036
 30
0.0
 11
1207.497035895553
 21
790.0022828306828
 31
0.0
  0
LINE
  5
9F
  8
_0-1_DEFPOINTS
  6
CONTINUOUS
 62
     7
 10
1207.497035895553
 20
790.0022828306828
 30
0.0
 11
1207.545163835044
 21
789.9541704113273
 31
0.0
  0
LINE
  5
A0
  8
_0-1_DEFPOINTS
  6
CONTINUOUS
 62
     7
 10
1207.545163835044
 20
789.9541704113273
 30
0.0
 11
1207.5932762544
 21
789.9060424718364
 31
0.0
  0
LINE
  5
A1
  8
_0-1_DEFPOINTS
  6
CONTINUOUS
 62
     7
 10
1207.5932762544
 20
789.9060424718364
 30
0.0
 11
1207.638719210488
 21
789.8632689790157
 31
0.0
  0
LINE
  5
A2
  8
_0-1_DEFPOINTS
  6
CONTINUOUS
 62
     7
 10
1207.638719210488
 20
789.8632689790157
 30
0.0
 11
1208.202814047229
 21
789.8632689790157
 31
0.0
  0
LINE
  5
A3
  8
_0-1_DEFPOINTS
  6
CONTINUOUS
 62
     7
 10
1208.202814047229
 20
789.8632689790157
 30
0.0
 11
1208.296384942808
 21
789.8151410395249
 31
0.0
  0
LINE
  5
A4
  8
_0-1_DEFPOINTS
  6
CONTINUOUS
 62
     7
 10
1208.296384942808
 20
789.8151410395249
 30
0.0
 11
1208.389955838387
 21
789.7670286201692
 31
0.0
  0
LINE
  5
A5
  8
_0-1_DEFPOINTS
  6
CONTINUOUS
 62
     7
 10
1208.389955838387
 20
789.7670286201692
 30
0.0
 11
1208.480857270699
 21
789.7242551273486
 31
0.0
  0
LINE
  5
A6
  8
_0-1_DEFPOINTS
  6
CONTINUOUS
 62
     7
 10
1208.480857270699
 20
789.7242551273486
 30
0.0
 11
1208.667999061857
 21
789.6279992483669
 31
0.0
  0
LINE
  5
A7
  8
_0-1_DEFPOINTS
  6
CONTINUOUS
 62
     7
 10
1208.667999061857
 20
789.6279992483669
 30
0.0
 11
1208.764239420703
 21
789.5852257555463
 31
0.0
  0
LINE
  5
A8
  8
_0-1_DEFPOINTS
  6
CONTINUOUS
 62
     7
 10
1208.764239420703
 20
789.5852257555463
 30
0.0
 11
1208.86047977955
 21
789.5371133361905
 31
0.0
  0
LINE
  5
A9
  8
_0-1_DEFPOINTS
  6
CONTINUOUS
 62
     7
 10
1208.86047977955
 20
789.5371133361905
 30
0.0
 11
1208.954050675129
 21
789.4889853966997
 31
0.0
  0
LINE
  5
AA
  8
_0-1_DEFPOINTS
  6
CONTINUOUS
 62
     7
 10
1167.545491671456
 20
790.0450563235036
 30
0.0
 11
1167.545491671456
 21
790.2428914878667
 31
0.0
  0
LINE
  5
AB
  8
_0-1_DEFPOINTS
  6
CONTINUOUS
 62
     7
 10
671.4126909780174
 20
790.0450563235036
 30
0.0
 11
671.4126909780174
 21
790.2428914878667
 31
0.0
  0
LINE
  5
AC
  8
_0-1_DEFPOINTS
  6
CONTINUOUS
 62
     7
 10
631.6910465177634
 20
790.2428914878667
 30
0.0
 11
631.6910465177634
 21
790.0450563235036
 31
0.0
  0
LINE
  5
AD
  8
_0-1_DEFPOINTS
  6
CONTINUOUS
 62
     7
 10
631.6910465177634
 20
790.0450563235036
 30
0.0
 11
631.5520326660965
 21
790.0022828306828
 31
0.0
  0
LINE
  5
AE
  8
_0-1_DEFPOINTS
  6
CONTINUOUS
 62
     7
 10
631.5520326660965
 20
790.0022828306828
 30
0.0
 11
631.4130188144293
 21
789.9541704113273
 31
0.0
  0
LINE
  5
AF
  8
_0-1_DEFPOINTS
  6
CONTINUOUS
 62
     7
 10
631.4130188144293
 20
789.9541704113273
 30
0.0
 11
631.2739894426267
 21
789.9060424718364
 31
0.0
  0
LINE
  5
B0
  8
_0-1_DEFPOINTS
  6
CONTINUOUS
 62
     7
 10
631.2739894426267
 20
789.9060424718364
 30
0.0
 11
631.1323061276923
 21
789.8632689790157
 31
0.0
  0
LINE
  5
B1
  8
_0-1_DEFPOINTS
  6
CONTINUOUS
 62
     7
 10
631.1323061276923
 20
789.8632689790157
 30
0.0
 11
630.7553530821087
 21
789.8632689790157
 31
0.0
  0
LINE
  5
B2
  8
_0-1_DEFPOINTS
  6
CONTINUOUS
 62
     7
 10
630.7553530821087
 20
789.8632689790157
 30
0.0
 11
630.6617821865296
 21
789.8151410395249
 31
0.0
  0
LINE
  5
B3
  8
_0-1_DEFPOINTS
  6
CONTINUOUS
 62
     7
 10
630.6617821865296
 20
789.8151410395249
 30
0.0
 11
630.5682112909508
 21
789.7670286201692
 31
0.0
  0
LINE
  5
B4
  8
_0-1_DEFPOINTS
  6
CONTINUOUS
 62
     7
 10
630.5682112909508
 20
789.7670286201692
 30
0.0
 11
630.4746403953718
 21
789.7242551273486
 31
0.0
  0
LINE
  5
B5
  8
_0-1_DEFPOINTS
  6
CONTINUOUS
 62
     7
 10
630.4746403953718
 20
789.7242551273486
 30
0.0
 11
630.3810694997926
 21
789.6761271878577
 31
0.0
  0
LINE
  5
B6
  8
_0-1_DEFPOINTS
  6
CONTINUOUS
 62
     7
 10
630.5682112909508
 20
789.6761271878577
 30
0.0
 11
630.6163392304416
 21
789.7242551273486
 31
0.0
  0
LINE
  5
B7
  8
_0-1_DEFPOINTS
  6
CONTINUOUS
 62
     7
 10
630.6163392304416
 20
789.7242551273486
 30
0.0
 11
630.6617821865296
 21
789.7670286201692
 31
0.0
  0
LINE
  5
B8
  8
_0-1_DEFPOINTS
  6
CONTINUOUS
 62
     7
 10
630.6617821865296
 20
789.7670286201692
 30
0.0
 11
630.7072251426177
 21
789.8151410395249
 31
0.0
  0
LINE
  5
B9
  8
_0-1_DEFPOINTS
  6
CONTINUOUS
 62
     7
 10
630.7072251426177
 20
789.8151410395249
 30
0.0
 11
630.7553530821087
 21
789.8632689790157
 31
0.0
  0
LINE
  5
BA
  8
_0-1_DEFPOINTS
  6
CONTINUOUS
 62
     7
 10
631.3167629354473
 20
789.8632689790157
 30
0.0
 11
631.3167629354473
 21
790.0450563235036
 31
0.0
  0
LINE
  5
BB
  8
_0-1_DEFPOINTS
  6
CONTINUOUS
 62
     7
 10
1224.689776150248
 20
707.9818444073246
 30
0.0
 11
1300.69502918428
 21
707.9818444073246
 31
0.0
  0
LINE
  5
BC
  8
_0-1_DEFPOINTS
  6
CONTINUOUS
 62
     7
 10
2047.698648828203
 20
619.5238090728345
 30
0.0
 11
2049.174380890921
 21
618.0908505029366
 31
0.0
  0
LINE
  5
BD
  8
_0-1_DEFPOINTS
  6
CONTINUOUS
 62
     7
 10
2049.174380890921
 20
618.0908505029366
 30
0.0
 11
2051.163410387622
 21
617.3957657244658
 31
0.0
  0
LINE
  5
BE
  8
_0-1_DEFPOINTS
  6
CONTINUOUS
 62
     7
 10
2051.163410387622
 20
617.3957657244658
 30
0.0
 11
2053.478580007014
 21
617.2995253656193
 31
0.0
  0
LINE
  5
BF
  8
_0-1_DEFPOINTS
  6
CONTINUOUS
 62
     7
 10
2053.478580007014
 20
617.2995253656193
 30
0.0
 11
2109.689856033554
 21
617.2995253656193
 31
0.0
  0
LINE
  5
C0
  8
_0-1_DEFPOINTS
  6
CONTINUOUS
 62
     7
 10
2109.689856033554
 20
617.2995253656193
 30
0.0
 11
2111.678885530255
 21
617.4278458440813
 31
0.0
  0
LINE
  5
C1
  8
_0-1_DEFPOINTS
  6
CONTINUOUS
 62
     7
 10
2111.678885530255
 20
617.4278458440813
 30
0.0
 11
2113.51819228195
 21
618.2138320548637
 31
0.0
  0
LINE
  5
C2
  8
_0-1_DEFPOINTS
  6
CONTINUOUS
 62
     7
 10
2113.51819228195
 20
618.2138320548637
 30
0.0
 11
2114.945796405177
 21
619.5719214921901
 31
0.0
  0
LINE
  5
C3
  8
_0-1_DEFPOINTS
  6
CONTINUOUS
 62
     7
 10
2114.945796405177
 20
619.5719214921901
 30
0.0
 11
2115.683654676468
 21
621.4272760637596
 31
0.0
  0
LINE
  5
C4
  8
_0-1_DEFPOINTS
  6
CONTINUOUS
 62
     7
 10
2115.683654676468
 20
621.4272760637596
 30
0.0
 11
2116.293192469298
 21
623.0901499176359
 31
0.0
  0
LINE
  5
C5
  8
_0-1_DEFPOINTS
  6
CONTINUOUS
 62
     7
 10
2116.293192469298
 20
623.0901499176359
 30
0.0
 11
2117.105919873161
 21
624.3359511762405
 31
0.0
  0
LINE
  5
C6
  8
_0-1_DEFPOINTS
  6
CONTINUOUS
 62
     7
 10
2117.105919873161
 20
624.3359511762405
 30
0.0
 11
2118.239448473179
 21
625.2983858049759
 31
0.0
  0
LINE
  5
C7
  8
_0-1_DEFPOINTS
  6
CONTINUOUS
 62
     7
 10
2118.239448473179
 20
625.2983858049759
 30
0.0
 11
2119.811420894744
 21
626.1110976887035
 31
0.0
  0
LINE
  5
C8
  8
_0-1_DEFPOINTS
  6
CONTINUOUS
 62
     7
 10
2119.811420894744
 20
626.1110976887035
 30
0.0
 11
2042.432015083374
 21
626.1110976887035
 31
0.0
  0
LINE
  5
C9
  8
_0-1_DEFPOINTS
  6
CONTINUOUS
 62
     7
 10
2042.432015083374
 20
626.1110976887035
 30
0.0
 11
2006.394354093314
 21
633.9228318570373
 31
0.0
  0
LINE
  5
CA
  8
_0-1_DEFPOINTS
  6
CONTINUOUS
 62
     7
 10
2006.394354093314
 20
633.9228318570373
 30
0.0
 11
1970.837910417621
 21
650.3162230644767
 31
0.0
  0
LINE
  5
CB
  8
_0-1_DEFPOINTS
  6
CONTINUOUS
 62
     7
 10
1970.837910417621
 20
650.3162230644767
 30
0.0
 11
1940.494618100596
 21
674.2753853363959
 31
0.0
  0
LINE
  5
CC
  8
_0-1_DEFPOINTS
  6
CONTINUOUS
 62
     7
 10
1940.494618100596
 20
674.2753853363959
 30
0.0
 11
1920.080394406932
 21
704.8058194445792
 31
0.0
  0
LINE
  5
CD
  8
_0-1_DEFPOINTS
  6
CONTINUOUS
 62
     7
 10
1920.080394406932
 20
704.8058194445792
 30
0.0
 11
1919.89326813591
 21
705.1319750874045
 31
0.0
  0
LINE
  5
CE
  8
_0-1_DEFPOINTS
  6
CONTINUOUS
 62
     7
 10
1919.89326813591
 20
705.1319750874045
 30
0.0
 11
1919.706126344752
 21
705.4581307302296
 31
0.0
  0
LINE
  5
CF
  8
_0-1_DEFPOINTS
  6
CONTINUOUS
 62
     7
 10
1919.706126344752
 20
705.4581307302296
 30
0.0
 11
1919.518984553594
 21
705.789640819725
 31
0.0
  0
LINE
  5
D0
  8
_0-1_DEFPOINTS
  6
CONTINUOUS
 62
     7
 10
1919.518984553594
 20
705.789640819725
 30
0.0
 11
1919.331842762436
 21
706.1157964625501
 31
0.0
  0
LINE
  5
D1
  8
_0-1_DEFPOINTS
  6
CONTINUOUS
 62
     7
 10
1919.331842762436
 20
706.1157964625501
 30
0.0
 11
1919.053815059101
 21
706.3457117465288
 31
0.0
  0
LINE
  5
D2
  8
_0-1_DEFPOINTS
  6
CONTINUOUS
 62
     7
 10
1919.053815059101
 20
706.3457117465288
 30
0.0
 11
1918.770432909097
 21
706.5809659570424
 31
0.0
  0
LINE
  5
D3
  8
_0-1_DEFPOINTS
  6
CONTINUOUS
 62
     7
 10
1918.770432909097
 20
706.5809659570424
 30
0.0
 11
1918.487050759092
 21
706.8162356876912
 31
0.0
  0
LINE
  5
D4
  8
_0-1_DEFPOINTS
  6
CONTINUOUS
 62
     7
 10
1918.487050759092
 20
706.8162356876912
 30
0.0
 11
1918.209007535623
 21
707.0461354515346
 31
0.0
  0
LINE
  5
D5
  8
_0-1_DEFPOINTS
  6
CONTINUOUS
 62
     7
 10
1918.209007535623
 20
707.0461354515346
 30
0.0
 11
1917.877512966263
 21
707.2332772426927
 31
0.0
  0
LINE
  5
D6
  8
_0-1_DEFPOINTS
  6
CONTINUOUS
 62
     7
 10
1917.877512966263
 20
707.2332772426927
 30
0.0
 11
1917.551341803302
 21
707.425773480521
 31
0.0
  0
LINE
  5
D7
  8
_0-1_DEFPOINTS
  6
CONTINUOUS
 62
     7
 10
1917.551341803302
 20
707.425773480521
 30
0.0
 11
1917.225186160477
 21
707.6128997515436
 31
0.0
  0
LINE
  5
D8
  8
_0-1_DEFPOINTS
  6
CONTINUOUS
 62
     7
 10
1917.225186160477
 20
707.6128997515436
 30
0.0
 11
1916.893691591117
 21
707.8000415427016
 31
0.0
  0
LINE
  5
D9
  8
_0-1_DEFPOINTS
  6
CONTINUOUS
 62
     7
 10
1916.893691591117
 20
707.8000415427016
 30
0.0
 11
1916.519408008801
 21
707.8428150355222
 31
0.0
  0
LINE
  5
DA
  8
_0-1_DEFPOINTS
  6
CONTINUOUS
 62
     7
 10
1916.519408008801
 20
707.8428150355222
 30
0.0
 11
1916.145124426485
 21
707.8909429750132
 31
0.0
  0
LINE
  5
DB
  8
_0-1_DEFPOINTS
  6
CONTINUOUS
 62
     7
 10
1916.145124426485
 20
707.8909429750132
 30
0.0
 11
1915.770856364304
 21
707.9390709145041
 31
0.0
  0
LINE
  5
DC
  8
_0-1_DEFPOINTS
  6
CONTINUOUS
 62
     7
 10
1915.770856364304
 20
707.9390709145041
 30
0.0
 11
1915.396572781988
 21
707.9818444073247
 31
0.0
  0
LINE
  5
DD
  8
_0-1_DEFPOINTS
  6
CONTINUOUS
 62
     7
 10
1903.221833705001
 20
707.9818444073247
 30
0.0
 11
1903.221833705001
 21
709.4843021429883
 31
0.0
  0
LINE
  5
DE
  8
_0-1_DEFPOINTS
  6
CONTINUOUS
 62
     7
 10
1903.221833705001
 20
709.4843021429883
 30
0.0
 11
1901.719375969337
 21
709.4843021429883
 31
0.0
  0
LINE
  5
DF
  8
_0-1_DEFPOINTS
  6
CONTINUOUS
 62
     7
 10
1901.719375969337
 20
709.4843021429883
 30
0.0
 11
1901.248852028174
 21
727.4229245789122
 31
0.0
  0
LINE
  5
E0
  8
_0-1_DEFPOINTS
  6
CONTINUOUS
 62
     7
 10
1901.248852028174
 20
727.4229245789122
 30
0.0
 11
1900.783682533682
 21
745.3669014615061
 31
0.0
  0
LINE
  5
E1
  8
_0-1_DEFPOINTS
  6
CONTINUOUS
 62
     7
 10
1900.783682533682
 20
745.3669014615061
 30
0.0
 11
1900.318497519055
 21
763.3108783441003
 31
0.0
  0
LINE
  5
E2
  8
_0-1_DEFPOINTS
  6
CONTINUOUS
 62
     7
 10
1900.318497519055
 20
763.3108783441003
 30
0.0
 11
1899.847973577892
 21
781.2495163001595
 31
0.0
  0
LINE
  5
E3
  8
_0-1_DEFPOINTS
  6
CONTINUOUS
 62
     7
 10
1899.847973577892
 20
781.2495163001595
 30
0.0
 11
1899.847973577892
 21
782.7466351092881
 31
0.0
  0
LINE
  5
E4
  8
_0-1_DEFPOINTS
  6
CONTINUOUS
 62
     7
 10
1899.847973577892
 20
782.7466351092881
 30
0.0
 11
1899.896101517383
 21
783.0727907521133
 31
0.0
  0
LINE
  5
E5
  8
_0-1_DEFPOINTS
  6
CONTINUOUS
 62
     7
 10
1899.896101517383
 20
783.0727907521133
 30
0.0
 11
1899.944229456874
 21
783.4042853214735
 31
0.0
  0
LINE
  5
E6
  8
_0-1_DEFPOINTS
  6
CONTINUOUS
 62
     7
 10
1899.944229456874
 20
783.4042853214735
 30
0.0
 11
1899.987002949695
 21
783.7304409642985
 31
0.0
  0
LINE
  5
E7
  8
_0-1_DEFPOINTS
  6
CONTINUOUS
 62
     7
 10
1899.987002949695
 20
783.7304409642985
 30
0.0
 11
1900.03511536905
 21
784.0565966071235
 31
0.0
  0
LINE
  5
E8
  8
_0-1_DEFPOINTS
  6
CONTINUOUS
 62
     7
 10
1900.03511536905
 20
784.0565966071235
 30
0.0
 11
1900.783682533682
 21
787.2433149430742
 31
0.0
  0
LINE
  5
E9
  8
_0-1_DEFPOINTS
  6
CONTINUOUS
 62
     7
 10
1900.783682533682
 20
787.2433149430742
 30
0.0
 11
1900.928035311884
 21
787.5748250325695
 31
0.0
  0
LINE
  5
EA
  8
_0-1_DEFPOINTS
  6
CONTINUOUS
 62
     7
 10
1900.928035311884
 20
787.5748250325695
 30
0.0
 11
1901.067064683687
 21
787.9009806753947
 31
0.0
  0
LINE
  5
EB
  8
_0-1_DEFPOINTS
  6
CONTINUOUS
 62
     7
 10
1901.067064683687
 20
787.9009806753947
 30
0.0
 11
1901.206078535354
 21
788.2271363182199
 31
0.0
  0
LINE
  5
EC
  8
_0-1_DEFPOINTS
  6
CONTINUOUS
 62
     7
 10
1901.206078535354
 20
788.2271363182199
 30
0.0
 11
1901.345092387021
 21
788.5586464077152
 31
0.0
  0
LINE
  5
ED
  8
_0-1_DEFPOINTS
  6
CONTINUOUS
 62
     7
 10
1901.345092387021
 20
788.5586464077152
 30
0.0
 11
1901.62313561049
 21
788.7939006182287
 31
0.0
  0
LINE
  5
EE
  8
_0-1_DEFPOINTS
  6
CONTINUOUS
 62
     7
 10
1901.62313561049
 20
788.7939006182287
 30
0.0
 11
1902.189899910499
 21
789.2537311861861
 31
0.0
  0
LINE
  5
EF
  8
_0-1_DEFPOINTS
  6
CONTINUOUS
 62
     7
 10
1902.189899910499
 20
789.2537311861861
 30
0.0
 11
1902.467927613834
 21
789.4889853966997
 31
0.0
  0
LINE
  5
F0
  8
_0-1_DEFPOINTS
  6
CONTINUOUS
 62
     7
 10
1902.467927613834
 20
789.4889853966997
 30
0.0
 11
1902.606941465501
 21
789.5798868290113
 31
0.0
  0
LINE
  5
F1
  8
_0-1_DEFPOINTS
  6
CONTINUOUS
 62
     7
 10
1902.606941465501
 20
789.5798868290113
 30
0.0
 11
1902.745970837303
 21
789.6707727411875
 31
0.0
  0
LINE
  5
F2
  8
_0-1_DEFPOINTS
  6
CONTINUOUS
 62
     7
 10
1902.745970837303
 20
789.6707727411875
 30
0.0
 11
1902.88498468897
 21
789.7670286201692
 31
0.0
  0
LINE
  5
F3
  8
_0-1_DEFPOINTS
  6
CONTINUOUS
 62
     7
 10
1902.88498468897
 20
789.7670286201692
 30
0.0
 11
1903.029352987308
 21
789.8579145323456
 31
0.0
  0
LINE
  5
F4
  8
_0-1_DEFPOINTS
  6
CONTINUOUS
 62
     7
 10
1903.029352987308
 20
789.8579145323456
 30
0.0
 11
1903.783243558339
 21
789.8579145323456
 31
0.0
  0
LINE
  5
F5
  8
_0-1_DEFPOINTS
  6
CONTINUOUS
 62
     7
 10
1903.783243558339
 20
789.8579145323456
 30
0.0
 11
1903.83137149783
 21
789.9060424718364
 31
0.0
  0
LINE
  5
F6
  8
_0-1_DEFPOINTS
  6
CONTINUOUS
 62
     7
 10
1903.83137149783
 20
789.9060424718364
 30
0.0
 11
1903.879499437321
 21
789.948815964657
 31
0.0
  0
LINE
  5
F7
  8
_0-1_DEFPOINTS
  6
CONTINUOUS
 62
     7
 10
1903.879499437321
 20
789.948815964657
 30
0.0
 11
1903.922272930142
 21
789.9969439041479
 31
0.0
  0
LINE
  5
F8
  8
_0-1_DEFPOINTS
  6
CONTINUOUS
 62
     7
 10
1903.922272930142
 20
789.9969439041479
 30
0.0
 11
1903.970385349497
 21
790.0450563235036
 31
0.0
  0
LINE
  5
F9
  8
_0-1_DEFPOINTS
  6
CONTINUOUS
 62
     7
 10
1903.970385349497
 20
790.0450563235036
 30
0.0
 11
2349.703921314823
 21
790.0450563235036
 31
0.0
  0
LINE
  5
FA
  8
_0-1_DEFPOINTS
  6
CONTINUOUS
 62
     7
 10
2349.703921314823
 20
790.0450563235036
 30
0.0
 11
2353.526918636684
 21
789.3446170983624
 31
0.0
  0
LINE
  5
FB
  8
_0-1_DEFPOINTS
  6
CONTINUOUS
 62
     7
 10
2353.526918636684
 20
789.3446170983624
 30
0.0
 11
2356.606687720447
 21
787.6496786450057
 31
0.0
  0
LINE
  5
FC
  8
_0-1_DEFPOINTS
  6
CONTINUOUS
 62
     7
 10
2356.606687720447
 20
787.6496786450057
 30
0.0
 11
2358.809584681252
 21
784.954870996628
 31
0.0
  0
LINE
  5
FD
  8
_0-1_DEFPOINTS
  6
CONTINUOUS
 62
     7
 10
2358.809584681252
 20
784.954870996628
 30
0.0
 11
2360.001934593966
 21
781.2495163001595
 31
0.0
  0
LINE
  5
FE
  8
_0-1_DEFPOINTS
  6
CONTINUOUS
 62
     7
 10
2360.001934593966
 20
781.2495163001595
 30
0.0
 11
2359.579523072159
 21
763.3108783441003
 31
0.0
  0
LINE
  5
FF
  8
_0-1_DEFPOINTS
  6
CONTINUOUS
 62
     7
 10
2359.579523072159
 20
763.3108783441003
 30
0.0
 11
2359.162481517158
 21
745.3669014615061
 31
0.0
  0
LINE
  5
100
  8
_0-1_DEFPOINTS
  6
CONTINUOUS
 62
     7
 10
2359.162481517158
 20
745.3669014615061
 30
0.0
 11
2358.740069995351
 21
727.4229245789122
 31
0.0
  0
LINE
  5
101
  8
_0-1_DEFPOINTS
  6
CONTINUOUS
 62
     7
 10
2358.740069995351
 20
727.4229245789122
 30
0.0
 11
2358.317673993679
 21
709.4843021429883
 31
0.0
  0
LINE
  5
102
  8
_0-1_DEFPOINTS
  6
CONTINUOUS
 62
     7
 10
2358.317673993679
 20
709.4843021429883
 30
0.0
 11
2356.82055518455
 21
709.4843021429883
 31
0.0
  0
LINE
  5
103
  8
_0-1_DEFPOINTS
  6
CONTINUOUS
 62
     7
 10
2356.82055518455
 20
709.4843021429883
 30
0.0
 11
2356.82055518455
 21
707.9818444073247
 31
0.0
  0
LINE
  5
104
  8
_0-1_DEFPOINTS
  6
CONTINUOUS
 62
     7
 10
2356.82055518455
 20
707.9818444073247
 30
0.0
 11
1903.221833705001
 21
707.9818444073247
 31
0.0
  0
LINE
  5
105
  8
_0-1_DEFPOINTS
  6
CONTINUOUS
 62
     7
 10
1955.118217242242
 20
707.8000415427016
 30
0.0
 11
1972.671862722645
 21
690.9200940943596
 31
0.0
  0
LINE
  5
106
  8
_0-1_DEFPOINTS
  6
CONTINUOUS
 62
     7
 10
1972.671862722645
 20
690.9200940943596
 30
0.0
 11
1992.599530175406
 21
679.2372501848095
 31
0.0
  0
LINE
  5
107
  8
_0-1_DEFPOINTS
  6
CONTINUOUS
 62
     7
 10
1992.599530175406
 20
679.2372501848095
 30
0.0
 11
2014.676596682675
 21
671.9013944043083
 31
0.0
  0
LINE
  5
108
  8
_0-1_DEFPOINTS
  6
CONTINUOUS
 62
     7
 10
2014.676596682675
 20
671.9013944043083
 30
0.0
 11
2038.67854796755
 21
668.0730581559128
 31
0.0
  0
LINE
  5
109
  8
_0-1_DEFPOINTS
  6
CONTINUOUS
 62
     7
 10
2038.67854796755
 20
668.0730581559128
 30
0.0
 11
2051.264989673004
 21
667.4421336166728
 31
0.0
  0
LINE
  5
10A
  8
_0-1_DEFPOINTS
  6
CONTINUOUS
 62
     7
 10
2051.264989673004
 20
667.4421336166728
 30
0.0
 11
2064.182941467953
 21
667.4314402434677
 31
0.0
  0
LINE
  5
10B
  8
_0-1_DEFPOINTS
  6
CONTINUOUS
 62
     7
 10
2064.182941467953
 20
667.4314402434677
 30
0.0
 11
2077.138327829189
 21
667.6025497348855
 31
0.0
  0
LINE
  5
10C
  8
_0-1_DEFPOINTS
  6
CONTINUOUS
 62
     7
 10
2077.138327829189
 20
667.6025497348855
 30
0.0
 11
2089.83171878683
 21
667.511648302574
 31
0.0
  0
LINE
  5
10D
  8
_0-1_DEFPOINTS
  6
CONTINUOUS
 62
     7
 10
2089.83171878683
 20
667.511648302574
 30
0.0
 11
2117.934679576764
 21
667.511648302574
 31
0.0
  0
LINE
  5
10E
  8
_0-1_DEFPOINTS
  6
CONTINUOUS
 62
     7
 10
2117.934679576764
 20
667.511648302574
 30
0.0
 11
2118.30896315908
 21
667.5597607219297
 31
0.0
  0
LINE
  5
10F
  8
_0-1_DEFPOINTS
  6
CONTINUOUS
 62
     7
 10
2118.30896315908
 20
667.5597607219297
 30
0.0
 11
2118.683231221261
 21
667.6132431080907
 31
0.0
  0
LINE
  5
110
  8
_0-1_DEFPOINTS
  6
CONTINUOUS
 62
     7
 10
2118.683231221261
 20
667.6132431080907
 30
0.0
 11
2119.057514803577
 21
667.6613555274463
 31
0.0
  0
LINE
  5
111
  8
_0-1_DEFPOINTS
  6
CONTINUOUS
 62
     7
 10
2119.057514803577
 20
667.6613555274463
 30
0.0
 11
2119.431798385893
 21
667.7094834669372
 31
0.0
  0
LINE
  5
112
  8
_0-1_DEFPOINTS
  6
CONTINUOUS
 62
     7
 10
2119.431798385893
 20
667.7094834669372
 30
0.0
 11
2121.121397912715
 21
667.7094834669372
 31
0.0
  0
LINE
  5
113
  8
_0-1_DEFPOINTS
  6
CONTINUOUS
 62
     7
 10
2121.121397912715
 20
667.7094834669372
 30
0.0
 11
2121.212283824892
 21
667.7522569597579
 31
0.0
  0
LINE
  5
114
  8
_0-1_DEFPOINTS
  6
CONTINUOUS
 62
     7
 10
2121.212283824892
 20
667.7522569597579
 30
0.0
 11
2121.303185257203
 21
667.8003693791135
 31
0.0
  0
LINE
  5
115
  8
_0-1_DEFPOINTS
  6
CONTINUOUS
 62
     7
 10
2121.303185257203
 20
667.8003693791135
 30
0.0
 11
2121.399425616049
 21
667.8484973186044
 31
0.0
  0
LINE
  5
116
  8
_0-1_DEFPOINTS
  6
CONTINUOUS
 62
     7
 10
2121.399425616049
 20
667.8484973186044
 30
0.0
 11
2121.490327048361
 21
667.891270811425
 31
0.0
  0
LINE
  5
117
  8
_0-1_DEFPOINTS
  6
CONTINUOUS
 62
     7
 10
2121.490327048361
 20
667.891270811425
 30
0.0
 11
2122.244233139528
 21
667.891270811425
 31
0.0
  0
LINE
  5
118
  8
_0-1_DEFPOINTS
  6
CONTINUOUS
 62
     7
 10
2122.244233139528
 20
667.891270811425
 30
0.0
 11
2149.208310882774
 21
671.4094837167356
 31
0.0
  0
LINE
  5
119
  8
_0-1_DEFPOINTS
  6
CONTINUOUS
 62
     7
 10
2149.208310882774
 20
671.4094837167356
 30
0.0
 11
2174.744800022929
 21
678.6490991383903
 31
0.0
  0
LINE
  5
11A
  8
_0-1_DEFPOINTS
  6
CONTINUOUS
 62
     7
 10
2174.744800022929
 20
678.6490991383903
 30
0.0
 11
2198.340372085737
 21
690.4335223333217
 31
0.0
  0
LINE
  5
11B
  8
_0-1_DEFPOINTS
  6
CONTINUOUS
 62
     7
 10
2198.340372085737
 20
690.4335223333217
 30
0.0
 11
2219.481760677487
 21
707.6128997515436
 31
0.0
  0
LINE
  5
11C
  8
_0-1_DEFPOINTS
  6
CONTINUOUS
 62
     7
 10
2234.474288954779
 20
707.9818444073247
 30
0.0
 11
2211.065843162994
 21
680.7343689939382
 31
0.0
  0
LINE
  5
11D
  8
_0-1_DEFPOINTS
  6
CONTINUOUS
 62
     7
 10
2211.065843162994
 20
680.7343689939382
 30
0.0
 11
2183.919962555124
 21
657.4221635609991
 31
0.0
  0
LINE
  5
11E
  8
_0-1_DEFPOINTS
  6
CONTINUOUS
 62
     7
 10
2183.919962555124
 20
657.4221635609991
 30
0.0
 11
2153.384189520405
 21
638.9221157516013
 31
0.0
  0
LINE
  5
11F
  8
_0-1_DEFPOINTS
  6
CONTINUOUS
 62
     7
 10
2153.384189520405
 20
638.9221157516013
 30
0.0
 11
2119.811420894744
 21
626.1110976887035
 31
0.0
  0
LINE
  5
120
  8
_0-1_DEFPOINTS
  6
CONTINUOUS
 62
     7
 10
2045.35673801573
 20
624.7476538047069
 30
0.0
 11
2046.383332883697
 21
623.3254041281497
 31
0.0
  0
LINE
  5
121
  8
_0-1_DEFPOINTS
  6
CONTINUOUS
 62
     7
 10
2046.383332883697
 20
623.3254041281497
 30
0.0
 11
2046.92337151076
 21
621.8068985726104
 31
0.0
  0
LINE
  5
122
  8
_0-1_DEFPOINTS
  6
CONTINUOUS
 62
     7
 10
2046.92337151076
 20
621.8068985726104
 30
0.0
 11
2047.698648828203
 21
619.5238090728345
 31
0.0
  0
LINE
  5
123
  8
_0-1_DEFPOINTS
  6
CONTINUOUS
 62
     7
 10
2045.35673801573
 20
624.7476538047069
 30
0.0
 11
2043.993294131734
 21
625.7742486726733
 31
0.0
  0
LINE
  5
124
  8
_0-1_DEFPOINTS
  6
CONTINUOUS
 62
     7
 10
2043.993294131734
 20
625.7742486726733
 30
0.0
 11
2042.432015083374
 21
626.1110976887035
 31
0.0
  0
LINE
  5
125
  8
_0-0_0
  6
CONTINUOUS
 62
     7
 10
1257.59390381667
 20
790.2375525613318
 30
0.0
 11
1375.676692487694
 21
790.2375525613318
 31
0.0
  0
LINE
  5
126
  8
_0-0_0
  6
CONTINUOUS
 62
     7
 10
1375.676692487694
 20
790.2375525613318
 30
0.0
 11
1375.676692487694
 21
617.2620907993335
 31
0.0
  0
LINE
  5
127
  8
_0-0_0
  6
CONTINUOUS
 62
     7
 10
1375.676692487694
 20
617.2620907993335
 30
0.0
 11
1373.940210711024
 21
627.1101683294556
 31
0.0
  0
LINE
  5
128
  8
_0-0_0
  6
CONTINUOUS
 62
     7
 10
1377.413174264363
 20
627.1101683294556
 30
0.0
 11
1375.676692487694
 21
617.2620907993335
 31
0.0
  0
LINE
  5
129
  8
_0-0_0
  6
CONTINUOUS
 62
     7
 10
1375.676692487694
 20
617.2620907993335
 30
0.0
 11
1308.719539256031
 21
617.2620907993335
 31
0.0
  0
LINE
  5
12A
  8
_0-0_0
  6
CONTINUOUS
 62
     7
 10
1308.719539256031
 20
707.9818444073246
 30
0.0
 11
1308.719539256031
 21
790.2375525613318
 31
0.0
  0
LINE
  5
12B
  8
_0-0_0
  6
CONTINUOUS
 62
     7
 10
1308.719539256031
 20
790.2375525613318
 30
0.0
 11
1310.4560210327
 21
780.3894750312095
 31
0.0
  0
LINE
  5
12C
  8
_0-0_0
  6
CONTINUOUS
 62
     7
 10
1306.983057479361
 20
780.3894750312095
 30
0.0
 11
1308.719539256031
 21
790.2375525613318
 31
0.0
  0
LINE
  5
12D
  8
_0-0_0
  6
CONTINUOUS
 62
     7
 10
1375.676692487694
 20
790.2375525613318
 30
0.0
 11
1377.413174264363
 21
780.3894750312095
 31
0.0
  0
LINE
  5
12E
  8
_0-0_0
  6
CONTINUOUS
 62
     7
 10
1373.940210711024
 20
780.3894750312095
 30
0.0
 11
1375.676692487694
 21
790.2375525613318
 31
0.0
  0
LINE
  5
12F
  8
_0-0_0
  6
CONTINUOUS
 62
     7
 10
1310.4560210327
 20
717.8299219374467
 30
0.0
 11
1308.719539256031
 21
707.9818444073246
 31
0.0
  0
LINE
  5
130
  8
_0-0_0
  6
CONTINUOUS
 62
     7
 10
1308.719539256031
 20
707.9818444073246
 30
0.0
 11
1306.983057479361
 21
717.8299219374467
 31
0.0
  0
LINE
  5
131
  8
_0-0_0
  6
CONTINUOUS
 62
     7
 10
1308.719539256031
 20
707.9818444073246
 30
0.0
 11
1257.59390381667
 21
707.9818444073246
 31
0.0
  0
TEXT
  5
132
  8
_0-0_0
 62
     7
 10
1303.719539256031
 20
732.8596984843282
 30
0.0
 40
30.0
  1
82
 50
90.0
  0
TEXT
  5
133
  8
_0-0_0
 62
     7
 10
1370.676692487694
 20
678.7498216803326
 30
0.0
 40
30.0
  1
173
 50
90.0
  0
ARC
  5
134
  8
_0-4_レイアウ
  6
CONTINUOUS
 62
     7
 10
877.0142415818754
 20
649.2376412864679
 30
0.0
 40
5.560387790356578
 50
2.961290398023448
 51
84.83869855790388
  0
ARC
  5
135
  8
_0-4_レイアウ
  6
CONTINUOUS
 62
     7
 10
890.1681026783663
 20
622.4850016944948
 30
0.0
 40
5.186531734959352
 50
185.4910463236875
 51
268.8441106244235
  0
LINE
  5
136
  8
_0-4_レイアウ
  6
CONTINUOUS
 62
     7
 10
890.0634762934959
 20
617.2995253656193
 30
0.0
 11
918.356248337856
 21
617.2995253656193
 31
0.0
  0
LINE
  5
137
  8
_0-4_レイアウ
  6
CONTINUOUS
 62
     7
 10
882.567204394782
 20
649.5248979271589
 30
0.0
 11
885.0053710862358
 21
621.9887014372335
 31
0.0
  0
ARC
  5
138
  8
_0-4_レイアウ
  6
CONTINUOUS
 62
     7
 10
862.1754827266528
 20
699.0055322733278
 30
0.0
 40
11.10025970597037
 50
6.716513764336651
 51
53.96500612031574
  0
LINE
  5
139
  8
_0-4_レイアウ
  6
CONTINUOUS
 62
     7
 10
873.199561144894
 20
700.3037851641227
 30
0.0
 11
882.6006305792856
 21
651.4462823486554
 31
0.0
  0
LINE
  5
13A
  8
_0-4_レイアウ
  6
CONTINUOUS
 62
     7
 10
882.6006305792856
 20
651.4462823486554
 30
0.0
 11
887.4666416588178
 21
635.4273516599851
 31
0.0
  0
LINE
  5
13B
  8
_0-4_レイアウ
  6
CONTINUOUS
 62
     7
 10
887.4666416588178
 20
635.4273516599851
 30
0.0
 11
890.6275711302374
 21
629.2978160246541
 31
0.0
  0
ARC
  5
13C
  8
_0-4_レイアウ
  6
CONTINUOUS
 62
     7
 10
897.7491285433669
 20
632.8615510111022
 30
0.0
 40
7.963465768252852
 50
206.5840755812742
 51
254.9824532732585
  0
LINE
  5
13D
  8
_0-4_レイアウ
  6
CONTINUOUS
 62
     7
 10
895.3529768787716
 20
625.2671290948275
 30
0.0
 11
899.8054031257
 21
624.555173087014
 31
0.0
  0
LINE
  5
13E
  8
_0-4_レイアウ
  6
CONTINUOUS
 62
     7
 10
899.8054031257
 20
624.555173087014
 30
0.0
 11
918.356248337856
 21
625.1571655043334
 31
0.0
  0
ARC
  5
13F
  8
_0-4_レイアウ
  6
CONTINUOUS
 62
     7
 10
962.998265755935
 20
1033.765565898527
 30
0.0
 40
379.0091344311212
 50
269.4255009932408
 51
300.7320064656428
  0
ARC
  5
140
  8
_0-4_レイアウ
  6
CONTINUOUS
 62
     7
 10
959.6982550938367
 20
649.2376412864679
 30
0.0
 40
5.560387790356578
 50
95.1613014420961
 51
177.0387096019766
  0
ARC
  5
141
  8
_0-4_レイアウ
  6
CONTINUOUS
 62
     7
 10
946.5443939973457
 20
622.4850016944948
 30
0.0
 40
5.186531734959352
 50
271.1558893755764
 51
354.5089536763124
  0
LINE
  5
142
  8
_0-4_レイアウ
  6
CONTINUOUS
 62
     7
 10
946.6490203822161
 20
617.2995253656193
 30
0.0
 11
918.356248337856
 21
617.2995253656193
 31
0.0
  0
LINE
  5
143
  8
_0-4_レイアウ
  6
CONTINUOUS
 62
     7
 10
954.14529228093
 20
649.5248979271589
 30
0.0
 11
951.7071255894763
 21
621.9887014372335
 31
0.0
  0
ARC
  5
144
  8
_0-4_レイアウ
  6
CONTINUOUS
 62
     7
 10
974.5370139490592
 20
699.0055322733278
 30
0.0
 40
11.10025970597037
 50
126.0349938796843
 51
173.2834862356634
  0
LINE
  5
145
  8
_0-4_レイアウ
  6
CONTINUOUS
 62
     7
 10
963.512935530818
 20
700.3037851641227
 30
0.0
 11
954.1118660964264
 21
651.4462823486554
 31
0.0
  0
LINE
  5
146
  8
_0-4_レイアウ
  6
CONTINUOUS
 62
     7
 10
954.1118660964264
 20
651.4462823486554
 30
0.0
 11
949.2458550168942
 21
635.4273516599851
 31
0.0
  0
LINE
  5
147
  8
_0-4_レイアウ
  6
CONTINUOUS
 62
     7
 10
949.2458550168942
 20
635.4273516599851
 30
0.0
 11
946.0849255454747
 21
629.2978160246541
 31
0.0
  0
ARC
  5
148
  8
_0-4_レイアウ
  6
CONTINUOUS
 62
     7
 10
938.9633681323451
 20
632.8615510111022
 30
0.0
 40
7.963465768252852
 50
285.0175467267416
 51
333.4159244187257
  0
LINE
  5
149
  8
_0-4_レイアウ
  6
CONTINUOUS
 62
     7
 10
941.3595197969404
 20
625.2671290948275
 30
0.0
 11
936.9070935500121
 21
624.555173087014
 31
0.0
  0
LINE
  5
14A
  8
_0-4_レイアウ
  6
CONTINUOUS
 62
     7
 10
936.9070935500121
 20
624.555173087014
 30
0.0
 11
918.356248337856
 21
625.1571655043334
 31
0.0
  0
LINE
  5
14B
  8
_0-0_0
  6
CONTINUOUS
 62
     7
 10
2358.527236590492
 20
790.2375525613318
 30
0.0
 11
2476.610025261516
 21
790.2375525613318
 31
0.0
  0
LINE
  5
14C
  8
_0-0_0
  6
CONTINUOUS
 62
     7
 10
2476.610025261516
 20
790.2375525613318
 30
0.0
 11
2476.610025261516
 21
617.2620907993335
 31
0.0
  0
LINE
  5
14D
  8
_0-0_0
  6
CONTINUOUS
 62
     7
 10
2476.610025261516
 20
617.2620907993335
 30
0.0
 11
2474.873543484847
 21
627.1101683294556
 31
0.0
  0
LINE
  5
14E
  8
_0-0_0
  6
CONTINUOUS
 62
     7
 10
2478.346507038185
 20
627.1101683294556
 30
0.0
 11
2476.610025261516
 21
617.2620907993335
 31
0.0
  0
LINE
  5
14F
  8
_0-0_0
  6
CONTINUOUS
 62
     7
 10
2409.652872029853
 20
707.9818444073246
 30
0.0
 11
2409.652872029853
 21
790.2375525613318
 31
0.0
  0
LINE
  5
150
  8
_0-0_0
  6
CONTINUOUS
 62
     7
 10
2409.652872029853
 20
790.2375525613318
 30
0.0
 11
2411.389353806522
 21
780.3894750312095
 31
0.0
  0
LINE
  5
151
  8
_0-0_0
  6
CONTINUOUS
 62
     7
 10
2407.916390253184
 20
780.3894750312095
 30
0.0
 11
2409.652872029853
 21
790.2375525613318
 31
0.0
  0
LINE
  5
152
  8
_0-0_0
  6
CONTINUOUS
 62
     7
 10
2476.610025261516
 20
790.2375525613318
 30
0.0
 11
2478.346507038185
 21
780.3894750312095
 31
0.0
  0
LINE
  5
153
  8
_0-0_0
  6
CONTINUOUS
 62
     7
 10
2474.873543484847
 20
780.3894750312095
 30
0.0
 11
2476.610025261516
 21
790.2375525613318
 31
0.0
  0
LINE
  5
154
  8
_0-0_0
  6
CONTINUOUS
 62
     7
 10
2411.389353806522
 20
717.8299219374467
 30
0.0
 11
2409.652872029853
 21
707.9818444073246
 31
0.0
  0
LINE
  5
155
  8
_0-0_0
  6
CONTINUOUS
 62
     7
 10
2409.652872029853
 20
707.9818444073246
 30
0.0
 11
2407.916390253184
 21
717.8299219374467
 31
0.0
  0
LINE
  5
156
  8
_0-0_0
  6
CONTINUOUS
 62
     7
 10
2409.652872029853
 20
707.9818444073246
 30
0.0
 11
2358.527236590492
 21
707.9818444073246
 31
0.0
  0
TEXT
  5
157
  8
_0-0_0
 62
     7
 10
2404.652872029853
 20
732.8596984843282
 30
0.0
 40
30.0
  1
82
 50
90.0
  0
TEXT
  5
158
  8
_0-0_0
 62
     7
 10
2471.610025261516
 20
678.7498216803326
 30
0.0
 40
30.0
  1
173
 50
90.0
  0
LINE
  5
159
  8
_0-1_DEFPOINTS
  6
CONTINUOUS
 62
     7
 10
1387.35616880497
 20
790.2375525613318
 30
0.0
 11
1224.689776150248
 21
790.2375525613318
 31
0.0
  0
LINE
  5
15A
  8
_0-1_DEFPOINTS
  6
CONTINUOUS
 62
     7
 10
1387.35616880497
 20
617.2620907993335
 30
0.0
 11
969.2206825604612
 21
617.2620907993335
 31
0.0
  0
LINE
  5
15B
  8
_0-0_0
  6
CONTINUOUS
 62
     7
 10
2476.610025261516
 20
617.2620907993335
 30
0.0
 11
2134.619240700395
 21
617.2620907993335
 31
0.0
  0
LINE
  5
15C
  8
_0-1_DEFPOINTS
  6
CENTER1
 62
     7
 10
918.356248337856
 20
815.4318382387853
 30
0.0
 11
918.356248337856
 21
439.0996724320001
 31
0.0
  0
LINE
  5
15D
  8
_0-2_躯体
  6
CONTINUOUS
 62
     7
 10
956.3348108851271
 20
1501.155126599317
 30
0.0
 11
882.5244309019614
 21
1501.155126599317
 31
0.0
  0
LINE
  5
15E
  8
_0-2_躯体
  6
CONTINUOUS
 62
     7
 10
919.4764141014014
 20
1537.310430214769
 30
0.0
 11
919.4764141014014
 21
1464.433058683856
 31
0.0
  0
CIRCLE
  5
15F
  8
_0-2_躯体
  6
CONTINUOUS
 62
     7
 10
919.4764141014014
 20
1501.155126599317
 30
0.0
 40
36.15528809531732
  0
CIRCLE
  5
160
  8
_0-2_躯体
  6
CONTINUOUS
 62
     7
 10
919.4764141014014
 20
1501.155126599317
 30
0.0
 40
27.91581899877691
  0
CIRCLE
  5
161
  8
_0-2_躯体
  6
CONTINUOUS
 62
     7
 10
919.4764141014014
 20
1501.155126599317
 30
0.0
 40
23.36762059670527
  0
LINE
  5
162
  8
_0-1_DEFPOINTS
  6
CONTINUOUS
 62
     7
 10
1188.620035040572
 20
1324.47431014085
 30
0.0
 11
1300.49987900332
 21
1324.47431014085
 31
0.0
  0
LINE
  5
163
  8
_0-1_DEFPOINTS
  6
CONTINUOUS
 62
     7
 10
1188.620035040572
 20
1725.818427840853
 30
0.0
 11
1300.49987900332
 21
1725.818427840853
 31
0.0
  0
LINE
  5
164
  8
_0-1_DEFPOINTS
  6
CONTINUOUS
 62
     7
 10
1164.358773335505
 20
1780.318717594161
 30
0.0
 11
674.4122520026747
 21
1780.318717594161
 31
0.0
  0
LINE
  5
165
  8
_0-1_DEFPOINTS
  6
CONTINUOUS
 62
     7
 10
627.3814929550002
 20
1731.796194184028
 30
0.0
 11
627.3814929550002
 21
1369.435847152852
 31
0.0
  0
LINE
  5
166
  8
_0-1_DEFPOINTS
  6
CONTINUOUS
 62
     7
 10
675.596578005451
 20
1324.47431014085
 30
0.0
 11
1162.484701480793
 21
1324.47431014085
 31
0.0
  0
LINE
  5
167
  8
_0-1_DEFPOINTS
  6
CONTINUOUS
 62
     7
 10
1163.043457390999
 20
1320.34655944271
 30
0.0
 11
675.7222290206454
 21
1320.34655944271
 31
0.0
  0
LINE
  5
168
  8
_0-1_DEFPOINTS
  6
CONTINUOUS
 62
     7
 10
631.6910465177634
 20
1369.248705361694
 30
0.0
 11
631.6910465177634
 21
1633.997241272595
 31
0.0
  0
LINE
  5
169
  8
_0-1_DEFPOINTS
  6
CONTINUOUS
 62
     7
 10
671.4126909780174
 20
1678.57914025561
 30
0.0
 11
1167.545491671456
 21
1678.57914025561
 31
0.0
  0
LINE
  5
16A
  8
_0-1_DEFPOINTS
  6
CONTINUOUS
 62
     7
 10
1207.074639893881
 20
1635.30720277043
 30
0.0
 11
1207.074639893881
 21
1233.358901724268
 31
0.0
  0
LINE
  5
16B
  8
_0-1_DEFPOINTS
  6
CONTINUOUS
 62
     7
 10
627.384177938403
 20
1430.084997220617
 30
0.0
 11
627.384177938403
 21
1201.608990638638
 31
0.0
  0
LINE
  5
16C
  8
_0-1_DEFPOINTS
  6
CONTINUOUS
 62
     7
 10
1211.384177936509
 20
1201.608990638638
 30
0.0
 11
1211.384177936509
 21
1731.796194184028
 31
0.0
  0
LINE
  5
16D
  8
_0-1_DEFPOINTS
  6
CONTINUOUS
 62
     7
 10
1172.039502041974
 20
1370.938304888516
 30
0.0
 11
1172.039502041974
 21
1639.616756333194
 31
0.0
  0
LINE
  5
16E
  8
_0-1_DEFPOINTS
  6
CONTINUOUS
 62
     7
 10
1172.039502041974
 20
1639.616756333194
 30
0.0
 11
1171.994059085886
 21
1639.803898124352
 31
0.0
  0
LINE
  5
16F
  8
_0-1_DEFPOINTS
  6
CONTINUOUS
 62
     7
 10
1171.994059085886
 20
1639.803898124352
 30
0.0
 11
1171.897803206904
 21
1640.178181706668
 31
0.0
  0
LINE
  5
170
  8
_0-1_DEFPOINTS
  6
CONTINUOUS
 62
     7
 10
1171.897803206904
 20
1640.178181706668
 30
0.0
 11
1171.852360250816
 21
1640.365323497826
 31
0.0
  0
LINE
  5
171
  8
_0-1_DEFPOINTS
  6
CONTINUOUS
 62
     7
 10
1171.852360250816
 20
1640.365323497826
 30
0.0
 11
1171.758789355237
 21
1640.64335120116
 31
0.0
  0
LINE
  5
172
  8
_0-1_DEFPOINTS
  6
CONTINUOUS
 62
     7
 10
1171.758789355237
 20
1640.64335120116
 30
0.0
 11
1171.667887922926
 21
1640.926733351164
 31
0.0
  0
LINE
  5
173
  8
_0-1_DEFPOINTS
  6
CONTINUOUS
 62
     7
 10
1171.667887922926
 20
1640.926733351164
 30
0.0
 11
1171.574332547482
 21
1641.210115501169
 31
0.0
  0
LINE
  5
174
  8
_0-1_DEFPOINTS
  6
CONTINUOUS
 62
     7
 10
1171.574332547482
 20
1641.210115501169
 30
0.0
 11
1171.480761651903
 21
1641.488158724638
 31
0.0
  0
LINE
  5
175
  8
_0-1_DEFPOINTS
  6
CONTINUOUS
 62
     7
 10
1171.480761651903
 20
1641.488158724638
 30
0.0
 11
1171.432633712412
 21
1641.530932217459
 31
0.0
  0
LINE
  5
176
  8
_0-1_DEFPOINTS
  6
CONTINUOUS
 62
     7
 10
1171.432633712412
 20
1641.530932217459
 30
0.0
 11
1171.384505772921
 21
1641.579044636815
 31
0.0
  0
LINE
  5
177
  8
_0-1_DEFPOINTS
  6
CONTINUOUS
 62
     7
 10
1171.384505772921
 20
1641.579044636815
 30
0.0
 11
1171.336393353566
 21
1641.627172576306
 31
0.0
  0
LINE
  5
178
  8
_0-1_DEFPOINTS
  6
CONTINUOUS
 62
     7
 10
1171.336393353566
 20
1641.627172576306
 30
0.0
 11
1171.288265414075
 21
1641.669946069126
 31
0.0
  0
LINE
  5
179
  8
_0-1_DEFPOINTS
  6
CONTINUOUS
 62
     7
 10
1171.288265414075
 20
1641.669946069126
 30
0.0
 11
1171.288265414075
 21
1642.049568577977
 31
0.0
  0
LINE
  5
17A
  8
_0-1_DEFPOINTS
  6
CONTINUOUS
 62
     7
 10
1171.288265414075
 20
1642.049568577977
 30
0.0
 11
1171.194694518496
 21
1642.279483861956
 31
0.0
  0
LINE
  5
17B
  8
_0-1_DEFPOINTS
  6
CONTINUOUS
 62
     7
 10
1171.194694518496
 20
1642.279483861956
 30
0.0
 11
1171.101123622917
 21
1642.51473807247
 31
0.0
  0
LINE
  5
17C
  8
_0-1_DEFPOINTS
  6
CONTINUOUS
 62
     7
 10
1171.101123622917
 20
1642.51473807247
 30
0.0
 11
1171.010237710741
 21
1642.750007803118
 31
0.0
  0
LINE
  5
17D
  8
_0-1_DEFPOINTS
  6
CONTINUOUS
 62
     7
 10
1171.010237710741
 20
1642.750007803118
 30
0.0
 11
1170.916666815162
 21
1642.985262013632
 31
0.0
  0
LINE
  5
17E
  8
_0-1_DEFPOINTS
  6
CONTINUOUS
 62
     7
 10
1170.916666815162
 20
1642.985262013632
 30
0.0
 11
1168.556038719546
 21
1647.840193129994
 31
0.0
  0
LINE
  5
17F
  8
_0-1_DEFPOINTS
  6
CONTINUOUS
 62
     7
 10
1168.556038719546
 20
1647.840193129994
 30
0.0
 11
1165.612598504047
 21
1651.957250454929
 31
0.0
  0
LINE
  5
180
  8
_0-1_DEFPOINTS
  6
CONTINUOUS
 62
     7
 10
1165.612598504047
 20
1651.957250454929
 30
0.0
 11
1161.85644640482
 21
1655.282982642547
 31
0.0
  0
LINE
  5
181
  8
_0-1_DEFPOINTS
  6
CONTINUOUS
 62
     7
 10
1161.85644640482
 20
1655.282982642547
 30
0.0
 11
1157.05499767462
 21
1657.779955126561
 31
0.0
  0
LINE
  5
182
  8
_0-1_DEFPOINTS
  6
CONTINUOUS
 62
     7
 10
1157.05499767462
 20
1657.779955126561
 30
0.0
 11
1152.889812410194
 21
1658.790502174652
 31
0.0
  0
LINE
  5
183
  8
_0-1_DEFPOINTS
  6
CONTINUOUS
 62
     7
 10
1152.889812410194
 20
1658.790502174652
 30
0.0
 11
1149.080193444941
 21
1659.218252622994
 31
0.0
  0
LINE
  5
184
  8
_0-1_DEFPOINTS
  6
CONTINUOUS
 62
     7
 10
1149.080193444941
 20
1659.218252622994
 30
0.0
 11
1145.273243942956
 21
1659.303799608635
 31
0.0
  0
LINE
  5
185
  8
_0-1_DEFPOINTS
  6
CONTINUOUS
 62
     7
 10
1145.273243942956
 20
1659.303799608635
 30
0.0
 11
1141.121421515002
 21
1659.287767308895
 31
0.0
  0
LINE
  5
186
  8
_0-1_DEFPOINTS
  6
CONTINUOUS
 62
     7
 10
1141.121421515002
 20
1659.287767308895
 30
0.0
 11
694.6446883518502
 21
1659.287767308895
 31
0.0
  0
LINE
  5
187
  8
_0-1_DEFPOINTS
  6
CONTINUOUS
 62
     7
 10
694.6446883518502
 20
1659.287767308895
 30
0.0
 11
684.3894485655276
 21
1658.464346531827
 31
0.0
  0
LINE
  5
188
  8
_0-1_DEFPOINTS
  6
CONTINUOUS
 62
     7
 10
684.3894485655276
 20
1658.464346531827
 30
0.0
 11
676.6285273200873
 21
1655.074454104978
 31
0.0
  0
LINE
  5
189
  8
_0-1_DEFPOINTS
  6
CONTINUOUS
 62
     7
 10
676.6285273200873
 20
1655.074454104978
 30
0.0
 11
670.894039097364
 21
1648.872126924495
 31
0.0
  0
LINE
  5
18A
  8
_0-1_DEFPOINTS
  6
CONTINUOUS
 62
     7
 10
670.894039097364
 20
1648.872126924495
 30
0.0
 11
666.7261843696707
 21
1639.616756333194
 31
0.0
  0
LINE
  5
18B
  8
_0-1_DEFPOINTS
  6
CONTINUOUS
 62
     7
 10
985.1034613173202
 20
1468.421795530328
 30
0.0
 11
999.0453385169684
 21
1462.636525424982
 31
0.0
  0
LINE
  5
18C
  8
_0-1_DEFPOINTS
  6
CONTINUOUS
 62
     7
 10
934.431507812408
 20
1718.455830867272
 30
0.0
 11
948.3733850120564
 21
1712.66522183539
 31
0.0
  0
LINE
  5
18D
  8
_0-1_DEFPOINTS
  6
CONTINUOUS
 62
     7
 10
948.3733850120564
 20
1712.66522183539
 30
0.0
 11
962.3179316749722
 21
1706.879936209908
 31
0.0
  0
LINE
  5
18E
  8
_0-1_DEFPOINTS
  6
CONTINUOUS
 62
     7
 10
962.3179316749722
 20
1706.879936209908
 30
0.0
 11
976.259793354485
 21
1701.089311657892
 31
0.0
  0
LINE
  5
18F
  8
_0-1_DEFPOINTS
  6
CONTINUOUS
 62
     7
 10
976.259793354485
 20
1701.089311657892
 30
0.0
 11
990.2016705541334
 21
1695.29870262601
 31
0.0
  0
LINE
  5
190
  8
_0-1_DEFPOINTS
  6
CENTER1
 62
     7
 10
754.7056718530607
 20
1725.818427840853
 30
0.0
 11
1188.622704503839
 21
1725.818427840853
 31
0.0
  0
LINE
  5
191
  8
_0-1_DEFPOINTS
  6
CENTER1
 62
     7
 10
919.4764141014014
 20
1537.310430214769
 30
0.0
 11
919.4764141014014
 21
1791.937385744345
 31
0.0
  0
LINE
  5
192
  8
_0-1_DEFPOINTS
  6
CENTER1
 62
     7
 10
919.4764141014014
 20
1464.427719757321
 30
0.0
 11
919.4764141014014
 21
1295.938259976039
 31
0.0
  0
LINE
  5
193
  8
_0-1_DEFPOINTS
  6
CENTER1
 62
     7
 10
442.9504486242985
 20
1501.155126599317
 30
0.0
 11
882.5244309019614
 21
1501.155126599317
 31
0.0
  0
LINE
  5
194
  8
_0-1_DEFPOINTS
  6
CENTER1
 62
     7
 10
1014.465601722467
 20
1501.155126599317
 30
0.0
 11
956.3348108851271
 21
1501.155126599317
 31
0.0
  0
LINE
  5
195
  8
_0-0_0
  6
CONTINUOUS
 62
     7
 10
428.7499999999997
 20
1780.511198311854
 30
0.0
 11
428.7499999999997
 21
1501.155126599317
 31
0.0
  0
LINE
  5
196
  8
_0-0_0
  6
CONTINUOUS
 62
     7
 10
428.7499999999997
 20
1501.155126599317
 30
0.0
 11
427.0135182233304
 21
1511.003204129439
 31
0.0
  0
LINE
  5
197
  8
_0-0_0
  6
CONTINUOUS
 62
     7
 10
430.4864817766691
 20
1511.003204129439
 30
0.0
 11
428.7499999999997
 21
1501.155126599317
 31
0.0
  0
LINE
  5
198
  8
_0-0_0
  6
CONTINUOUS
 62
     7
 10
428.7499999999997
 20
1501.155126599317
 30
0.0
 11
520.9068627450977
 21
1501.155126599317
 31
0.0
  0
LINE
  5
199
  8
_0-0_0
  6
CONTINUOUS
 62
     7
 10
1315.466291454853
 20
1324.468971214315
 30
0.0
 11
1315.466291454853
 21
1678.723508553948
 31
0.0
  0
LINE
  5
19A
  8
_0-0_0
  6
CONTINUOUS
 62
     7
 10
1315.466291454853
 20
1678.723508553948
 30
0.0
 11
1317.202773231522
 21
1668.875431023826
 31
0.0
  0
LINE
  5
19B
  8
_0-0_0
  6
CONTINUOUS
 62
     7
 10
1313.729809678184
 20
1668.875431023826
 30
0.0
 11
1315.466291454853
 21
1678.723508553948
 31
0.0
  0
LINE
  5
19C
  8
_0-0_0
  6
CONTINUOUS
 62
     7
 10
1315.466291454853
 20
1678.723508553948
 30
0.0
 11
1255.989167271846
 21
1678.723508553948
 31
0.0
  0
LINE
  5
19D
  8
_0-0_0
  6
CONTINUOUS
 62
     7
 10
1320.825163398692
 20
1725.818427840853
 30
0.0
 11
1320.825163398692
 21
1780.511198311854
 31
0.0
  0
LINE
  5
19E
  8
_0-0_0
  6
CONTINUOUS
 62
     7
 10
1320.825163398692
 20
1780.511198311854
 30
0.0
 11
1322.561645175361
 21
1770.663120781732
 31
0.0
  0
LINE
  5
19F
  8
_0-0_0
  6
CONTINUOUS
 62
     7
 10
1319.088681622023
 20
1770.663120781732
 30
0.0
 11
1320.825163398692
 21
1780.511198311854
 31
0.0
  0
LINE
  5
1A0
  8
_0-0_0
  6
CONTINUOUS
 62
     7
 10
1319.088681622023
 20
1735.666505370975
 30
0.0
 11
1320.825163398692
 21
1725.818427840853
 31
0.0
  0
LINE
  5
1A1
  8
_0-0_0
  6
CONTINUOUS
 62
     7
 10
1320.825163398692
 20
1725.818427840853
 30
0.0
 11
1322.561645175361
 21
1735.666505370975
 31
0.0
  0
LINE
  5
1A2
  8
_0-0_0
  6
CONTINUOUS
 62
     7
 10
1320.825163398692
 20
1725.818427840853
 30
0.0
 11
1262.655228758169
 21
1725.818427840853
 31
0.0
  0
LINE
  5
1A3
  8
_0-0_0
  6
CONTINUOUS
 62
     7
 10
632.067999563347
 20
1243.411822882646
 30
0.0
 11
641.9160770934691
 21
1245.148304659316
 31
0.0
  0
LINE
  5
1A4
  8
_0-0_0
  6
CONTINUOUS
 62
     7
 10
641.9160770934691
 20
1241.675341105977
 30
0.0
 11
632.067999563347
 21
1243.411822882646
 31
0.0
  0
LINE
  5
1A5
  8
_0-0_0
  6
CONTINUOUS
 62
     7
 10
632.067999563347
 20
1243.411822882646
 30
0.0
 11
632.067999563347
 21
1278.052345758463
 31
0.0
  0
LINE
  5
1A6
  8
_0-0_0
  6
CONTINUOUS
 62
     7
 10
627.384177938403
 20
1201.608990638638
 30
0.0
 11
627.384177938403
 21
1191.587204146263
 31
0.0
  0
LINE
  5
1A7
  8
_0-0_0
  6
CONTINUOUS
 62
     7
 10
627.384177938403
 20
1191.587204146263
 30
0.0
 11
1211.384162902832
 21
1191.587204146263
 31
0.0
  0
LINE
  5
1A8
  8
_0-0_0
  6
CONTINUOUS
 62
     7
 10
1211.384162902832
 20
1191.587204146263
 30
0.0
 11
1201.53608537271
 21
1189.850722369594
 31
0.0
  0
LINE
  5
1A9
  8
_0-0_0
  6
CONTINUOUS
 62
     7
 10
1201.53608537271
 20
1193.323685922932
 30
0.0
 11
1211.384162902832
 21
1191.587204146263
 31
0.0
  0
LINE
  5
1AA
  8
_0-0_0
  6
CONTINUOUS
 62
     7
 10
1211.384162902832
 20
1191.587204146263
 30
0.0
 11
1211.384162902832
 21
1201.608990638638
 31
0.0
  0
LINE
  5
1AB
  8
_0-0_0
  6
CONTINUOUS
 62
     7
 10
1169.604020333923
 20
1780.511198311854
 30
0.0
 11
1386.871520213023
 21
1780.511198311854
 31
0.0
  0
LINE
  5
1AC
  8
_0-0_0
  6
CONTINUOUS
 62
     7
 10
1386.871520213023
 20
1780.511198311854
 30
0.0
 11
1386.871520213023
 21
1320.35191388938
 31
0.0
  0
LINE
  5
1AD
  8
_0-0_0
  6
CONTINUOUS
 62
     7
 10
1386.871520213023
 20
1320.35191388938
 30
0.0
 11
1385.135038436354
 21
1330.199991419502
 31
0.0
  0
LINE
  5
1AE
  8
_0-0_0
  6
CONTINUOUS
 62
     7
 10
1388.608001989692
 20
1330.199991419502
 30
0.0
 11
1386.871520213023
 21
1320.35191388938
 31
0.0
  0
LINE
  5
1AF
  8
_0-0_0
  6
CONTINUOUS
 62
     7
 10
1386.871520213023
 20
1320.35191388938
 30
0.0
 11
1320.825163398692
 21
1320.35191388938
 31
0.0
  0
LINE
  5
1B0
  8
_0-0_0
  6
CONTINUOUS
 62
     7
 10
1315.466291454853
 20
1324.468971214315
 30
0.0
 11
1313.729809678184
 21
1334.317048744437
 31
0.0
  0
LINE
  5
1B1
  8
_0-0_0
  6
CONTINUOUS
 62
     7
 10
1317.202773231522
 20
1334.317048744437
 30
0.0
 11
1315.466291454853
 21
1324.468971214315
 31
0.0
  0
LINE
  5
1B2
  8
_0-0_0
  6
CONTINUOUS
 62
     7
 10
1315.466291454853
 20
1324.468971214315
 30
0.0
 11
1255.989167271846
 21
1324.468971214315
 31
0.0
  0
LINE
  5
1B3
  8
_0-0_0
  6
CONTINUOUS
 62
     7
 10
1207.074639893881
 20
1278.052345758463
 30
0.0
 11
1207.074639893881
 21
1243.411822882646
 31
0.0
  0
LINE
  5
1B4
  8
_0-0_0
  6
CONTINUOUS
 62
     7
 10
1207.074639893881
 20
1243.411822882646
 30
0.0
 11
1197.226562363759
 21
1241.675341105977
 31
0.0
  0
LINE
  5
1B5
  8
_0-0_0
  6
CONTINUOUS
 62
     7
 10
1197.226562363759
 20
1245.148304659316
 30
0.0
 11
1207.074639893881
 21
1243.411822882646
 31
0.0
  0
LINE
  5
1B6
  8
_0-0_0
  6
CONTINUOUS
 62
     7
 10
627.384177938403
 20
1191.587204146263
 30
0.0
 11
637.2322554685251
 21
1193.323685922932
 31
0.0
  0
LINE
  5
1B7
  8
_0-0_0
  6
CONTINUOUS
 62
     7
 10
637.2322554685251
 20
1189.850722369594
 30
0.0
 11
627.384177938403
 21
1191.587204146263
 31
0.0
  0
LINE
  5
1B8
  8
_0-0_0
  6
CONTINUOUS
 62
     7
 10
669.6402139288218
 20
1780.511198311854
 30
0.0
 11
428.7499999999997
 21
1780.511198311854
 31
0.0
  0
LINE
  5
1B9
  8
_0-0_0
  6
CONTINUOUS
 62
     7
 10
428.7499999999997
 20
1780.511198311854
 30
0.0
 11
430.4864817766691
 21
1770.663120781732
 31
0.0
  0
LINE
  5
1BA
  8
_0-0_0
  6
CONTINUOUS
 62
     7
 10
427.0135182233304
 20
1770.663120781732
 30
0.0
 11
428.7499999999997
 21
1780.511198311854
 31
0.0
  0
LINE
  5
1BB
  8
_0-0_0
  6
CONTINUOUS
 62
     7
 10
1386.871520213023
 20
1780.511198311854
 30
0.0
 11
1388.608001989692
 21
1770.663120781732
 31
0.0
  0
LINE
  5
1BC
  8
_0-0_0
  6
CONTINUOUS
 62
     7
 10
1385.135038436354
 20
1770.663120781732
 30
0.0
 11
1386.871520213023
 21
1780.511198311854
 31
0.0
  0
TEXT
  5
1BD
  8
_0-0_0
 62
     7
 10
894.3841704206176
 20
1196.587204146263
 30
0.0
 40
30.0
  1
584
  0
TEXT
  5
1BE
  8
_0-0_0
 62
     7
 10
1318.864379084967
 20
1733.85703388886
 30
0.0
 40
30.0
  1
55
 50
90.0
  0
TEXT
  5
1BF
  8
_0-0_0
 62
     7
 10
427.9118252239163
 20
1628.101768819869
 30
0.0
 40
30.0
  1
279
 50
90.0
  0
TEXT
  5
1C0
  8
_0-0_0
 62
     7
 10
1381.871520213023
 20
1499.181556100617
 30
0.0
 40
30.0
  1
460
 50
90.0
  0
TEXT
  5
1C1
  8
_0-0_0
 62
     7
 10
1315.466291454853
 20
1476.596239884131
 30
0.0
 40
30.0
  1
345
 50
90.0
  0
TEXT
  5
1C2
  8
_0-0_0
 62
     7
 10
894.5713197286142
 20
1248.411822882646
 30
0.0
 40
30.0
  1
565
  0
TEXT
  5
1C3
  8
_0-0_0
 62
     7
 10
993.8920156539974
 20
1686.476456143358
 30
0.0
 40
30.0
  1
φ35
  0
TEXT
  5
1C4
  8
_0-0_0
 62
     7
 10
1001.299423061405
 20
1450.31087880131
 30
0.0
 40
30.0
  1
φ44
  0
ARC
  5
1C5
  8
_0-0_0
  6
CONTINUOUS
 62
     7
 10
1164.824861777083
 20
1733.721924568135
 30
0.0
 40
46.59912401264307
 50
357.6315509091057
 51
90.57308686451745
  0
ARC
  5
1C6
  8
_0-0_0
  6
CONTINUOUS
 62
     7
 10
674.1279664257196
 20
1733.721924568135
 30
0.0
 40
46.59912401264307
 50
89.42691313548256
 51
182.3684490908942
  0
LINE
  5
1C7
  8
_0-1_DEFPOINTS
  6
CONTINUOUS
 62
     7
 10
951.6633508493917
 20
1482.310823666556
 30
0.0
 11
985.1034613173202
 21
1468.421795530328
 31
0.0
  0
CIRCLE
  5
1C8
  8
_0-1_DEFPOINTS
  6
CONTINUOUS
 62
     7
 10
919.4764141014014
 20
1725.818427840853
 30
0.0
 40
17.47885339613404
  0
ARC
  5
1C9
  8
_0-3_什器配置
  6
CONTINUOUS
 62
     7
 10
919.4764141014014
 20
1341.914453069302
 30
0.0
 40
10.41815066330417
 50
27.58116752238158
 51
152.4188324776184
  0
ARC
  5
1CA
  8
_0-3_什器配置
  6
CONTINUOUS
 62
     7
 10
919.4764141014014
 20
1351.561759034216
 30
0.0
 40
10.41815066330417
 50
207.5811675223816
 51
332.4188324776184
  0
ARC
  5
1CB
  8
_0-3_什器配置
  6
CONTINUOUS
 62
     7
 10
955.2278698157372
 20
1351.561759034216
 30
0.0
 40
10.41815066330417
 50
207.5811675223816
 51
332.4188324776184
  0
ARC
  5
1CC
  8
_0-3_什器配置
  6
CONTINUOUS
 62
     7
 10
955.2278698157372
 20
1341.914453069302
 30
0.0
 40
10.41815066330417
 50
27.58116752238158
 51
152.4188324776184
  0
ARC
  5
1CD
  8
_0-3_什器配置
  6
CONTINUOUS
 62
     7
 10
883.7249583914013
 20
1351.561759034216
 30
0.0
 40
10.41815066330417
 50
207.5811675223816
 51
332.4188324776184
  0
ARC
  5
1CE
  8
_0-3_什器配置
  6
CONTINUOUS
 62
     7
 10
883.7249583914013
 20
1341.914453069302
 30
0.0
 40
10.41815066330417
 50
27.58116752238158
 51
152.4188324776184
  0
ARC
  5
1CF
  8
_0-0_0
  6
CONTINUOUS
 62
     7
 10
1161.696867852899
 20
1633.545377093417
 30
0.0
 40
45.41196125603392
 50
2.223434380914424
 51
82.6003013066621
  0
ARC
  5
1D0
  8
_0-0_0
  6
CONTINUOUS
 62
     7
 10
677.2559603499035
 20
1633.545377093417
 30
0.0
 40
45.41196125603392
 50
97.3996986933379
 51
177.7765656190856
  0
LINE
  5
1D1
  8
_0-1_DEFPOINTS
  6
CONTINUOUS
 62
     7
 10
1300.49987900332
 20
1678.723508553948
 30
0.0
 11
1167.545491671456
 21
1678.723508553948
 31
0.0
  0
ARC
  5
1D2
  8
_0-0_0
  6
CONTINUOUS
 62
     7
 10
1151.435384066048
 20
1384.54904294653
 30
0.0
 40
24.69376172335406
 50
267.3816316859268
 51
326.5519116494618
  0
ARC
  5
1D3
  8
_0-0_0
  6
CONTINUOUS
 62
     7
 10
687.517444136755
 20
1384.54904294653
 30
0.0
 40
24.69376172335406
 50
213.4480883505383
 51
272.6183683140732
  0
LINE
  5
1D4
  8
_0-1_DEFPOINTS
  6
CONTINUOUS
 62
     7
 10
688.645535262265
 20
1359.881062111806
 30
0.0
 11
1150.307292940538
 21
1359.881062111806
 31
0.0
  0
LINE
  5
1D5
  8
_0-1_DEFPOINTS
  6
CONTINUOUS
 62
     7
 10
666.7261843696707
 20
1639.616756333194
 30
0.0
 11
666.7261843696707
 21
1370.938304888516
 31
0.0
  0
ARC
  5
1D6
  8
_0-0_0
  6
CONTINUOUS
 62
     7
 10
684.7760873328599
 20
1377.389649486795
 30
0.0
 40
53.70564709216791
 50
188.7187623246229
 51
260.1585341762186
  0
ARC
  5
1D7
  8
_0-0_0
  6
CONTINUOUS
 62
     7
 10
681.1356735632086
 20
1374.023898886411
 30
0.0
 40
53.94962605588386
 50
184.8785121279061
 51
264.2411020430788
  0
ARC
  5
1D8
  8
_0-0_0
  6
CONTINUOUS
 62
     7
 10
1154.176740869943
 20
1377.389649486795
 30
0.0
 40
53.70564709216791
 50
279.8414658237814
 51
351.281237675377
  0
ARC
  5
1D9
  8
_0-0_0
  6
CONTINUOUS
 62
     7
 10
1157.817154639594
 20
1374.023898886411
 30
0.0
 40
53.94962605588386
 50
275.7588979569212
 51
355.121487872094
  0
LINE
  5
1DA
  8
_0-1_DEFPOINTS
  6
CONTINUOUS
 62
     7
 10
632.067999563347
 20
1233.358901724268
 30
0.0
 11
632.067999563347
 21
1369.248705361694
 31
0.0
  0
LINE
  5
1DB
  8
_0-1_DEFPOINTS
  6
CONTINUOUS
 62
     7
 10
1073.721897249888
 20
1320.35191388938
 30
0.0
 11
1386.871520213023
 21
1320.35191388938
 31
0.0
  0
LINE
  5
1DC
  8
_0-0_0
  6
CONTINUOUS
 62
     7
 10
1207.074639893881
 20
1243.411822882646
 30
0.0
 11
632.067999563347
 21
1243.411822882646
 31
0.0
  0
LINE
  5
1DD
  8
_0-1_DEFPOINTS
  6
CONTINUOUS
 62
     7
 10
2356.127427515866
 20
1532.697208999006
 30
0.0
 11
1866.180906183035
 21
1532.697208999006
 31
0.0
  0
LINE
  5
1DE
  8
_0-1_DEFPOINTS
  6
CONTINUOUS
 62
     7
 10
1819.150147135361
 20
1484.174685588873
 30
0.0
 11
1819.150147135361
 21
1336.007832246662
 31
0.0
  0
LINE
  5
1DF
  8
_0-1_DEFPOINTS
  6
CONTINUOUS
 62
     7
 10
1823.459700698124
 20
1336.007832246662
 30
0.0
 11
1823.459700698124
 21
1386.37573267744
 31
0.0
  0
LINE
  5
1E0
  8
_0-1_DEFPOINTS
  6
CONTINUOUS
 62
     7
 10
1863.181345158378
 20
1430.957631660456
 30
0.0
 11
2359.314145851817
 21
1430.957631660456
 31
0.0
  0
LINE
  5
1E1
  8
_0-1_DEFPOINTS
  6
CONTINUOUS
 62
     7
 10
2398.843294074242
 20
1387.685694175275
 30
0.0
 11
2398.843294074242
 21
1336.007832246662
 31
0.0
  0
LINE
  5
1E2
  8
_0-1_DEFPOINTS
  6
CONTINUOUS
 62
     7
 10
2403.15283211687
 20
1336.007832246662
 30
0.0
 11
2403.15283211687
 21
1484.174685588873
 31
0.0
  0
LINE
  5
1E3
  8
_0-1_DEFPOINTS
  6
CONTINUOUS
 62
     7
 10
2363.808156222335
 20
1336.007832246662
 30
0.0
 11
2363.808156222335
 21
1391.995247738039
 31
0.0
  0
LINE
  5
1E4
  8
_0-1_DEFPOINTS
  6
CONTINUOUS
 62
     7
 10
2363.808156222335
 20
1391.995247738039
 30
0.0
 11
2363.762713266247
 21
1392.182389529197
 31
0.0
  0
LINE
  5
1E5
  8
_0-1_DEFPOINTS
  6
CONTINUOUS
 62
     7
 10
2363.762713266247
 20
1392.182389529197
 30
0.0
 11
2363.666457387265
 21
1392.556673111513
 31
0.0
  0
LINE
  5
1E6
  8
_0-1_DEFPOINTS
  6
CONTINUOUS
 62
     7
 10
2363.666457387265
 20
1392.556673111513
 30
0.0
 11
2363.621014431177
 21
1392.743814902671
 31
0.0
  0
LINE
  5
1E7
  8
_0-1_DEFPOINTS
  6
CONTINUOUS
 62
     7
 10
2363.621014431177
 20
1392.743814902671
 30
0.0
 11
2363.527443535598
 21
1393.021842606005
 31
0.0
  0
LINE
  5
1E8
  8
_0-1_DEFPOINTS
  6
CONTINUOUS
 62
     7
 10
2363.527443535598
 20
1393.021842606005
 30
0.0
 11
2363.436542103287
 21
1393.305224756009
 31
0.0
  0
LINE
  5
1E9
  8
_0-1_DEFPOINTS
  6
CONTINUOUS
 62
     7
 10
2363.436542103287
 20
1393.305224756009
 30
0.0
 11
2363.342986727843
 21
1393.588606906014
 31
0.0
  0
LINE
  5
1EA
  8
_0-1_DEFPOINTS
  6
CONTINUOUS
 62
     7
 10
2363.342986727843
 20
1393.588606906014
 30
0.0
 11
2363.249415832264
 21
1393.866650129484
 31
0.0
  0
LINE
  5
1EB
  8
_0-1_DEFPOINTS
  6
CONTINUOUS
 62
     7
 10
2363.249415832264
 20
1393.866650129484
 30
0.0
 11
2363.201287892773
 21
1393.909423622304
 31
0.0
  0
LINE
  5
1EC
  8
_0-1_DEFPOINTS
  6
CONTINUOUS
 62
     7
 10
2363.201287892773
 20
1393.909423622304
 30
0.0
 11
2363.153159953282
 21
1393.95753604166
 31
0.0
  0
LINE
  5
1ED
  8
_0-1_DEFPOINTS
  6
CONTINUOUS
 62
     7
 10
2363.153159953282
 20
1393.95753604166
 30
0.0
 11
2363.105047533927
 21
1394.005663981151
 31
0.0
  0
LINE
  5
1EE
  8
_0-1_DEFPOINTS
  6
CONTINUOUS
 62
     7
 10
2363.105047533927
 20
1394.005663981151
 30
0.0
 11
2363.056919594435
 21
1394.048437473971
 31
0.0
  0
LINE
  5
1EF
  8
_0-1_DEFPOINTS
  6
CONTINUOUS
 62
     7
 10
2363.056919594435
 20
1394.048437473971
 30
0.0
 11
2363.056919594435
 21
1394.428059982822
 31
0.0
  0
LINE
  5
1F0
  8
_0-1_DEFPOINTS
  6
CONTINUOUS
 62
     7
 10
2363.056919594435
 20
1394.428059982822
 30
0.0
 11
2362.963348698856
 21
1394.657975266801
 31
0.0
  0
LINE
  5
1F1
  8
_0-1_DEFPOINTS
  6
CONTINUOUS
 62
     7
 10
2362.963348698856
 20
1394.657975266801
 30
0.0
 11
2362.869777803277
 21
1394.893229477315
 31
0.0
  0
LINE
  5
1F2
  8
_0-1_DEFPOINTS
  6
CONTINUOUS
 62
     7
 10
2362.869777803277
 20
1394.893229477315
 30
0.0
 11
2362.778891891101
 21
1395.128499207964
 31
0.0
  0
LINE
  5
1F3
  8
_0-1_DEFPOINTS
  6
CONTINUOUS
 62
     7
 10
2362.778891891101
 20
1395.128499207964
 30
0.0
 11
2362.685320995522
 21
1395.363753418477
 31
0.0
  0
LINE
  5
1F4
  8
_0-1_DEFPOINTS
  6
CONTINUOUS
 62
     7
 10
2362.685320995522
 20
1395.363753418477
 30
0.0
 11
2360.324692899907
 21
1400.218684534839
 31
0.0
  0
LINE
  5
1F5
  8
_0-1_DEFPOINTS
  6
CONTINUOUS
 62
     7
 10
2360.324692899907
 20
1400.218684534839
 30
0.0
 11
2357.381252684408
 21
1404.335741859774
 31
0.0
  0
LINE
  5
1F6
  8
_0-1_DEFPOINTS
  6
CONTINUOUS
 62
     7
 10
2357.381252684408
 20
1404.335741859774
 30
0.0
 11
2353.625100585181
 21
1407.661474047392
 31
0.0
  0
LINE
  5
1F7
  8
_0-1_DEFPOINTS
  6
CONTINUOUS
 62
     7
 10
2353.625100585181
 20
1407.661474047392
 30
0.0
 11
2348.82365185498
 21
1410.158446531407
 31
0.0
  0
LINE
  5
1F8
  8
_0-1_DEFPOINTS
  6
CONTINUOUS
 62
     7
 10
2348.82365185498
 20
1410.158446531407
 30
0.0
 11
2344.658466590554
 21
1411.168993579497
 31
0.0
  0
LINE
  5
1F9
  8
_0-1_DEFPOINTS
  6
CONTINUOUS
 62
     7
 10
2344.658466590554
 20
1411.168993579497
 30
0.0
 11
2340.848847625301
 21
1411.596744027839
 31
0.0
  0
LINE
  5
1FA
  8
_0-1_DEFPOINTS
  6
CONTINUOUS
 62
     7
 10
2340.848847625301
 20
1411.596744027839
 30
0.0
 11
2337.041898123316
 21
1411.68229101348
 31
0.0
  0
LINE
  5
1FB
  8
_0-1_DEFPOINTS
  6
CONTINUOUS
 62
     7
 10
2337.041898123316
 20
1411.68229101348
 30
0.0
 11
2332.890075695363
 21
1411.66625871374
 31
0.0
  0
LINE
  5
1FC
  8
_0-1_DEFPOINTS
  6
CONTINUOUS
 62
     7
 10
2332.890075695363
 20
1411.66625871374
 30
0.0
 11
1886.413342532211
 21
1411.66625871374
 31
0.0
  0
LINE
  5
1FD
  8
_0-1_DEFPOINTS
  6
CONTINUOUS
 62
     7
 10
1886.413342532211
 20
1411.66625871374
 30
0.0
 11
1876.158102745888
 21
1410.842837936672
 31
0.0
  0
LINE
  5
1FE
  8
_0-1_DEFPOINTS
  6
CONTINUOUS
 62
     7
 10
1876.158102745888
 20
1410.842837936672
 30
0.0
 11
1868.397181500448
 21
1407.452945509824
 31
0.0
  0
LINE
  5
1FF
  8
_0-1_DEFPOINTS
  6
CONTINUOUS
 62
     7
 10
1868.397181500448
 20
1407.452945509824
 30
0.0
 11
1862.662693277725
 21
1401.25061832934
 31
0.0
  0
LINE
  5
200
  8
_0-1_DEFPOINTS
  6
CONTINUOUS
 62
     7
 10
1862.662693277725
 20
1401.25061832934
 30
0.0
 11
1858.494838550032
 21
1391.995247738039
 31
0.0
  0
LINE
  5
201
  8
_0-1_DEFPOINTS
  6
CENTER1
 62
     7
 10
1946.474326033421
 20
1478.196919245698
 30
0.0
 11
2380.3913586842
 21
1478.196919245698
 31
0.0
  0
ARC
  5
202
  8
_0-0_0
  6
CONTINUOUS
 62
     7
 10
2356.593515957444
 20
1486.10041597298
 30
0.0
 40
46.59912401264307
 50
357.6315509091057
 51
90.57308686451745
  0
ARC
  5
203
  8
_0-0_0
  6
CONTINUOUS
 62
     7
 10
1865.89662060608
 20
1486.10041597298
 30
0.0
 40
46.59912401264307
 50
89.42691313548256
 51
182.3684490908942
  0
CIRCLE
  5
204
  8
_0-1_DEFPOINTS
  6
CONTINUOUS
 62
     7
 10
2111.245068281762
 20
1478.196919245698
 30
0.0
 40
17.47885339613404
  0
ARC
  5
205
  8
_0-0_0
  6
CONTINUOUS
 62
     7
 10
2353.46552203326
 20
1385.923868498262
 30
0.0
 40
45.41196125603392
 50
2.223434380914424
 51
82.6003013066621
  0
ARC
  5
206
  8
_0-0_0
  6
CONTINUOUS
 62
     7
 10
1869.024614530264
 20
1385.923868498262
 30
0.0
 40
45.41196125603392
 50
97.3996986933379
 51
177.7765656190856
  0
LINE
  5
207
  8
_0-1_DEFPOINTS
  6
CONTINUOUS
 62
     7
 10
2441.90023312773
 20
1431.101999958793
 30
0.0
 11
2359.314145851817
 21
1431.101999958793
 31
0.0
  0
LINE
  5
208
  8
_0-1_DEFPOINTS
  6
CONTINUOUS
 62
     7
 10
1858.494838550032
 20
1391.995247738039
 30
0.0
 11
1858.494838550032
 21
1336.007832246662
 31
0.0
  0
LINE
  5
209
  8
_0-0_0
  6
CONTINUOUS
 62
     7
 10
2454.373999328993
 20
1478.196919245698
 30
0.0
 11
2454.373999328993
 21
1532.889689716699
 31
0.0
  0
LINE
  5
20A
  8
_0-0_0
  6
CONTINUOUS
 62
     7
 10
2454.373999328993
 20
1532.889689716699
 30
0.0
 11
2456.110481105662
 21
1523.041612186577
 31
0.0
  0
LINE
  5
20B
  8
_0-0_0
  6
CONTINUOUS
 62
     7
 10
2452.637517552324
 20
1523.041612186577
 30
0.0
 11
2454.373999328993
 21
1532.889689716699
 31
0.0
  0
LINE
  5
20C
  8
_0-0_0
  6
CONTINUOUS
 62
     7
 10
2452.637517552324
 20
1488.04499677582
 30
0.0
 11
2454.373999328993
 21
1478.196919245698
 31
0.0
  0
LINE
  5
20D
  8
_0-0_0
  6
CONTINUOUS
 62
     7
 10
2454.373999328993
 20
1478.196919245698
 30
0.0
 11
2456.110481105662
 21
1488.04499677582
 31
0.0
  0
TEXT
  5
20E
  8
_0-0_0
 62
     7
 10
2452.413215015267
 20
1486.235525293705
 30
0.0
 40
30.0
  1
55
 50
90.0
  0
LINE
  5
20F
  8
_0-0_0
  6
CONTINUOUS
 62
     7
 10
2454.373999328993
 20
1478.196919245698
 30
0.0
 11
2380.3913586842
 21
1478.196919245698
 31
0.0
  0
LINE
  5
210
  8
_0-0_0
  6
CONTINUOUS
 62
     7
 10
2454.373999328993
 20
1532.889689715698
 30
0.0
 11
2356.127427515866
 21
1532.889689715698
 31
0.0
  0
LINE
  5
211
  8
_0-1_DEFPOINTS
  6
CENTER1
 62
     7
 10
2111.245068281762
 20
1447.14661941108
 30
0.0
 11
2111.245068281762
 21
1544.31587714919
 31
0.0
  0
LINE
  5
212
  8
_0-0_0
  6
CONTINUOUS
 62
     7
 10
2111.245068279859
 20
1579.196451352616
 30
0.0
 11
2111.245068279859
 21
1559.318223547163
 31
0.0
  0
CIRCLE
  5
213
  8
_0-0_0
  6
CONTINUOUS
 62
     7
 10
2111.245068279859
 20
1579.196451352616
 30
0.0
 40
1.490182859679372
  0
TEXT
  5
214
  8
_0-0_0
 62
     7
 10
2084.970820398046
 20
1626.737513369567
 30
0.0
 40
30.0
  1
204
  0
TEXT
  5
215
  8
_0-0_0
 62
     7
 10
2047.505414771497
 20
1582.430874859945
 30
0.0
 40
30.0
  1
102
  0
TEXT
  5
216
  8
_0-0_0
 62
     7
 10
2132.678567131134
 20
1581.352733690835
 30
0.0
 40
30.0
  1
102
  0
LINE
  5
217
  8
_0-1_DEFPOINTS
  6
CENTER1
 62
     7
 10
2009.245068281762
 20
1447.14661941108
 30
0.0
 11
2009.245068281762
 21
1544.31587714919
 31
0.0
  0
LINE
  5
218
  8
_0-1_DEFPOINTS
  6
CENTER1
 62
     7
 10
2213.245068281762
 20
1447.14661941108
 30
0.0
 11
2213.245068281762
 21
1544.31587714919
 31
0.0
  0
CIRCLE
  5
219
  8
_0-0_0
  6
CONTINUOUS
 62
     7
 10
2213.245068329859
 20
1579.196451352616
 30
0.0
 40
1.490182859679372
  0
CIRCLE
  5
21A
  8
_0-0_0
  6
CONTINUOUS
 62
     7
 10
2213.245068329859
 20
1622.2878145913
 30
0.0
 40
1.490182859679372
  0
LINE
  5
21B
  8
_0-0_0
  6
CONTINUOUS
 62
     7
 10
2213.245068329859
 20
1622.287814592229
 30
0.0
 11
2213.245068329859
 21
1559.318223547163
 31
0.0
  0
CIRCLE
  5
21C
  8
_0-1_DEFPOINTS
  6
CONTINUOUS
 62
     7
 10
2213.245068281762
 20
1478.196919245698
 30
0.0
 40
17.47885339613404
  0
CIRCLE
  5
21D
  8
_0-1_DEFPOINTS
  6
CONTINUOUS
 62
     7
 10
2009.245068281762
 20
1478.196919245698
 30
0.0
 40
17.47885339613404
  0
CIRCLE
  5
21E
  8
_0-0_0
  6
CONTINUOUS
 62
     7
 10
2009.24506827986
 20
1579.196451352616
 30
0.0
 40
1.490182859679372
  0
CIRCLE
  5
21F
  8
_0-0_0
  6
CONTINUOUS
 62
     7
 10
2009.24506827986
 20
1622.2878145913
 30
0.0
 40
1.490182859679372
  0
LINE
  5
220
  8
_0-0_0
  6
CONTINUOUS
 62
     7
 10
2009.24506827986
 20
1622.287814592229
 30
0.0
 11
2009.24506827986
 21
1559.318223547163
 31
0.0
  0
LINE
  5
221
  8
_0-0_0
  6
CONTINUOUS
 62
     7
 10
2213.245068329859
 20
1579.196451352616
 30
0.0
 11
2009.24506827986
 21
1579.196451352616
 31
0.0
  0
LINE
  5
222
  8
_0-0_0
  6
CONTINUOUS
 62
     7
 10
2213.245068329859
 20
1622.287814592229
 30
0.0
 11
2009.24506827986
 21
1622.287814592229
 31
0.0
  0
LINE
  5
223
  8
_F-0____-240
  6
CONTINUOUS
 62
     7
 10
1662.205882303141
 20
1793.310952277814
 30
0.0
 11
2581.765311112497
 21
1793.310952277814
 31
0.0
  0
LINE
  5
224
  8
_F-0____-240
  6
CONTINUOUS
 62
     7
 10
1662.205882303141
 20
1276.225490198516
 30
0.0
 11
1662.205882303141
 21
1793.310952277814
 31
0.0
  0
LINE
  5
225
  8
_F-0____-240
  6
CONTINUOUS
 62
     7
 10
2581.765311112497
 20
1276.225490198516
 30
0.0
 11
1662.205882303141
 21
1276.225490198516
 31
0.0
  0
LINE
  5
226
  8
_F-0____-240
  6
CONTINUOUS
 62
     7
 10
2581.765311112497
 20
1793.310952277814
 30
0.0
 11
2581.765311112497
 21
1276.225490198516
 31
0.0
  0
LINE
  5
227
  8
ADD_LINE
  6
DOT
 62
     9
 10
145.921909458142
 20
212.595315904001
 30
0.0
 11
2782.561381270234
 21
212.595315904001
 31
0.0
  0
LINE
  5
228
  8
ADD_LINE
  6
DOT
 62
     9
 10
145.921909458142
 20
175.7640401840011
 30
0.0
 11
2782.561381270234
 21
175.7640401840011
 31
0.0
  0
LINE
  5
229
  8
ADD_LINE
  6
DOT
 62
     9
 10
1104.530682643142
 20
272.1769084270011
 30
0.0
 11
1104.530682643142
 21
154.6313780270009
 31
0.0
  0
LINE
  5
22A
  8
ADD_LINE
  6
DOT
 62
     9
 10
2042.529956427142
 20
272.1769084270011
 30
0.0
 11
2042.529956427142
 21
154.6313780270009
 31
0.0
  0
LINE
  5
22B
  8
ADD_LINE
  6
DOT
 62
     9
 10
1985.612745098039
 20
228.387496974001
 30
0.0
 11
2782.561381270234
 21
228.387496974001
 31
0.0
  0
TEXT
  5
22C
  8
_F-0____-240
 62
     7
 10
2042.529956427142
 20
228.387496974001
 30
0.0
 40
34.6169860525761
  1
KOHLER　ボックス
 41
1.000000000000008
  0
TEXT
  5
22D
  8
_0-0_0
 62
     7
 10
2258.529411764706
 20
1736.642156862745
 30
0.0
 40
30.0
  1
【ﾜｲﾄﾞｽﾌﾟﾚｯﾄﾞﾎｰﾙ】
  0
LINE
  5
22E
  8
_0-1_DEFPOINTS
  6
CONTINUOUS
 62
     7
 10
1951.230777561187
 20
1596.564631748737
 30
0.0
 11
1891.585370773824
 21
1596.564631748737
 31
0.0
  0
TEXT
  5
22F
  8
_0-0_0
 62
     7
 10
1886.598684741386
 20
1598.617162914548
 30
0.0
 40
30.0
  1
φ35
  0
LINE
  5
230
  8
_0-1_DEFPOINTS
  6
CONTINUOUS
 62
     7
 10
2003.323714160785
 20
1494.642218921215
 30
0.0
 11
1951.230777561187
 21
1596.564631748737
 31
0.0
  0
LINE
  5
231
  8
_0-1_DEFPOINTS
  6
CONTINUOUS
 62
     7
 10
2003.323714160785
 20
1494.642218921215
 30
0.0
 11
1999.362951877872
 21
1509.423984997748
 31
0.0
  0
LINE
  5
232
  8
_0-1_DEFPOINTS
  6
CONTINUOUS
 62
     7
 10
2003.323714160785
 20
1494.642218921215
 30
0.0
 11
1993.663335967647
 21
1506.510889418311
 31
0.0
  0
TEXT
  5
233
  8
_F-0____-240
 62
     7
 10
1104.530682643142
 20
212.595315904001
 30
0.0
 40
34.6169860525761
  1
ラバトリーシンク
 41
1.000000000000006
  0
TEXT
  5
234
  8
_F-0____-240
 62
     7
 10
1104.530682643142
 20
175.7640401840011
 30
0.0
 40
34.6169860525761
  1
K-2660X
 41
1.000000000000006
  0
ENDSEC
  0
EOF
