  0
SECTION
  2
HEADER
  9
$ACADVER
  1
AC1009
  9
$INSBASE
 10
0
 20
0
 30
0
  9
$EXTMIN
 10
0
 20
0
  9
$EXTMAX
 10
297
 20
210
  9
$LIMMIN
 10
0
 20
0
  9
$LIMMAX
 10
297
 20
210
  9
$LTSCALE
 40
1
  0
ENDSEC
  0
SECTION
  2
TABLES
  0
TABLE
  2
LTYPE
 70
     9
  0
LTYPE
  2
CONTINUOUS
 70
    64
  3
実線
 72
    65
 73
     0
 40
0.0
  0
LTYPE
  2
DASHED1
 70
    64
  3
--  --  --  --  --  --  --  --  
 72
    65
 73
     2
 40
2.5
 49
1.25
 49
-1.25
  0
LTYPE
  2
DASHED2
 70
    64
  3
----    ----    ----    ----    
 72
    65
 73
     2
 40
5.0
 49
2.5
 49
-2.5
  0
LTYPE
  2
DASHED3
 70
    64
  3
------  ------  ------  ------  
 72
    65
 73
     2
 40
5.0
 49
3.75
 49
-1.25
  0
LTYPE
  2
CENTER1
 70
    64
  3
----- - ----- - ----- - ----- - 
 72
    65
 73
     4
 40
10.0
 49
6.25
 49
-1.25
 49
1.25
 49
-1.25
  0
LTYPE
  2
CENTER2
 70
    64
  3
----------  --  ----------  --  
 72
    65
 73
     4
 40
20.0
 49
12.5
 49
-2.5
 49
2.5
 49
-2.5
  0
LTYPE
  2
PHANTOM1
 70
    64
  3
--- - - --- - - --- - - --- - - 
 72
    65
 73
     6
 40
10.0
 49
3.25
 49
-1.25
 49
1.25
 49
-1.25
 49
1.25
 49
-1.25
  0
LTYPE
  2
PHANTOM2
 70
    64
  3
--------  -  -  --------  -  -  
 72
    65
 73
     6
 40
20.0
 49
10.0
 49
-2.5
 49
1.25
 49
-2.5
 49
1.25
 49
-2.5
  0
LTYPE
  2
DOT
 70
    64
  3
-   -   -   -   -   -   -   -   
 72
    65
 73
     2
 40
2.5
 49
0.625
 49
-1.875
  0
LTYPE
  2
DUMMY
 70
    64
  3
ダミー
 72
    65
 73
     0
 40
0.0
  0
LTYPE
  2
RAND1
 70
    64
  3
ランダム線1
 72
    65
 73
     4
 40
10.0
 49
1.0
 49
-2.0
 49
3.0
 49
-4.0
  0
LTYPE
  2
RAND2
 70
    64
  3
ランダム線2
 72
    65
 73
     4
 40
14.0
 49
2.0
 49
-3.0
 49
4.0
 49
-5.0
  0
LTYPE
  2
RAND3
 70
    64
  3
ランダム線3
 72
    65
 73
     4
 40
18.0
 49
3.0
 49
-4.0
 49
5.0
 49
-6.0
  0
LTYPE
  2
RAND4
 70
    64
  3
ランダム線4
 72
    65
 73
     4
 40
22.0
 49
4.0
 49
-5.0
 49
6.0
 49
-7.0
  0
LTYPE
  2
RAND5
 70
    64
  3
ランダム線5
 72
    65
 73
     4
 40
26.0
 49
5.0
 49
-6.0
 49
7.0
 49
-8.0
  0
LTYPE
  2
LONG1
 70
    64
  3
----------  --  ----------  --  
 72
    65
 73
     4
 40
40.0
 49
32.5
 49
-2.5
 49
2.5
 49
-2.5
  0
LTYPE
  2
LONG2
 70
    64
  3
--------  -  -  --------  -  -  
 72
    65
 73
     6
 40
40.0
 49
30.0
 49
-2.5
 49
1.25
 49
-2.5
 49
1.25
 49
-2.5
  0
LTYPE
  2
LONG3
 70
    64
  3
+++++++++++++++..+++++++++++++++
 72
    65
 73
     2
 40
40.0
 49
37.5
 49
-2.5
  0
LTYPE
  2
LONG4
 70
    64
  3
+++++++++++++++..+++++++++++++++
 72
    65
 73
     2
 40
80.0
 49
75.0
 49
-5.0
  0
LTYPE
  2
LONG5
 70
    64
  3
----------  --  ----------  --  
 72
    65
 73
     4
 40
60.0
 49
37.5
 49
-7.5
 49
7.5
 49
-7.5
  0
LTYPE
  2
dashed
 70
   64
  3
-------   -------------   ------
 72
   65
 73
    2
 40
7.5
 49
6
 49
-1.5
  0
LTYPE
  2
dashed_spaced
 70
   64
  3
----        --------        ----
 72
   65
 73
    2
 40
12
 49
6
 49
-6
  0
LTYPE
  2
long_dashed_dotted
 70
   64
  3
------------- --- --------------
 72
   65
 73
    4
 40
15.25
 49
12
 49
-1.5
 49
0.25
 49
-1.5
  0
LTYPE
  2
long_dashed_double-dotted
 70
   64
  3
----------- --- --- ------------
 72
   65
 73
    6
 40
17
 49
12
 49
-1.5
 49
0.25
 49
-1.5
 49
0.25
 49
-1.5
  0
LTYPE
  2
long_dashed_triplicate-dotted
 70
   64
  3
--------- --- --- --- ----------
 72
   65
 73
    8
 40
18.75
 49
12
 49
-1.5
 49
0.25
 49
-1.5
 49
0.25
 49
-1.5
 49
0.25
 49
-1.5
  0
LTYPE
  2
dotted
 70
   64
  3
   -       -       -       -    
 72
   65
 73
    2
 40
1.75
 49
0.25
 49
-1.5
  0
LTYPE
  2
chain
 70
   64
  3
-------------- -- --------------
 72
   65
 73
    4
 40
18.5
 49
12
 49
-1.5
 49
3.5
 49
-1.5
  0
LTYPE
  2
chain_double_dash
 70
   64
  3
------------ -- -- -------------
 72
   65
 73
    6
 40
23.5
 49
12
 49
-1.5
 49
3.5
 49
-1.5
 49
3.5
 49
-1.5
  0
LTYPE
  2
dashed_dotted
 70
   64
  3
-----------     -     ----------
 72
   65
 73
    4
 40
9.25
 49
6
 49
-1.5
 49
0.25
 49
-1.5
  0
LTYPE
  2
double-dashed_dotted
 70
   64
  3
------   -----------   -   -----
 72
   65
 73
    6
 40
16.75
 49
6
 49
-1.5
 49
6
 49
-1.5
 49
0.25
 49
-1.5
  0
LTYPE
  2
dashed_double-dotted
 70
   64
  3
---------    -    -    ---------
 72
   65
 73
    6
 40
11
 49
6
 49
-1.5
 49
0.25
 49
-1.5
 49
0.25
 49
-1.5
  0
LTYPE
  2
double-dashed_double-dotted
 70
   64
  3
-----   ---------   -   -   ----
 72
   65
 73
    8
 40
18.5
 49
6
 49
-1.5
 49
6
 49
-1.5
 49
0.25
 49
-1.5
 49
0.25
 49
-1.5
  0
LTYPE
  2
dashed_triplicate-dotted
 70
   64
  3
-------    -    -    -    ------
 72
   65
 73
    8
 40
12.75
 49
6
 49
-1.5
 49
0.25
 49
-1.5
 49
0.25
 49
-1.5
 49
0.25
 49
-1.5
  0
LTYPE
  2
double-dashed_triplicate-dotted
 70
   64
  3
-----  ---------  -  -  -  -----
 72
   65
 73
   10
 40
20.25
 49
6
 49
-1.5
 49
6
 49
-1.5
 49
0.25
 49
-1.5
 49
0.25
 49
-1.5
 49
0.25
 49
-1.5
  0
LTYPE
  2
undefined
 70
   64
  3
--------------------------------
 72
   65
 73
    0
 40
0
  0
LTYPE
  2
CENTER
 70
   64
  3
----------    ----    ----------
 72
   65
 73
    4
 40
50.800000000000004
 49
31.75
 49
-6.3499999999999996
 49
6.3499999999999996
 49
-6.3499999999999996
  0
LTYPE
  2
_
 70
   64
  3
                                
 72
   65
 73
    0
 40
0
  0
LTYPE
  2
__19
 70
   64
  3
                                
 72
   65
 73
    0
 40
0
  0
LTYPE
  2
__20
 70
   64
  3
                                
 72
   65
 73
    0
 40
0
  0
LTYPE
  2
__21
 70
   64
  3
                                
 72
   65
 73
    0
 40
0
  0
LTYPE
  2
__22
 70
   64
  3
                                
 72
   65
 73
    0
 40
0
  0
LTYPE
  2
__23
 70
   64
  3
                                
 72
   65
 73
    0
 40
0
  0
LTYPE
  2
__24
 70
   64
  3
                                
 72
   65
 73
    0
 40
0
  0
LTYPE
  2
__25
 70
   64
  3
                                
 72
   65
 73
    0
 40
0
  0
LTYPE
  2
__26
 70
   64
  3
                                
 72
   65
 73
    0
 40
0
  0
LTYPE
  2
__27
 70
   64
  3
                                
 72
   65
 73
    0
 40
0
  0
LTYPE
  2
__28
 70
   64
  3
                                
 72
   65
 73
    0
 40
0
  0
LTYPE
  2
__29
 70
   64
  3
                                
 72
   65
 73
    0
 40
0
  0
LTYPE
  2
__30
 70
   64
  3
                                
 72
   65
 73
    0
 40
0
  0
LTYPE
  2
__31
 70
   64
  3
                                
 72
   65
 73
    0
 40
0
  0
LTYPE
  2
__32
 70
   64
  3
                                
 72
   65
 73
    0
 40
0
  0
ENDTAB
  0
TABLE
  2
STYLE
  5
3
100
AcDbSymbolTable
 70
     1
  0
STYLE
  5
10
100
AcDbSymbolTableRecord
100
AcDbTextStyleTableRecord
  2
STANDARD
 70
     0
 40
0.0
 41
1.0
 50
0.0
 71
     0
 42
0.2
  3
txt
  4
bigfont.shx
  0
STYLE
  5
26
100
AcDbSymbolTableRecord
100
AcDbTextStyleTableRecord
  2
TATEGAKI
 70
    68
 40
0.0
 41
1.0
 50
0.0
 71
     0
 42
1.0
  3
txt
  4
bigfont.shx
  0
ENDTAB
  0
TABLE
  2
LAYER
 70
    5
  0
LAYER
  2
_0-0_0
 70
   64
 62
    7
  6
CONTINUOUS
  0
LAYER
  2
_0-1_DEFPOINTS
 70
   64
 62
    7
  6
CONTINUOUS
  0
LAYER
  2
_0-2_PV
 70
   64
 62
    7
  6
CONTINUOUS
  0
LAYER
  2
_0-3_0_5
 70
   64
 62
    7
  6
CONTINUOUS
  0
LAYER
  2
ADD_LINE
 70
   64
 62
    7
  6
CONTINUOUS
  0
ENDTAB
  0
ENDSEC
  0
SECTION
  2
BLOCKS
  0
BLOCK
  2
-000-_OPEN30
 70
   64
 10
0
 20
0
 30
0
  0
LINE
  8
_0-0_0
  6
CONTINUOUS
 62
    7
 10
-1
 20
0.2679489999999998
 11
0
 21
0
  0
LINE
  8
_0-0_0
  6
CONTINUOUS
 62
    7
 10
0
 20
0
 11
-1
 21
-0.2679489999999998
  0
LINE
  8
_0-0_0
  6
CONTINUOUS
 62
    7
 10
0
 20
0
 11
-1
 21
0
  0
ENDBLK
  0
BLOCK
  2
-001-_D3
 70
   64
 10
0
 20
0
 30
0
  0
LINE
  8
_0-0_0
  6
CONTINUOUS
 62
    7
 10
1158.8351070000001
 20
-1435.5257280000001
 11
1158.8351070000001
 21
-1487.5257280000001
  0
LINE
  8
_0-0_0
  6
CONTINUOUS
 62
    7
 10
1119.1130840000001
 20
-1435.5257280000001
 11
1160.3351070000001
 21
-1435.5257280000001
  0
LINE
  8
_0-0_0
  6
CONTINUOUS
 62
    7
 10
1079.1130840000001
 20
-1487.5257280000001
 11
1160.3351070000001
 21
-1487.5257280000001
  0
INSERT
  2
-000-_OPEN30
  8
_0-0_0
 10
1158.8351070000001
 20
-1435.5257280000001
 41
2.77
 42
2.77
 50
90
  0
INSERT
  2
-000-_OPEN30
  8
_0-0_0
 10
1158.8351070000001
 20
-1487.5257280000001
 41
2.77
 42
2.77
 50
270
  0
TEXT
  8
_0-0_0
 62
    7
 10
1157.8351070000001
 20
-1465.9007280000001
 40
2.5
 41
1
 50
90
  1
(104.0)
  0
POINT
  8
_0-1_DEFPOINTS
 62
    7
 10
1117.6130840000001
 20
-1435.5257280000001
  0
POINT
  8
_0-1_DEFPOINTS
 62
    7
 10
1077.6130840000001
 20
-1487.5257280000001
  0
POINT
  8
_0-1_DEFPOINTS
 62
    7
 10
1158.8351070000001
 20
-1487.5257280000001
  0
ENDBLK
  0
BLOCK
  2
-002-_D4
 70
   64
 10
0
 20
0
 30
0
  0
LINE
  8
_0-0_0
  6
CONTINUOUS
 62
    7
 10
1137.613085
 20
-1505.1123769999999
 11
1097.613085
 21
-1505.1123769999999
  0
LINE
  8
_0-0_0
  6
CONTINUOUS
 62
    7
 10
1097.613085
 20
-1469.0257260000001
 11
1097.613085
 21
-1506.6123769999999
  0
INSERT
  2
-000-_OPEN30
  8
_0-0_0
 10
1137.613085
 20
-1505.1123769999999
 41
2.77
 42
2.77
 50
0
  0
INSERT
  2
-000-_OPEN30
  8
_0-0_0
 10
1097.613085
 20
-1505.1123769999999
 41
2.77
 42
2.77
 50
180
  0
TEXT
  8
_0-0_0
 62
    7
 10
1115.113085
 20
-1504.1123769999999
 40
2.5
 41
1
 50
0
  1
80.0
  0
POINT
  8
_0-1_DEFPOINTS
 62
    7
 10
1137.613085
 20
-1455.5257260000001
  0
POINT
  8
_0-1_DEFPOINTS
 62
    7
 10
1097.613085
 20
-1467.5257260000001
  0
POINT
  8
_0-1_DEFPOINTS
 62
    7
 10
1097.613085
 20
-1505.1123769999999
  0
ENDBLK
  0
BLOCK
  2
-003-_D5
 70
   64
 10
0
 20
0
 30
0
  0
LINE
  8
_0-0_0
  6
CONTINUOUS
 62
    7
 10
1012.632071
 20
-1487.5257280000001
 11
1012.632071
 21
-1398.754997
  0
LINE
  8
_0-0_0
  6
CONTINUOUS
 62
    7
 10
1076.1130889999999
 20
-1487.5257280000001
 11
1011.132071
 21
-1487.5257280000001
  0
LINE
  8
_0-0_0
  6
CONTINUOUS
 62
    7
 10
1043.113096
 20
-1398.754997
 11
1011.132071
 21
-1398.754997
  0
INSERT
  2
-000-_OPEN30
  8
_0-0_0
 10
1012.632071
 20
-1487.5257280000001
 41
2.77
 42
2.77
 50
270
  0
INSERT
  2
-000-_OPEN30
  8
_0-0_0
 10
1012.632071
 20
-1398.754997
 41
2.77
 42
2.77
 50
90
  0
TEXT
  8
_0-0_0
 62
    7
 10
1011.632071
 20
-1451.890363
 40
2.5
 41
1
 50
90
  1
(177.5～207.5)
  0
POINT
  8
_0-1_DEFPOINTS
 62
    7
 10
1077.6130889999999
 20
-1487.5257280000001
  0
POINT
  8
_0-1_DEFPOINTS
 62
    7
 10
1044.613096
 20
-1398.754997
  0
POINT
  8
_0-1_DEFPOINTS
 62
    7
 10
1012.632071
 20
-1398.754997
  0
ENDBLK
  0
BLOCK
  2
-005-_D7
 70
   64
 10
0
 20
0
 30
0
  0
LINE
  8
_0-0_0
  6
CONTINUOUS
 62
    7
 10
1170.845759
 20
-1435.5257280000001
 11
1170.845759
 21
-1550.5257280000001
  0
LINE
  8
_0-0_0
  6
CONTINUOUS
 62
    7
 10
1119.1130860000001
 20
-1435.5257280000001
 11
1172.345759
 21
-1435.5257280000001
  0
LINE
  8
_0-0_0
  6
CONTINUOUS
 62
    7
 10
1148.638085
 20
-1550.5257280000001
 11
1172.345759
 21
-1550.5257280000001
  0
INSERT
  2
-000-_OPEN30
  8
_0-0_0
 10
1170.845759
 20
-1435.5257280000001
 41
2.77
 42
2.77
 50
90
  0
INSERT
  2
-000-_OPEN30
  8
_0-0_0
 10
1170.845759
 20
-1550.5257280000001
 41
2.77
 42
2.77
 50
270
  0
TEXT
  8
_0-0_0
 62
    7
 10
1169.845759
 20
-1496.1507280000001
 40
2.5
 41
1
 50
90
  1
500.0
  0
POINT
  8
_0-1_DEFPOINTS
 62
    7
 10
1117.6130860000001
 20
-1435.5257280000001
  0
POINT
  8
_0-1_DEFPOINTS
 62
    7
 10
1147.138085
 20
-1550.5257280000001
  0
POINT
  8
_0-1_DEFPOINTS
 62
    7
 10
1170.845759
 20
-1550.5257280000001
  0
ENDBLK
  0
BLOCK
  2
-007-_D9
 70
   64
 10
0
 20
0
 30
0
  0
LINE
  8
_0-0_0
  6
CONTINUOUS
 62
    7
 10
1083.613085
 20
-1420.600897
 11
1111.613085
 21
-1420.600897
  0
LINE
  8
_0-0_0
  6
CONTINUOUS
 62
    7
 10
1083.613085
 20
-1461.6757259999999
 11
1083.613085
 21
-1419.100897
  0
LINE
  8
_0-0_0
  6
CONTINUOUS
 62
    7
 10
1111.613085
 20
-1461.6757259999999
 11
1111.613085
 21
-1419.100897
  0
INSERT
  2
-000-_OPEN30
  8
_0-0_0
 10
1083.613085
 20
-1420.600897
 41
2.77
 42
2.77
 50
180
  0
INSERT
  2
-000-_OPEN30
  8
_0-0_0
 10
1111.613085
 20
-1420.600897
 41
2.77
 42
2.77
 50
0
  0
TEXT
  8
_0-0_0
 62
    7
 10
1090.113085
 20
-1419.600897
 40
2.5
 41
1
 50
0
  1
六角対辺51.0
  0
POINT
  8
_0-1_DEFPOINTS
 62
    7
 10
1083.613085
 20
-1463.1757259999999
  0
POINT
  8
_0-1_DEFPOINTS
 62
    7
 10
1111.613085
 20
-1463.1757259999999
  0
POINT
  8
_0-1_DEFPOINTS
 62
    7
 10
1111.613085
 20
-1420.600897
  0
ENDBLK
  0
BLOCK
  2
-008-_D10
 70
   64
 10
0
 20
0
 30
0
  0
LINE
  8
_0-0_0
  6
CONTINUOUS
 62
    7
 10
1071.613085
 20
-1444.797157
 11
1043.613085
 21
-1444.797157
  0
LINE
  8
_0-0_0
  6
CONTINUOUS
 62
    7
 10
1043.613085
 20
-1444.797157
 11
1021.226489
 21
-1444.797157
  0
LINE
  8
_0-0_0
  6
CONTINUOUS
 62
    7
 10
1071.613085
 20
-1446.2757280000001
 11
1071.613085
 21
-1446.297157
  0
LINE
  8
_0-0_0
  6
CONTINUOUS
 62
    7
 10
1043.613085
 20
-1446.2757280000001
 11
1043.613085
 21
-1446.297157
  0
LINE
  8
_0-0_0
  6
CONTINUOUS
 62
    7
 10
1071.613085
 20
-1444.797157
 11
1076.113085
 21
-1444.797157
  0
LINE
  8
_0-0_0
  6
CONTINUOUS
 62
    7
 10
1043.613085
 20
-1444.797157
 11
1039.113085
 21
-1444.797157
  0
INSERT
  2
-000-_OPEN30
  8
_0-0_0
 10
1071.613085
 20
-1444.797157
 41
2.77
 42
2.77
 50
180
  0
INSERT
  2
-000-_OPEN30
  8
_0-0_0
 10
1043.613085
 20
-1444.797157
 41
2.77
 42
2.77
 50
0
  0
TEXT
  8
_0-0_0
 62
    7
 10
1023.7264889999999
 20
-1443.797157
 40
2.5
 41
1
 50
0
  1
六角対辺51.0
  0
POINT
  8
_0-1_DEFPOINTS
 62
    7
 10
1071.613085
 20
-1444.7757280000001
  0
POINT
  8
_0-1_DEFPOINTS
 62
    7
 10
1043.613085
 20
-1444.7757280000001
  0
POINT
  8
_0-1_DEFPOINTS
 62
    7
 10
1043.613085
 20
-1444.797157
  0
ENDBLK
  0
BLOCK
  2
-009-_D11
 70
   64
 10
0
 20
0
 30
0
  0
LINE
  8
_0-0_0
  6
CONTINUOUS
 62
    7
 10
1044.613085
 20
-1380.1702339999999
 11
1070.613085
 21
-1380.1702339999999
  0
LINE
  8
_0-0_0
  6
CONTINUOUS
 62
    7
 10
1044.613085
 20
-1397.2629979999999
 11
1044.613085
 21
-1378.6702339999999
  0
LINE
  8
_0-0_0
  6
CONTINUOUS
 62
    7
 10
1070.613085
 20
-1397.2629979999999
 11
1070.613085
 21
-1378.6702339999999
  0
INSERT
  2
-000-_OPEN30
  8
_0-0_0
 10
1044.613085
 20
-1380.1702339999999
 41
2.77
 42
2.77
 50
180
  0
INSERT
  2
-000-_OPEN30
  8
_0-0_0
 10
1070.613085
 20
-1380.1702339999999
 41
2.77
 42
2.77
 50
0
  0
TEXT
  8
_0-0_0
 62
    7
 10
1050.113085
 20
-1379.1702339999999
 40
2.5
 41
1
 50
0
  1
六角対辺48.0
  0
POINT
  8
_0-1_DEFPOINTS
 62
    7
 10
1044.613085
 20
-1398.7629979999999
  0
POINT
  8
_0-1_DEFPOINTS
 62
    7
 10
1070.613085
 20
-1398.7629979999999
  0
POINT
  8
_0-1_DEFPOINTS
 62
    7
 10
1070.613085
 20
-1380.1702339999999
  0
ENDBLK
  0
BLOCK
  2
-010-_D12
 70
   64
 10
0
 20
0
 30
0
  0
LINE
  8
_0-0_0
  6
CONTINUOUS
 62
    7
 10
1097.613085
 20
-1505.1123769999999
 11
1057.613085
 21
-1505.1123769999999
  0
LINE
  8
_0-0_0
  6
CONTINUOUS
 62
    7
 10
1097.613085
 20
-1469.0257260000001
 11
1097.613085
 21
-1506.6123769999999
  0
LINE
  8
_0-0_0
  6
CONTINUOUS
 62
    7
 10
1057.613085
 20
-1469.0257260000001
 11
1057.613085
 21
-1506.6123769999999
  0
INSERT
  2
-000-_OPEN30
  8
_0-0_0
 10
1097.613085
 20
-1505.1123769999999
 41
2.77
 42
2.77
 50
0
  0
INSERT
  2
-000-_OPEN30
  8
_0-0_0
 10
1057.613085
 20
-1505.1123769999999
 41
2.77
 42
2.77
 50
180
  0
TEXT
  8
_0-0_0
 62
    7
 10
1075.113085
 20
-1504.1123769999999
 40
2.5
 41
1
 50
0
  1
80.0
  0
POINT
  8
_0-1_DEFPOINTS
 62
    7
 10
1097.613085
 20
-1467.5257260000001
  0
POINT
  8
_0-1_DEFPOINTS
 62
    7
 10
1057.613085
 20
-1467.5257260000001
  0
POINT
  8
_0-1_DEFPOINTS
 62
    7
 10
1057.613085
 20
-1505.1123769999999
  0
ENDBLK
  0
ENDSEC
  0
SECTION
  2
ENTITIES
  0
LINE
  8
_0-2_PV
  6
CONTINUOUS
 62
    7
 10
120.5
 20
-25
 11
173
 21
-25
  0
LINE
  8
_0-2_PV
  6
CONTINUOUS
 62
    7
 10
53.5
 20
-33.5
 11
243.5
 21
-33.5
  0
TEXT
  8
_0-2_PV
 62
    7
 10
238.91666699999996
 20
-36.75
 40
2.5
 41
1
 50
0
  1
A4
  0
CIRCLE
  8
_0-2_PV
  6
CONTINUOUS
 62
    7
 10
62.159485000000018
 20
-14.75
 40
1.875
  0
CIRCLE
  8
_0-2_PV
  6
CONTINUOUS
 62
    7
 10
62.159485000000018
 20
-14.75
 40
3.375
  0
LINE
  8
_0-2_PV
  6
CENTER
 62
    7
 10
57.391036999999983
 20
-14.75
 11
76.824661999999989
 21
-14.75
  0
TEXT
  8
_0-2_PV
 62
    7
 10
122.02109199999995
 20
-28.5
 40
3
 41
1.042184
 50
0
  1
2019年07月01日 作成
  0
LINE
  8
_0-2_PV
  6
CONTINUOUS
 62
    7
 10
116.28235999999993
 20
-12.014697000000069
 11
108.57903600000009
 21
-18.434134000000086
  0
TEXT
  8
_0-2_PV
 62
    7
 10
108.63726199999996
 20
-14.082664000000022
 40
3.75
 41
1.399883
 50
0
  1
1
  0
TEXT
  8
_0-2_PV
 62
    7
 10
114.73669399999994
 20
-19.319679000000178
 40
3.75
 41
1.143
 50
0
  1
2
  0
TEXT
  8
_0-2_PV
 62
    7
 10
173.88950700000009
 20
-18.844620000000077
 40
3.75
 41
1.0434110000000001
 50
0
  1
番
  0
TEXT
  8
_0-2_PV
 62
    7
 10
173.88950700000009
 20
-13.844620000000077
 40
3.75
 41
1.0434110000000001
 50
0
  1
品
  0
TEXT
  8
_0-2_PV
 62
    7
 10
173.88950700000009
 20
-26.344620000000077
 40
3.75
 41
1.0434110000000001
 50
0
  1
品
  0
TEXT
  8
_0-2_PV
 62
    7
 10
173.88950700000009
 20
-31.344620000000077
 40
3.75
 41
1.0434110000000001
 50
0
  1
名
  0
LINE
  8
_0-2_PV
  6
CONTINUOUS
 62
    7
 10
178
 20
-8.5
 11
178
 21
-33.5
  0
TEXT
  8
_0-2_PV
 62
    7
 10
122.12179199999991
 20
-12.223474000000081
 40
3.2000000000000002
 41
1.0434110000000001
 50
0
  1
製　　図
  0
LINE
  8
_0-2_PV
  6
CONTINUOUS
 62
    7
 10
120.5
 20
-12.75
 11
173
 21
-12.75
  0
LINE
  8
_0-2_PV
  6
CONTINUOUS
 62
    7
 10
100.5
 20
-8.5
 11
100.5
 21
-21
  0
LINE
  8
_0-2_PV
  6
CONTINUOUS
 62
    7
 10
80.5
 20
-8.5
 11
80.5
 21
-21
  0
LINE
  8
_0-2_PV
  6
CONTINUOUS
 62
    7
 10
105.5
 20
-8.5
 11
105.5
 21
-21
  0
LINE
  8
_0-2_PV
  6
CONTINUOUS
 62
    7
 10
67.784473000000048
 20
-12.875024000000167
 11
75.284473000000048
 21
-11.375024000000167
  0
LINE
  8
_0-2_PV
  6
CONTINUOUS
 62
    7
 10
67.784490000000005
 20
-16.625019000000066
 11
75.284490000000005
 21
-18.125019000000066
  0
LINE
  8
_0-2_PV
  6
CONTINUOUS
 62
    7
 10
75.284485000000018
 20
-11.375
 11
75.284485000000018
 21
-18.124985000000152
  0
LINE
  8
_0-2_PV
  6
CONTINUOUS
 62
    7
 10
67.784485000000018
 20
-12.875
 11
67.784485000000018
 21
-16.624985000000152
  0
LINE
  8
_0-2_PV
  6
CENTER
 62
    7
 10
62.159485000000018
 20
-9.6766360000001441
 11
62.159485000000018
 21
-19.753326000000015
  0
TEXT
  8
_0-2_PV
 62
    7
 10
101.38950700000009
 20
-18.844620000000077
 40
3.75
 41
1.0434110000000001
 50
0
  1
度
  0
TEXT
  8
_0-2_PV
 62
    7
 10
81.873881999999981
 20
-16.701172000000042
 40
3.75
 41
1.0434110000000001
 50
0
  1
単位ｍｍ
  0
TEXT
  8
_0-2_PV
 62
    7
 10
101.38950700000009
 20
-13.844620000000077
 40
3.75
 41
1.0434110000000001
 50
0
  1
尺
  0
LINE
  8
_0-2_PV
  6
CONTINUOUS
 62
    7
 10
120.5
 20
-8.5
 11
120.5
 21
-33.5
  0
LINE
  8
_0-2_PV
  6
CONTINUOUS
 62
    7
 10
138
 20
-8.5
 11
138
 21
-25
  0
LINE
  8
_0-2_PV
  6
CONTINUOUS
 62
    7
 10
155.5
 20
-8.5
 11
155.5
 21
-25
  0
LINE
  8
_0-2_PV
  6
CONTINUOUS
 62
    7
 10
173
 20
-8.5
 11
173
 21
-33.5
  0
LINE
  8
_0-2_PV
  6
CONTINUOUS
 62
    7
 10
173
 20
-21
 11
243.5
 21
-21
  0
LINE
  8
_0-2_PV
  6
CONTINUOUS
 62
    7
 10
53.5
 20
-8.5
 11
243.5
 21
-8.5
  0
LINE
  8
_0-2_PV
  6
CONTINUOUS
 62
    7
 10
53.5
 20
-21
 11
120.5
 21
-21
  0
LINE
  8
_0-1_DEFPOINTS
  6
CONTINUOUS
 62
    7
 10
43.5
 20
253.5
 11
253.5
 21
253.5
  0
LINE
  8
_0-1_DEFPOINTS
  6
CONTINUOUS
 62
    7
 10
43.5
 20
-43.5
 11
253.5
 21
-43.5
  0
LINE
  8
_0-1_DEFPOINTS
  6
CONTINUOUS
 62
    7
 10
43.5
 20
-43.5
 11
43.5
 21
253.5
  0
LINE
  8
_0-1_DEFPOINTS
  6
CONTINUOUS
 62
    7
 10
253.5
 20
-43.5
 11
253.5
 21
253.5
  0
LINE
  8
_0-2_PV
  6
CONTINUOUS
 62
    7
 10
243.5
 20
-33.5
 11
243.5
 21
243.5
  0
LINE
  8
_0-2_PV
  6
CONTINUOUS
 62
    7
 10
53.5
 20
243.5
 11
243.5
 21
243.5
  0
LINE
  8
_0-2_PV
  6
CONTINUOUS
 62
    7
 10
53.5
 20
243.5
 11
53.5
 21
-33.5
  0
INSERT
  2
-001-_D3
  8
_0-3_0_5
 10
-940.19092599999999
 20
1590.4066519999999
 41
1
 42
1
 50
0
  0
INSERT
  2
-002-_D4
  8
_0-3_0_5
 10
-940.19092599999999
 20
1590.4066519999999
 41
1
 42
1
 50
0
  0
LINE
  8
_0-3_0_5
  6
CENTER
 62
    7
 10
117.42215899999997
 20
122.88092399999982
 11
117.42215899999997
 21
197.14365499999985
  0
INSERT
  2
-003-_D5
  8
_0-3_0_5
 10
-940.19092599999999
 20
1590.4066519999999
 41
1
 42
1
 50
0
  0
TEXT
  8
_0-3_0_5
 62
    7
 10
115.09416800000008
 20
203.07111799999984
 40
2.5
 41
1.1538459999999999
 50
0
  1
G11/2
  0
INSERT
  2
-005-_D7
  8
_0-3_0_5
 10
-940.19092599999999
 20
1590.4066519999999
 41
1
 42
1
 50
0
  0
INSERT
  2
-007-_D9
  8
_0-3_0_5
 10
-940.19092599999999
 20
1590.4066519999999
 41
1
 42
1
 50
0
  0
INSERT
  2
-008-_D10
  8
_0-3_0_5
 10
-940.19092599999999
 20
1590.4066519999999
 41
1
 42
1
 50
0
  0
INSERT
  2
-009-_D11
  8
_0-3_0_5
 10
-940.19092599999999
 20
1590.4066519999999
 41
1
 42
1
 50
0
  0
INSERT
  2
-010-_D12
  8
_0-3_0_5
 10
-940.19092599999999
 20
1590.4066519999999
 41
1
 42
1
 50
0
  0
LINE
  8
_0-3_0_5
  6
CONTINUOUS
 62
    3
 10
206.94715900000006
 20
50.917649999999867
 11
206.94715900000006
 21
39.880923999999823
  0
LINE
  8
_0-3_0_5
  6
CONTINUOUS
 62
    3
 10
117.42215899999997
 20
124.38092399999982
 11
126.482618
 21
124.38092399999982
  0
ARC
  8
_0-3_0_5
  6
CONTINUOUS
 62
    3
 10
210.42215899999997
 20
53.417649999999867
 40
5
 50
0
 51
90
  0
LINE
  8
_0-3_0_5
  6
CONTINUOUS
 62
    3
 10
215.42215899999997
 20
53.417649999999867
 11
215.42215899999997
 21
50.917649999999867
  0
LINE
  8
_0-3_0_5
  6
CONTINUOUS
 62
    3
 10
215.42215899999997
 20
50.917649999999867
 11
197.42215899999997
 21
50.917649999999867
  0
LINE
  8
_0-3_0_5
  6
CONTINUOUS
 62
    3
 10
210.42215899999997
 20
58.417649999999867
 11
197.42215899999997
 21
58.417649999999867
  0
LINE
  8
_0-3_0_5
  6
CONTINUOUS
 62
    3
 10
157.42215899999997
 20
129.98092127479333
 11
158.42628249650605
 21
129.93914263697891
  0
LINE
  8
_0-3_0_5
  6
CONTINUOUS
 62
    3
 10
158.42628249650605
 20
129.93914263697891
 11
159.39989620868178
 21
129.81507614630465
  0
LINE
  8
_0-3_0_5
  6
CONTINUOUS
 62
    3
 10
159.39989620868178
 20
129.81507614630465
 11
160.31341737655507
 21
129.61249150030898
  0
LINE
  8
_0-3_0_5
  6
CONTINUOUS
 62
    3
 10
160.31341737655507
 20
129.61249150030898
 11
161.13908912170402
 21
129.33754413094775
  0
LINE
  8
_0-3_0_5
  6
CONTINUOUS
 62
    3
 10
161.13908912170402
 20
129.33754413094775
 11
161.85182382596241
 21
128.99858817490889
  0
LINE
  8
_0-3_0_5
  6
CONTINUOUS
 62
    3
 10
161.85182382596241
 20
128.99858817490889
 11
162.42996540600248
 21
128.60592263739665
  0
LINE
  8
_0-3_0_5
  6
CONTINUOUS
 62
    3
 10
162.42996540600248
 20
128.60592263739665
 11
162.8559473224685
 21
128.17147846206998
  0
LINE
  8
_0-3_0_5
  6
CONTINUOUS
 62
    3
 10
162.8559473224685
 20
128.17147846206998
 11
163.11682633038586
 21
127.70845601535686
  0
LINE
  8
_0-3_0_5
  6
CONTINUOUS
 62
    3
 10
163.11682633038586
 20
127.70845601535686
 11
163.20467575311014
 21
127.23092399999996
  0
LINE
  8
_0-3_0_5
  6
CONTINUOUS
 62
    3
 10
163.20467575311014
 20
127.23092399999996
 11
163.11682633038586
 21
126.75339198464307
  0
LINE
  8
_0-3_0_5
  6
CONTINUOUS
 62
    3
 10
163.11682633038586
 20
126.75339198464307
 11
162.8559473224685
 21
126.29036953792993
  0
LINE
  8
_0-3_0_5
  6
CONTINUOUS
 62
    3
 10
162.8559473224685
 20
126.29036953792993
 11
162.42996540600251
 21
125.85592536260327
  0
LINE
  8
_0-3_0_5
  6
CONTINUOUS
 62
    3
 10
162.42996540600251
 20
125.85592536260327
 11
161.85182382596241
 21
125.46325982509104
  0
LINE
  8
_0-3_0_5
  6
CONTINUOUS
 62
    3
 10
161.85182382596241
 20
125.46325982509104
 11
161.13908912170405
 21
125.12430386905217
  0
LINE
  8
_0-3_0_5
  6
CONTINUOUS
 62
    3
 10
161.13908912170405
 20
125.12430386905217
 11
160.31341737655507
 21
124.84935649969093
  0
LINE
  8
_0-3_0_5
  6
CONTINUOUS
 62
    3
 10
160.31341737655507
 20
124.84935649969093
 11
159.39989620868181
 21
124.64677185369527
  0
LINE
  8
_0-3_0_5
  6
CONTINUOUS
 62
    3
 10
159.39989620868181
 20
124.64677185369527
 11
158.42628249650605
 21
124.522705363021
  0
LINE
  8
_0-3_0_5
  6
CONTINUOUS
 62
    3
 10
158.42628249650605
 20
124.522705363021
 11
157.42215899999997
 21
124.4809267252066
  0
LINE
  8
_0-3_0_5
  6
CONTINUOUS
 62
    7
 10
146.2109089999999
 20
123.88092399999982
 11
146.2109089999999
 21
124.23092399999996
  0
LINE
  8
_0-3_0_5
  6
CONTINUOUS
 62
    3
 10
145.86090899999999
 20
124.23092399999996
 11
146.2109089999999
 21
123.88092399999982
  0
ARC
  8
_0-3_0_5
  6
CONTINUOUS
 62
    3
 10
146.86858800000005
 20
127.23092399999996
 40
3.4464290000000002
 50
119.487126
 51
240.51287400000001
  0
LINE
  8
_0-3_0_5
  6
CONTINUOUS
 62
    3
 10
143.42215976084822
 20
127.23092399999996
 11
143.46659278751486
 21
126.75339142793987
  0
LINE
  8
_0-3_0_5
  6
CONTINUOUS
 62
    3
 10
143.46659278751486
 20
126.75339142793987
 11
143.59854179248373
 21
126.29036844143869
  0
LINE
  8
_0-3_0_5
  6
CONTINUOUS
 62
    3
 10
143.59854179248373
 20
126.29036844143869
 11
143.81399757200825
 21
125.85592375964032
  0
LINE
  8
_0-3_0_5
  6
CONTINUOUS
 62
    3
 10
143.81399757200825
 20
125.85592375964032
 11
144.10641361125349
 21
125.46325776436157
  0
LINE
  8
_0-3_0_5
  6
CONTINUOUS
 62
    3
 10
144.10641361125349
 20
125.46325776436157
 11
144.46690499683658
 21
125.12430141317043
  0
LINE
  8
_0-3_0_5
  6
CONTINUOUS
 62
    3
 10
144.46690499683658
 20
125.12430141317043
 11
144.88451838042408
 21
124.84935372327763
  0
LINE
  8
_0-3_0_5
  6
CONTINUOUS
 62
    3
 10
144.88451838042408
 20
124.84935372327763
 11
145.34656479067823
 21
124.64676884111034
  0
LINE
  8
_0-3_0_5
  6
CONTINUOUS
 62
    3
 10
145.34656479067823
 20
124.64676884111034
 11
145.83900518123019
 21
124.5227022058003
  0
LINE
  8
_0-3_0_5
  6
CONTINUOUS
 62
    3
 10
145.83900518123019
 20
124.5227022058003
 11
146.34687699999995
 21
124.48092351928067
  0
LINE
  8
_0-3_0_5
  6
CONTINUOUS
 62
    3
 10
146.34687699999995
 20
124.48092351928067
 11
146.85474881876971
 21
124.5227022058003
  0
LINE
  8
_0-3_0_5
  6
CONTINUOUS
 62
    3
 10
146.85474881876971
 20
124.5227022058003
 11
147.34718920932167
 21
124.64676884111034
  0
LINE
  8
_0-3_0_5
  6
CONTINUOUS
 62
    3
 10
147.34718920932167
 20
124.64676884111034
 11
147.80923561957582
 21
124.84935372327763
  0
LINE
  8
_0-3_0_5
  6
CONTINUOUS
 62
    3
 10
147.80923561957582
 20
124.84935372327763
 11
148.2268490031633
 21
125.12430141317043
  0
LINE
  8
_0-3_0_5
  6
CONTINUOUS
 62
    3
 10
148.2268490031633
 20
125.12430141317043
 11
148.58734038874641
 21
125.46325776436157
  0
LINE
  8
_0-3_0_5
  6
CONTINUOUS
 62
    3
 10
148.58734038874641
 20
125.46325776436157
 11
148.87975642799165
 21
125.85592375964031
  0
LINE
  8
_0-3_0_5
  6
CONTINUOUS
 62
    3
 10
148.87975642799165
 20
125.85592375964031
 11
149.09521220751617
 21
126.29036844143869
  0
LINE
  8
_0-3_0_5
  6
CONTINUOUS
 62
    3
 10
149.09521220751617
 20
126.29036844143869
 11
149.22716121248504
 21
126.75339142793987
  0
LINE
  8
_0-3_0_5
  6
CONTINUOUS
 62
    3
 10
149.22716121248504
 20
126.75339142793987
 11
149.27159423915168
 21
127.23092399999996
  0
LINE
  8
_0-3_0_5
  6
CONTINUOUS
 62
    3
 10
149.27159423915168
 20
127.23092399999996
 11
149.22716121248504
 21
127.70845657206004
  0
LINE
  8
_0-3_0_5
  6
CONTINUOUS
 62
    3
 10
149.22716121248504
 20
127.70845657206004
 11
149.09521220751617
 21
128.17147955856123
  0
LINE
  8
_0-3_0_5
  6
CONTINUOUS
 62
    3
 10
149.09521220751617
 20
128.17147955856123
 11
148.87975642799165
 21
128.6059242403596
  0
LINE
  8
_0-3_0_5
  6
CONTINUOUS
 62
    3
 10
148.87975642799165
 20
128.6059242403596
 11
148.58734038874641
 21
128.99859023563835
  0
LINE
  8
_0-3_0_5
  6
CONTINUOUS
 62
    3
 10
148.58734038874641
 20
128.99859023563835
 11
148.22684900316332
 21
129.33754658682949
  0
LINE
  8
_0-3_0_5
  6
CONTINUOUS
 62
    3
 10
148.22684900316332
 20
129.33754658682949
 11
147.80923561957582
 21
129.61249427672229
  0
LINE
  8
_0-3_0_5
  6
CONTINUOUS
 62
    3
 10
147.80923561957582
 20
129.61249427672229
 11
147.3471892093217
 21
129.81507915888957
  0
LINE
  8
_0-3_0_5
  6
CONTINUOUS
 62
    3
 10
147.3471892093217
 20
129.81507915888957
 11
146.85474881876971
 21
129.93914579419962
  0
LINE
  8
_0-3_0_5
  6
CONTINUOUS
 62
    3
 10
146.85474881876971
 20
129.93914579419962
 11
146.34687699999995
 21
129.98092448071924
  0
LINE
  8
_0-3_0_5
  6
CONTINUOUS
 62
    3
 10
146.34687699999995
 20
129.98092448071924
 11
145.83900518123019
 21
129.93914579419962
  0
LINE
  8
_0-3_0_5
  6
CONTINUOUS
 62
    3
 10
145.83900518123019
 20
129.93914579419962
 11
145.34656479067823
 21
129.81507915888957
  0
LINE
  8
_0-3_0_5
  6
CONTINUOUS
 62
    3
 10
145.34656479067823
 20
129.81507915888957
 11
144.88451838042408
 21
129.61249427672229
  0
LINE
  8
_0-3_0_5
  6
CONTINUOUS
 62
    3
 10
144.88451838042408
 20
129.61249427672229
 11
144.4669049968366
 21
129.33754658682949
  0
LINE
  8
_0-3_0_5
  6
CONTINUOUS
 62
    3
 10
144.4669049968366
 20
129.33754658682949
 11
144.10641361125349
 21
128.99859023563835
  0
LINE
  8
_0-3_0_5
  6
CONTINUOUS
 62
    3
 10
144.10641361125349
 20
128.99859023563835
 11
143.81399757200828
 21
128.60592424035963
  0
LINE
  8
_0-3_0_5
  6
CONTINUOUS
 62
    3
 10
143.81399757200828
 20
128.60592424035963
 11
143.59854179248373
 21
128.17147955856123
  0
LINE
  8
_0-3_0_5
  6
CONTINUOUS
 62
    3
 10
143.59854179248373
 20
128.17147955856123
 11
143.46659278751486
 21
127.70845657206006
  0
LINE
  8
_0-3_0_5
  6
CONTINUOUS
 62
    3
 10
143.46659278751486
 20
127.70845657206006
 11
143.42215976084822
 21
127.23092399999997
  0
LINE
  8
_0-3_0_5
  6
CONTINUOUS
 62
    3
 10
145.17215899999997
 20
124.23092399999996
 11
157.42215899999997
 21
124.23092399999996
  0
LINE
  8
_0-3_0_5
  6
CONTINUOUS
 62
    3
 10
157.42215899999997
 20
130.23092399999996
 11
145.17215899999997
 21
130.23092399999996
  0
LINE
  8
_0-3_0_5
  6
CONTINUOUS
 62
    3
 10
146.2109089999999
 20
123.88092399999982
 11
157.42215899999997
 21
123.88092399999982
  0
LINE
  8
_0-3_0_5
  6
CONTINUOUS
 62
    7
 10
128.63340900000003
 20
141.38092399999982
 11
128.63340900000003
 21
142.63092399999982
  0
LINE
  8
_0-3_0_5
  6
CONTINUOUS
 62
    3
 10
129.37290899999994
 20
142.63092399999982
 11
129.37290899999994
 21
142.12042399999996
  0
LINE
  8
_0-3_0_5
  6
CONTINUOUS
 62
    3
 10
129.37290899999994
 20
142.12042399999996
 11
128.63340900000003
 21
141.38092399999982
  0
LINE
  8
_0-3_0_5
  6
CONTINUOUS
 62
    3
 10
129.67215899999997
 20
142.63092399999982
 11
117.42215899999997
 21
142.63092399999982
  0
LINE
  8
_0-3_0_5
  6
CONTINUOUS
 62
    3
 10
128.63340900000003
 20
141.38092399999982
 11
117.42215899999997
 21
141.38092399999982
  0
LINE
  8
_0-3_0_5
  6
CONTINUOUS
 62
    3
 10
117.42215899999997
 20
142.12042399999996
 11
129.37290899999994
 21
142.12042399999996
  0
LINE
  8
_0-3_0_5
  6
CONTINUOUS
 62
    3
 10
117.42215899999997
 20
142.88092672520645
 11
118.42628249650605
 21
142.92270536302087
  0
LINE
  8
_0-3_0_5
  6
CONTINUOUS
 62
    3
 10
118.42628249650605
 20
142.92270536302087
 11
119.3998962086818
 21
143.04677185369513
  0
LINE
  8
_0-3_0_5
  6
CONTINUOUS
 62
    3
 10
119.3998962086818
 20
143.04677185369513
 11
120.31341737655507
 21
143.2493564996908
  0
LINE
  8
_0-3_0_5
  6
CONTINUOUS
 62
    3
 10
120.31341737655507
 20
143.2493564996908
 11
121.13908912170403
 21
143.52430386905203
  0
LINE
  8
_0-3_0_5
  6
CONTINUOUS
 62
    3
 10
121.13908912170403
 20
143.52430386905203
 11
121.85182382596243
 21
143.86325982509089
  0
LINE
  8
_0-3_0_5
  6
CONTINUOUS
 62
    3
 10
121.85182382596243
 20
143.86325982509089
 11
122.42996540600249
 21
144.25592536260314
  0
LINE
  8
_0-3_0_5
  6
CONTINUOUS
 62
    3
 10
122.42996540600249
 20
144.25592536260314
 11
122.8559473224685
 21
144.6903695379298
  0
LINE
  8
_0-3_0_5
  6
CONTINUOUS
 62
    3
 10
122.8559473224685
 20
144.6903695379298
 11
123.11682633038586
 21
145.15339198464292
  0
LINE
  8
_0-3_0_5
  6
CONTINUOUS
 62
    3
 10
123.11682633038586
 20
145.15339198464292
 11
123.20467575311015
 21
145.63092399999982
  0
LINE
  8
_0-3_0_5
  6
CONTINUOUS
 62
    3
 10
123.20467575311015
 20
145.63092399999982
 11
123.11682633038586
 21
146.10845601535672
  0
LINE
  8
_0-3_0_5
  6
CONTINUOUS
 62
    3
 10
123.11682633038586
 20
146.10845601535672
 11
122.8559473224685
 21
146.57147846206985
  0
LINE
  8
_0-3_0_5
  6
CONTINUOUS
 62
    3
 10
122.8559473224685
 20
146.57147846206985
 11
122.42996540600249
 21
147.00592263739651
  0
LINE
  8
_0-3_0_5
  6
CONTINUOUS
 62
    3
 10
122.42996540600249
 20
147.00592263739651
 11
121.85182382596241
 21
147.39858817490875
  0
LINE
  8
_0-3_0_5
  6
CONTINUOUS
 62
    3
 10
121.85182382596241
 20
147.39858817490875
 11
121.13908912170403
 21
147.73754413094761
  0
LINE
  8
_0-3_0_5
  6
CONTINUOUS
 62
    3
 10
121.13908912170403
 20
147.73754413094761
 11
120.31341737655505
 21
148.01249150030884
  0
LINE
  8
_0-3_0_5
  6
CONTINUOUS
 62
    3
 10
120.31341737655505
 20
148.01249150030884
 11
119.3998962086818
 21
148.21507614630451
  0
LINE
  8
_0-3_0_5
  6
CONTINUOUS
 62
    3
 10
119.3998962086818
 20
148.21507614630451
 11
118.42628249650605
 21
148.33914263697878
  0
LINE
  8
_0-3_0_5
  6
CONTINUOUS
 62
    3
 10
118.42628249650605
 20
148.33914263697878
 11
117.42215899999997
 21
148.3809212747932
  0
LINE
  8
_0-3_0_5
  6
CONTINUOUS
 62
    3
 10
131.42215923915182
 20
145.63092399999982
 11
131.37772621248519
 21
146.10845657205991
  0
LINE
  8
_0-3_0_5
  6
CONTINUOUS
 62
    3
 10
131.37772621248519
 20
146.10845657205991
 11
131.24577720751631
 21
146.57147955856109
  0
LINE
  8
_0-3_0_5
  6
CONTINUOUS
 62
    3
 10
131.24577720751631
 20
146.57147955856109
 11
131.03032142799179
 21
147.00592424035946
  0
LINE
  8
_0-3_0_5
  6
CONTINUOUS
 62
    3
 10
131.03032142799179
 20
147.00592424035946
 11
130.73790538874655
 21
147.39859023563821
  0
LINE
  8
_0-3_0_5
  6
CONTINUOUS
 62
    3
 10
130.73790538874655
 20
147.39859023563821
 11
130.37741400316347
 21
147.73754658682935
  0
LINE
  8
_0-3_0_5
  6
CONTINUOUS
 62
    3
 10
130.37741400316347
 20
147.73754658682935
 11
129.95980061957596
 21
148.01249427672215
  0
LINE
  8
_0-3_0_5
  6
CONTINUOUS
 62
    3
 10
129.95980061957596
 20
148.01249427672215
 11
129.49775420932181
 21
148.21507915888944
  0
LINE
  8
_0-3_0_5
  6
CONTINUOUS
 62
    3
 10
129.49775420932181
 20
148.21507915888944
 11
129.00531381876985
 21
148.33914579419948
  0
LINE
  8
_0-3_0_5
  6
CONTINUOUS
 62
    3
 10
129.00531381876985
 20
148.33914579419948
 11
128.49744200000009
 21
148.3809244807191
  0
LINE
  8
_0-3_0_5
  6
CONTINUOUS
 62
    3
 10
128.49744200000009
 20
148.3809244807191
 11
127.98957018123033
 21
148.33914579419948
  0
LINE
  8
_0-3_0_5
  6
CONTINUOUS
 62
    3
 10
127.98957018123033
 20
148.33914579419948
 11
127.49712979067836
 21
148.21507915888944
  0
LINE
  8
_0-3_0_5
  6
CONTINUOUS
 62
    3
 10
127.49712979067836
 20
148.21507915888944
 11
127.03508338042423
 21
148.01249427672215
  0
LINE
  8
_0-3_0_5
  6
CONTINUOUS
 62
    3
 10
127.03508338042423
 20
148.01249427672215
 11
126.61746999683673
 21
147.73754658682935
  0
LINE
  8
_0-3_0_5
  6
CONTINUOUS
 62
    3
 10
126.61746999683673
 20
147.73754658682935
 11
126.25697861125363
 21
147.39859023563821
  0
LINE
  8
_0-3_0_5
  6
CONTINUOUS
 62
    3
 10
126.25697861125363
 20
147.39859023563821
 11
125.9645625720084
 21
147.00592424035946
  0
LINE
  8
_0-3_0_5
  6
CONTINUOUS
 62
    3
 10
125.9645625720084
 20
147.00592424035946
 11
125.74910679248387
 21
146.57147955856109
  0
LINE
  8
_0-3_0_5
  6
CONTINUOUS
 62
    3
 10
125.74910679248387
 20
146.57147955856109
 11
125.617157787515
 21
146.10845657205991
  0
LINE
  8
_0-3_0_5
  6
CONTINUOUS
 62
    3
 10
125.617157787515
 20
146.10845657205991
 11
125.57272476084836
 21
145.63092399999982
  0
LINE
  8
_0-3_0_5
  6
CONTINUOUS
 62
    3
 10
125.57272476084836
 20
145.63092399999982
 11
125.617157787515
 21
145.15339142793974
  0
LINE
  8
_0-3_0_5
  6
CONTINUOUS
 62
    3
 10
125.617157787515
 20
145.15339142793974
 11
125.74910679248387
 21
144.69036844143855
  0
LINE
  8
_0-3_0_5
  6
CONTINUOUS
 62
    3
 10
125.74910679248387
 20
144.69036844143855
 11
125.96456257200839
 21
144.25592375964018
  0
LINE
  8
_0-3_0_5
  6
CONTINUOUS
 62
    3
 10
125.96456257200839
 20
144.25592375964018
 11
126.25697861125361
 21
143.86325776436144
  0
LINE
  8
_0-3_0_5
  6
CONTINUOUS
 62
    3
 10
126.25697861125361
 20
143.86325776436144
 11
126.61746999683673
 21
143.52430141317029
  0
LINE
  8
_0-3_0_5
  6
CONTINUOUS
 62
    3
 10
126.61746999683673
 20
143.52430141317029
 11
127.03508338042421
 21
143.24935372327749
  0
LINE
  8
_0-3_0_5
  6
CONTINUOUS
 62
    3
 10
127.03508338042421
 20
143.24935372327749
 11
127.49712979067836
 21
143.04676884111021
  0
LINE
  8
_0-3_0_5
  6
CONTINUOUS
 62
    3
 10
127.49712979067836
 20
143.04676884111021
 11
127.98957018123033
 21
142.92270220580016
  0
LINE
  8
_0-3_0_5
  6
CONTINUOUS
 62
    3
 10
127.98957018123033
 20
142.92270220580016
 11
128.49744200000009
 21
142.88092351928054
  0
LINE
  8
_0-3_0_5
  6
CONTINUOUS
 62
    3
 10
128.49744200000009
 20
142.88092351928054
 11
129.00531381876985
 21
142.92270220580016
  0
LINE
  8
_0-3_0_5
  6
CONTINUOUS
 62
    3
 10
129.00531381876985
 20
142.92270220580016
 11
129.49775420932181
 21
143.04676884111021
  0
LINE
  8
_0-3_0_5
  6
CONTINUOUS
 62
    3
 10
129.49775420932181
 20
143.04676884111021
 11
129.95980061957596
 21
143.24935372327749
  0
LINE
  8
_0-3_0_5
  6
CONTINUOUS
 62
    3
 10
129.95980061957596
 20
143.24935372327749
 11
130.37741400316344
 21
143.52430141317029
  0
LINE
  8
_0-3_0_5
  6
CONTINUOUS
 62
    3
 10
130.37741400316344
 20
143.52430141317029
 11
130.73790538874655
 21
143.86325776436144
  0
LINE
  8
_0-3_0_5
  6
CONTINUOUS
 62
    3
 10
130.73790538874655
 20
143.86325776436144
 11
131.03032142799177
 21
144.25592375964015
  0
LINE
  8
_0-3_0_5
  6
CONTINUOUS
 62
    3
 10
131.03032142799177
 20
144.25592375964015
 11
131.24577720751631
 21
144.69036844143855
  0
LINE
  8
_0-3_0_5
  6
CONTINUOUS
 62
    3
 10
131.24577720751631
 20
144.69036844143855
 11
131.37772621248519
 21
145.15339142793971
  0
LINE
  8
_0-3_0_5
  6
CONTINUOUS
 62
    3
 10
131.37772621248519
 20
145.15339142793971
 11
131.42215923915182
 21
145.63092399999982
  0
LINE
  8
_0-3_0_5
  6
CONTINUOUS
 62
    3
 10
117.42215899999997
 20
148.63092399999982
 11
129.67215899999997
 21
148.63092399999982
  0
ARC
  8
_0-3_0_5
  6
CONTINUOUS
 62
    3
 10
127.975731
 20
145.63092399999982
 40
3.4464290000000002
 50
299.48712599999999
 51
60.512873999999968
  0
LINE
  8
_0-3_0_5
  6
CONTINUOUS
 62
    3
 10
117.42215899999997
 20
194.39365499999985
 11
116.55391811166531
 21
194.35187632078342
  0
LINE
  8
_0-3_0_5
  6
CONTINUOUS
 62
    3
 10
116.55391811166531
 20
194.35187632078342
 11
115.71205828337162
 21
194.2278097071611
  0
LINE
  8
_0-3_0_5
  6
CONTINUOUS
 62
    3
 10
115.71205828337162
 20
194.2278097071611
 11
114.92215899999997
 21
194.02522486040706
  0
LINE
  8
_0-3_0_5
  6
CONTINUOUS
 62
    3
 10
114.92215899999997
 20
194.02522486040706
 11
114.20822095156727
 21
193.75027721857705
  0
LINE
  8
_0-3_0_5
  6
CONTINUOUS
 62
    3
 10
114.20822095156727
 20
193.75027721857705
 11
113.59193678440508
 21
193.41132092663784
  0
LINE
  8
_0-3_0_5
  6
CONTINUOUS
 62
    3
 10
113.59193678440508
 20
193.41132092663784
 11
113.09203198107777
 21
193.01865499999985
  0
LINE
  8
_0-3_0_5
  6
CONTINUOUS
 62
    3
 10
113.09203198107777
 20
193.01865499999985
 11
112.72369589607042
 21
192.58421039414543
  0
LINE
  8
_0-3_0_5
  6
CONTINUOUS
 62
    3
 10
112.72369589607042
 20
192.58421039414543
 11
112.49812023493892
 21
192.1211874885839
  0
LINE
  8
_0-3_0_5
  6
CONTINUOUS
 62
    3
 10
112.49812023493892
 20
192.1211874885839
 11
112.42215899999997
 21
191.64365499999985
  0
LINE
  8
_0-3_0_5
  6
CONTINUOUS
 62
    3
 10
112.42215899999997
 20
191.64365499999985
 11
112.49812023493892
 21
191.16612251141581
  0
LINE
  8
_0-3_0_5
  6
CONTINUOUS
 62
    3
 10
112.49812023493892
 20
191.16612251141581
 11
112.72369589607042
 21
190.70309960585425
  0
LINE
  8
_0-3_0_5
  6
CONTINUOUS
 62
    3
 10
112.72369589607042
 20
190.70309960585425
 11
113.09203198107778
 21
190.26865499999985
  0
LINE
  8
_0-3_0_5
  6
CONTINUOUS
 62
    3
 10
113.09203198107778
 20
190.26865499999985
 11
113.59193678440508
 21
189.87598907336186
  0
LINE
  8
_0-3_0_5
  6
CONTINUOUS
 62
    3
 10
113.59193678440508
 20
189.87598907336186
 11
114.20822095156727
 21
189.53703278142265
  0
LINE
  8
_0-3_0_5
  6
CONTINUOUS
 62
    3
 10
114.20822095156727
 20
189.53703278142265
 11
114.92215899999997
 21
189.26208513959264
  0
LINE
  8
_0-3_0_5
  6
CONTINUOUS
 62
    3
 10
114.92215899999997
 20
189.26208513959264
 11
115.71205828337162
 21
189.05950029283861
  0
LINE
  8
_0-3_0_5
  6
CONTINUOUS
 62
    3
 10
115.71205828337162
 20
189.05950029283861
 11
116.55391811166531
 21
188.93543367921629
  0
LINE
  8
_0-3_0_5
  6
CONTINUOUS
 62
    3
 10
116.55391811166531
 20
188.93543367921629
 11
117.42215899999997
 21
188.89365499999985
  0
ARC
  8
_0-3_0_5
  6
CONTINUOUS
 62
    3
 10
108.6471590000001
 20
191.64365499999985
 40
4.2249999999999996
 50
134.76026999999999
 51
225.23972999999998
  0
LINE
  8
_0-3_0_5
  6
CONTINUOUS
 62
    3
 10
106.97600699999998
 20
188.89365499999985
 11
107.41947805123831
 21
188.93543367921629
  0
LINE
  8
_0-3_0_5
  6
CONTINUOUS
 62
    3
 10
107.41947805123831
 20
188.93543367921629
 11
107.84947445899195
 21
189.05950029283861
  0
LINE
  8
_0-3_0_5
  6
CONTINUOUS
 62
    3
 10
107.84947445899195
 20
189.05950029283861
 11
108.25293099999998
 21
189.26208513959264
  0
LINE
  8
_0-3_0_5
  6
CONTINUOUS
 62
    3
 10
108.25293099999998
 20
189.26208513959264
 11
108.61758885142272
 21
189.53703278142265
  0
LINE
  8
_0-3_0_5
  6
CONTINUOUS
 62
    3
 10
108.61758885142272
 20
189.53703278142265
 11
108.93236806897049
 21
189.87598907336186
  0
LINE
  8
_0-3_0_5
  6
CONTINUOUS
 62
    3
 10
108.93236806897049
 20
189.87598907336186
 11
109.18770424540406
 21
190.26865499999985
  0
LINE
  8
_0-3_0_5
  6
CONTINUOUS
 62
    3
 10
109.18770424540406
 20
190.26865499999985
 11
109.37583912020884
 21
190.70309960585428
  0
LINE
  8
_0-3_0_5
  6
CONTINUOUS
 62
    3
 10
109.37583912020884
 20
190.70309960585428
 11
109.49105631041471
 21
191.16612251141581
  0
LINE
  8
_0-3_0_5
  6
CONTINUOUS
 62
    3
 10
109.49105631041471
 20
191.16612251141581
 11
109.52985499999998
 21
191.64365499999985
  0
LINE
  8
_0-3_0_5
  6
CONTINUOUS
 62
    3
 10
109.52985499999998
 20
191.64365499999985
 11
109.49105631041471
 21
192.1211874885839
  0
LINE
  8
_0-3_0_5
  6
CONTINUOUS
 62
    3
 10
109.49105631041471
 20
192.1211874885839
 11
109.37583912020884
 21
192.58421039414543
  0
LINE
  8
_0-3_0_5
  6
CONTINUOUS
 62
    3
 10
109.37583912020884
 20
192.58421039414543
 11
109.18770424540406
 21
193.01865499999985
  0
LINE
  8
_0-3_0_5
  6
CONTINUOUS
 62
    3
 10
109.18770424540406
 20
193.01865499999985
 11
108.9323680689705
 21
193.41132092663784
  0
LINE
  8
_0-3_0_5
  6
CONTINUOUS
 62
    3
 10
108.9323680689705
 20
193.41132092663784
 11
108.61758885142274
 21
193.75027721857705
  0
LINE
  8
_0-3_0_5
  6
CONTINUOUS
 62
    3
 10
108.61758885142274
 20
193.75027721857705
 11
108.25293099999999
 21
194.02522486040706
  0
LINE
  8
_0-3_0_5
  6
CONTINUOUS
 62
    3
 10
108.25293099999999
 20
194.02522486040706
 11
107.84947445899196
 21
194.2278097071611
  0
LINE
  8
_0-3_0_5
  6
CONTINUOUS
 62
    3
 10
107.84947445899196
 20
194.2278097071611
 11
107.41947805123831
 21
194.35187632078342
  0
LINE
  8
_0-3_0_5
  6
CONTINUOUS
 62
    3
 10
107.41947805123831
 20
194.35187632078342
 11
106.97600699999998
 21
194.39365499999985
  0
LINE
  8
_0-3_0_5
  6
CONTINUOUS
 62
    3
 10
106.97600699999998
 20
194.39365499999985
 11
106.53253594876165
 21
194.35187632078342
  0
LINE
  8
_0-3_0_5
  6
CONTINUOUS
 62
    3
 10
106.53253594876165
 20
194.35187632078342
 11
106.10253954100801
 21
194.2278097071611
  0
LINE
  8
_0-3_0_5
  6
CONTINUOUS
 62
    3
 10
106.10253954100801
 20
194.2278097071611
 11
105.69908299999999
 21
194.02522486040706
  0
LINE
  8
_0-3_0_5
  6
CONTINUOUS
 62
    3
 10
105.69908299999999
 20
194.02522486040706
 11
105.33442514857724
 21
193.75027721857705
  0
LINE
  8
_0-3_0_5
  6
CONTINUOUS
 62
    3
 10
105.33442514857724
 20
193.75027721857705
 11
105.01964593102947
 21
193.41132092663784
  0
LINE
  8
_0-3_0_5
  6
CONTINUOUS
 62
    3
 10
105.01964593102947
 20
193.41132092663784
 11
104.7643097545959
 21
193.01865499999985
  0
LINE
  8
_0-3_0_5
  6
CONTINUOUS
 62
    3
 10
104.7643097545959
 20
193.01865499999985
 11
104.57617487979114
 21
192.58421039414546
  0
LINE
  8
_0-3_0_5
  6
CONTINUOUS
 62
    3
 10
104.57617487979114
 20
192.58421039414546
 11
104.46095768958526
 21
192.12118748858393
  0
LINE
  8
_0-3_0_5
  6
CONTINUOUS
 62
    3
 10
104.46095768958526
 20
192.12118748858393
 11
104.42215899999998
 21
191.64365499999985
  0
LINE
  8
_0-3_0_5
  6
CONTINUOUS
 62
    3
 10
104.42215899999998
 20
191.64365499999985
 11
104.46095768958526
 21
191.16612251141581
  0
LINE
  8
_0-3_0_5
  6
CONTINUOUS
 62
    3
 10
104.46095768958526
 20
191.16612251141581
 11
104.57617487979113
 21
190.70309960585428
  0
LINE
  8
_0-3_0_5
  6
CONTINUOUS
 62
    3
 10
104.57617487979113
 20
190.70309960585428
 11
104.7643097545959
 21
190.26865499999985
  0
LINE
  8
_0-3_0_5
  6
CONTINUOUS
 62
    3
 10
104.7643097545959
 20
190.26865499999985
 11
105.01964593102946
 21
189.87598907336186
  0
LINE
  8
_0-3_0_5
  6
CONTINUOUS
 62
    3
 10
105.01964593102946
 20
189.87598907336186
 11
105.33442514857722
 21
189.53703278142268
  0
LINE
  8
_0-3_0_5
  6
CONTINUOUS
 62
    3
 10
105.33442514857722
 20
189.53703278142268
 11
105.69908299999997
 21
189.26208513959264
  0
LINE
  8
_0-3_0_5
  6
CONTINUOUS
 62
    3
 10
105.69908299999997
 20
189.26208513959264
 11
106.102539541008
 21
189.05950029283861
  0
LINE
  8
_0-3_0_5
  6
CONTINUOUS
 62
    3
 10
106.102539541008
 20
189.05950029283861
 11
106.53253594876163
 21
188.93543367921629
  0
LINE
  8
_0-3_0_5
  6
CONTINUOUS
 62
    3
 10
106.53253594876163
 20
188.93543367921629
 11
106.97600699999997
 21
188.89365499999985
  0
LINE
  8
_0-3_0_5
  6
CONTINUOUS
 62
    3
 10
105.67215899999997
 20
194.64365499999985
 11
117.42215899999997
 21
194.64365499999985
  0
LINE
  8
_0-3_0_5
  6
CONTINUOUS
 62
    3
 10
117.42215899999997
 20
188.64365499999985
 11
105.67215899999997
 21
188.64365499999985
  0
LINE
  8
_0-3_0_5
  6
CONTINUOUS
 62
    3
 10
107.8971590000001
 20
148.63092399999982
 11
107.8971590000001
 21
188.64365499999985
  0
LINE
  8
_0-3_0_5
  6
CONTINUOUS
 62
    3
 10
127.86831200000006
 20
188.89365499999985
 11
128.31178305123839
 21
188.93543367921629
  0
LINE
  8
_0-3_0_5
  6
CONTINUOUS
 62
    3
 10
128.31178305123839
 20
188.93543367921629
 11
128.74177945899203
 21
189.05950029283861
  0
LINE
  8
_0-3_0_5
  6
CONTINUOUS
 62
    3
 10
128.74177945899203
 20
189.05950029283861
 11
129.14523600000007
 21
189.26208513959264
  0
LINE
  8
_0-3_0_5
  6
CONTINUOUS
 62
    3
 10
129.14523600000007
 20
189.26208513959264
 11
129.50989385142282
 21
189.53703278142265
  0
LINE
  8
_0-3_0_5
  6
CONTINUOUS
 62
    3
 10
129.50989385142282
 20
189.53703278142265
 11
129.82467306897058
 21
189.87598907336186
  0
LINE
  8
_0-3_0_5
  6
CONTINUOUS
 62
    3
 10
129.82467306897058
 20
189.87598907336186
 11
130.08000924540414
 21
190.26865499999985
  0
LINE
  8
_0-3_0_5
  6
CONTINUOUS
 62
    3
 10
130.08000924540414
 20
190.26865499999985
 11
130.26814412020892
 21
190.70309960585428
  0
LINE
  8
_0-3_0_5
  6
CONTINUOUS
 62
    3
 10
130.26814412020892
 20
190.70309960585428
 11
130.38336131041478
 21
191.16612251141581
  0
LINE
  8
_0-3_0_5
  6
CONTINUOUS
 62
    3
 10
130.38336131041478
 20
191.16612251141581
 11
130.42216000000005
 21
191.64365499999985
  0
LINE
  8
_0-3_0_5
  6
CONTINUOUS
 62
    3
 10
130.42216000000005
 20
191.64365499999985
 11
130.38336131041478
 21
192.1211874885839
  0
LINE
  8
_0-3_0_5
  6
CONTINUOUS
 62
    3
 10
130.38336131041478
 20
192.1211874885839
 11
130.26814412020892
 21
192.58421039414543
  0
LINE
  8
_0-3_0_5
  6
CONTINUOUS
 62
    3
 10
130.26814412020892
 20
192.58421039414543
 11
130.08000924540414
 21
193.01865499999985
  0
LINE
  8
_0-3_0_5
  6
CONTINUOUS
 62
    3
 10
130.08000924540414
 20
193.01865499999985
 11
129.82467306897058
 21
193.41132092663784
  0
LINE
  8
_0-3_0_5
  6
CONTINUOUS
 62
    3
 10
129.82467306897058
 20
193.41132092663784
 11
129.50989385142282
 21
193.75027721857705
  0
LINE
  8
_0-3_0_5
  6
CONTINUOUS
 62
    3
 10
129.50989385142282
 20
193.75027721857705
 11
129.14523600000007
 21
194.02522486040706
  0
LINE
  8
_0-3_0_5
  6
CONTINUOUS
 62
    3
 10
129.14523600000007
 20
194.02522486040706
 11
128.74177945899203
 21
194.2278097071611
  0
LINE
  8
_0-3_0_5
  6
CONTINUOUS
 62
    3
 10
128.74177945899203
 20
194.2278097071611
 11
128.31178305123839
 21
194.35187632078342
  0
LINE
  8
_0-3_0_5
  6
CONTINUOUS
 62
    3
 10
128.31178305123839
 20
194.35187632078342
 11
127.86831200000006
 21
194.39365499999985
  0
LINE
  8
_0-3_0_5
  6
CONTINUOUS
 62
    3
 10
127.86831200000006
 20
194.39365499999985
 11
127.42484094876173
 21
194.35187632078342
  0
LINE
  8
_0-3_0_5
  6
CONTINUOUS
 62
    3
 10
127.42484094876173
 20
194.35187632078342
 11
126.99484454100809
 21
194.2278097071611
  0
LINE
  8
_0-3_0_5
  6
CONTINUOUS
 62
    3
 10
126.99484454100809
 20
194.2278097071611
 11
126.59138800000007
 21
194.02522486040706
  0
LINE
  8
_0-3_0_5
  6
CONTINUOUS
 62
    3
 10
126.59138800000007
 20
194.02522486040706
 11
126.22673014857732
 21
193.75027721857705
  0
LINE
  8
_0-3_0_5
  6
CONTINUOUS
 62
    3
 10
126.22673014857732
 20
193.75027721857705
 11
125.91195093102955
 21
193.41132092663784
  0
LINE
  8
_0-3_0_5
  6
CONTINUOUS
 62
    3
 10
125.91195093102955
 20
193.41132092663784
 11
125.65661475459598
 21
193.01865499999985
  0
LINE
  8
_0-3_0_5
  6
CONTINUOUS
 62
    3
 10
125.65661475459598
 20
193.01865499999985
 11
125.46847987979122
 21
192.58421039414546
  0
LINE
  8
_0-3_0_5
  6
CONTINUOUS
 62
    3
 10
125.46847987979122
 20
192.58421039414546
 11
125.35326268958534
 21
192.12118748858393
  0
LINE
  8
_0-3_0_5
  6
CONTINUOUS
 62
    3
 10
125.35326268958534
 20
192.12118748858393
 11
125.31446400000006
 21
191.64365499999985
  0
LINE
  8
_0-3_0_5
  6
CONTINUOUS
 62
    3
 10
125.31446400000006
 20
191.64365499999985
 11
125.35326268958534
 21
191.16612251141581
  0
LINE
  8
_0-3_0_5
  6
CONTINUOUS
 62
    3
 10
125.35326268958534
 20
191.16612251141581
 11
125.4684798797912
 21
190.70309960585428
  0
LINE
  8
_0-3_0_5
  6
CONTINUOUS
 62
    3
 10
125.4684798797912
 20
190.70309960585428
 11
125.65661475459598
 21
190.26865499999985
  0
LINE
  8
_0-3_0_5
  6
CONTINUOUS
 62
    3
 10
125.65661475459598
 20
190.26865499999985
 11
125.91195093102954
 21
189.87598907336186
  0
LINE
  8
_0-3_0_5
  6
CONTINUOUS
 62
    3
 10
125.91195093102954
 20
189.87598907336186
 11
126.2267301485773
 21
189.53703278142268
  0
LINE
  8
_0-3_0_5
  6
CONTINUOUS
 62
    3
 10
126.2267301485773
 20
189.53703278142268
 11
126.59138800000005
 21
189.26208513959264
  0
LINE
  8
_0-3_0_5
  6
CONTINUOUS
 62
    3
 10
126.59138800000005
 20
189.26208513959264
 11
126.99484454100808
 21
189.05950029283861
  0
LINE
  8
_0-3_0_5
  6
CONTINUOUS
 62
    3
 10
126.99484454100808
 20
189.05950029283861
 11
127.42484094876171
 21
188.93543367921629
  0
LINE
  8
_0-3_0_5
  6
CONTINUOUS
 62
    3
 10
127.42484094876171
 20
188.93543367921629
 11
127.86831200000005
 21
188.89365499999985
  0
LINE
  8
_0-3_0_5
  6
CONTINUOUS
 62
    3
 10
117.42215899999997
 20
188.89365499999985
 11
116.55391811166531
 21
188.93543367921629
  0
LINE
  8
_0-3_0_5
  6
CONTINUOUS
 62
    3
 10
116.55391811166531
 20
188.93543367921629
 11
115.71205828337162
 21
189.05950029283861
  0
LINE
  8
_0-3_0_5
  6
CONTINUOUS
 62
    3
 10
115.71205828337162
 20
189.05950029283861
 11
114.92215899999997
 21
189.26208513959264
  0
LINE
  8
_0-3_0_5
  6
CONTINUOUS
 62
    3
 10
114.92215899999997
 20
189.26208513959264
 11
114.20822095156727
 21
189.53703278142265
  0
LINE
  8
_0-3_0_5
  6
CONTINUOUS
 62
    3
 10
114.20822095156727
 20
189.53703278142265
 11
113.59193678440508
 21
189.87598907336186
  0
LINE
  8
_0-3_0_5
  6
CONTINUOUS
 62
    3
 10
113.59193678440508
 20
189.87598907336186
 11
113.09203198107777
 21
190.26865499999985
  0
LINE
  8
_0-3_0_5
  6
CONTINUOUS
 62
    3
 10
113.09203198107777
 20
190.26865499999985
 11
112.72369589607042
 21
190.70309960585428
  0
LINE
  8
_0-3_0_5
  6
CONTINUOUS
 62
    3
 10
112.72369589607042
 20
190.70309960585428
 11
112.49812023493892
 21
191.16612251141581
  0
LINE
  8
_0-3_0_5
  6
CONTINUOUS
 62
    3
 10
112.49812023493892
 20
191.16612251141581
 11
112.42215899999997
 21
191.64365499999985
  0
LINE
  8
_0-3_0_5
  6
CONTINUOUS
 62
    3
 10
112.42215899999997
 20
191.64365499999985
 11
112.49812023493892
 21
192.1211874885839
  0
LINE
  8
_0-3_0_5
  6
CONTINUOUS
 62
    3
 10
112.49812023493892
 20
192.1211874885839
 11
112.72369589607042
 21
192.58421039414546
  0
LINE
  8
_0-3_0_5
  6
CONTINUOUS
 62
    3
 10
112.72369589607042
 20
192.58421039414546
 11
113.09203198107777
 21
193.01865499999985
  0
LINE
  8
_0-3_0_5
  6
CONTINUOUS
 62
    3
 10
113.09203198107777
 20
193.01865499999985
 11
113.59193678440508
 21
193.41132092663784
  0
LINE
  8
_0-3_0_5
  6
CONTINUOUS
 62
    3
 10
113.59193678440508
 20
193.41132092663784
 11
114.20822095156727
 21
193.75027721857705
  0
LINE
  8
_0-3_0_5
  6
CONTINUOUS
 62
    3
 10
114.20822095156727
 20
193.75027721857705
 11
114.92215899999997
 21
194.02522486040706
  0
LINE
  8
_0-3_0_5
  6
CONTINUOUS
 62
    3
 10
114.92215899999997
 20
194.02522486040706
 11
115.71205828337162
 21
194.2278097071611
  0
LINE
  8
_0-3_0_5
  6
CONTINUOUS
 62
    3
 10
115.71205828337162
 20
194.2278097071611
 11
116.55391811166531
 21
194.35187632078342
  0
LINE
  8
_0-3_0_5
  6
CONTINUOUS
 62
    3
 10
116.55391811166531
 20
194.35187632078342
 11
117.42215899999997
 21
194.39365499999985
  0
LINE
  8
_0-3_0_5
  6
CONTINUOUS
 62
    3
 10
129.17215899999997
 20
194.64365499999985
 11
117.42215899999997
 21
194.64365499999985
  0
LINE
  8
_0-3_0_5
  6
CONTINUOUS
 62
    3
 10
117.42215899999997
 20
188.64365499999985
 11
129.17215899999997
 21
188.64365499999985
  0
ARC
  8
_0-3_0_5
  6
CONTINUOUS
 62
    3
 10
126.19715900000006
 20
191.64365499999985
 40
4.2249999999999996
 50
314.76026999999999
 51
45.239729999999909
  0
LINE
  8
_0-3_0_5
  6
CONTINUOUS
 62
    3
 10
171.42215923915182
 20
127.23092399999996
 11
171.37772621248519
 21
127.70845657206004
  0
LINE
  8
_0-3_0_5
  6
CONTINUOUS
 62
    3
 10
171.37772621248519
 20
127.70845657206004
 11
171.24577720751631
 21
128.17147955856123
  0
LINE
  8
_0-3_0_5
  6
CONTINUOUS
 62
    3
 10
171.24577720751631
 20
128.17147955856123
 11
171.03032142799179
 21
128.6059242403596
  0
LINE
  8
_0-3_0_5
  6
CONTINUOUS
 62
    3
 10
171.03032142799179
 20
128.6059242403596
 11
170.73790538874655
 21
128.99859023563835
  0
LINE
  8
_0-3_0_5
  6
CONTINUOUS
 62
    3
 10
170.73790538874655
 20
128.99859023563835
 11
170.37741400316347
 21
129.33754658682949
  0
LINE
  8
_0-3_0_5
  6
CONTINUOUS
 62
    3
 10
170.37741400316347
 20
129.33754658682949
 11
169.95980061957596
 21
129.61249427672229
  0
LINE
  8
_0-3_0_5
  6
CONTINUOUS
 62
    3
 10
169.95980061957596
 20
129.61249427672229
 11
169.49775420932181
 21
129.81507915888957
  0
LINE
  8
_0-3_0_5
  6
CONTINUOUS
 62
    3
 10
169.49775420932181
 20
129.81507915888957
 11
169.00531381876985
 21
129.93914579419962
  0
LINE
  8
_0-3_0_5
  6
CONTINUOUS
 62
    3
 10
169.00531381876985
 20
129.93914579419962
 11
168.49744200000009
 21
129.98092448071924
  0
LINE
  8
_0-3_0_5
  6
CONTINUOUS
 62
    3
 10
168.49744200000009
 20
129.98092448071924
 11
167.98957018123033
 21
129.93914579419962
  0
LINE
  8
_0-3_0_5
  6
CONTINUOUS
 62
    3
 10
167.98957018123033
 20
129.93914579419962
 11
167.49712979067837
 21
129.81507915888957
  0
LINE
  8
_0-3_0_5
  6
CONTINUOUS
 62
    3
 10
167.49712979067837
 20
129.81507915888957
 11
167.03508338042423
 21
129.61249427672229
  0
LINE
  8
_0-3_0_5
  6
CONTINUOUS
 62
    3
 10
167.03508338042423
 20
129.61249427672229
 11
166.61746999683672
 21
129.33754658682949
  0
LINE
  8
_0-3_0_5
  6
CONTINUOUS
 62
    3
 10
166.61746999683672
 20
129.33754658682949
 11
166.25697861125363
 21
128.99859023563835
  0
LINE
  8
_0-3_0_5
  6
CONTINUOUS
 62
    3
 10
166.25697861125363
 20
128.99859023563835
 11
165.96456257200839
 21
128.6059242403596
  0
LINE
  8
_0-3_0_5
  6
CONTINUOUS
 62
    3
 10
165.96456257200839
 20
128.6059242403596
 11
165.74910679248387
 21
128.17147955856123
  0
LINE
  8
_0-3_0_5
  6
CONTINUOUS
 62
    3
 10
165.74910679248387
 20
128.17147955856123
 11
165.617157787515
 21
127.70845657206004
  0
LINE
  8
_0-3_0_5
  6
CONTINUOUS
 62
    3
 10
165.617157787515
 20
127.70845657206004
 11
165.57272476084836
 21
127.23092399999996
  0
LINE
  8
_0-3_0_5
  6
CONTINUOUS
 62
    3
 10
165.57272476084836
 20
127.23092399999996
 11
165.617157787515
 21
126.75339142793987
  0
LINE
  8
_0-3_0_5
  6
CONTINUOUS
 62
    3
 10
165.617157787515
 20
126.75339142793987
 11
165.74910679248387
 21
126.29036844143869
  0
LINE
  8
_0-3_0_5
  6
CONTINUOUS
 62
    3
 10
165.74910679248387
 20
126.29036844143869
 11
165.96456257200839
 21
125.85592375964032
  0
LINE
  8
_0-3_0_5
  6
CONTINUOUS
 62
    3
 10
165.96456257200839
 20
125.85592375964032
 11
166.25697861125363
 21
125.46325776436157
  0
LINE
  8
_0-3_0_5
  6
CONTINUOUS
 62
    3
 10
166.25697861125363
 20
125.46325776436157
 11
166.61746999683672
 21
125.12430141317043
  0
LINE
  8
_0-3_0_5
  6
CONTINUOUS
 62
    3
 10
166.61746999683672
 20
125.12430141317043
 11
167.03508338042423
 21
124.84935372327763
  0
LINE
  8
_0-3_0_5
  6
CONTINUOUS
 62
    3
 10
167.03508338042423
 20
124.84935372327763
 11
167.49712979067834
 21
124.64676884111034
  0
LINE
  8
_0-3_0_5
  6
CONTINUOUS
 62
    3
 10
167.49712979067834
 20
124.64676884111034
 11
167.98957018123033
 21
124.5227022058003
  0
LINE
  8
_0-3_0_5
  6
CONTINUOUS
 62
    3
 10
167.98957018123033
 20
124.5227022058003
 11
168.49744200000009
 21
124.48092351928067
  0
LINE
  8
_0-3_0_5
  6
CONTINUOUS
 62
    3
 10
168.49744200000009
 20
124.48092351928067
 11
169.00531381876985
 21
124.5227022058003
  0
LINE
  8
_0-3_0_5
  6
CONTINUOUS
 62
    3
 10
169.00531381876985
 20
124.5227022058003
 11
169.49775420932181
 21
124.64676884111033
  0
LINE
  8
_0-3_0_5
  6
CONTINUOUS
 62
    3
 10
169.49775420932181
 20
124.64676884111033
 11
169.95980061957596
 21
124.84935372327763
  0
LINE
  8
_0-3_0_5
  6
CONTINUOUS
 62
    3
 10
169.95980061957596
 20
124.84935372327763
 11
170.37741400316344
 21
125.12430141317041
  0
LINE
  8
_0-3_0_5
  6
CONTINUOUS
 62
    3
 10
170.37741400316344
 20
125.12430141317041
 11
170.73790538874655
 21
125.46325776436156
  0
LINE
  8
_0-3_0_5
  6
CONTINUOUS
 62
    3
 10
170.73790538874655
 20
125.46325776436156
 11
171.03032142799177
 21
125.85592375964031
  0
LINE
  8
_0-3_0_5
  6
CONTINUOUS
 62
    3
 10
171.03032142799177
 20
125.85592375964031
 11
171.24577720751631
 21
126.29036844143867
  0
LINE
  8
_0-3_0_5
  6
CONTINUOUS
 62
    3
 10
171.24577720751631
 20
126.29036844143867
 11
171.37772621248519
 21
126.75339142793986
  0
LINE
  8
_0-3_0_5
  6
CONTINUOUS
 62
    3
 10
171.37772621248519
 20
126.75339142793986
 11
171.42215923915182
 21
127.23092399999994
  0
LINE
  8
_0-3_0_5
  6
CONTINUOUS
 62
    3
 10
157.42215899999997
 20
124.4809267252066
 11
158.42628249650605
 21
124.522705363021
  0
LINE
  8
_0-3_0_5
  6
CONTINUOUS
 62
    3
 10
158.42628249650605
 20
124.522705363021
 11
159.39989620868181
 21
124.64677185369527
  0
LINE
  8
_0-3_0_5
  6
CONTINUOUS
 62
    3
 10
159.39989620868181
 20
124.64677185369527
 11
160.31341737655507
 21
124.84935649969093
  0
LINE
  8
_0-3_0_5
  6
CONTINUOUS
 62
    3
 10
160.31341737655507
 20
124.84935649969093
 11
161.13908912170405
 21
125.12430386905217
  0
LINE
  8
_0-3_0_5
  6
CONTINUOUS
 62
    3
 10
161.13908912170405
 20
125.12430386905217
 11
161.85182382596241
 21
125.46325982509104
  0
LINE
  8
_0-3_0_5
  6
CONTINUOUS
 62
    3
 10
161.85182382596241
 20
125.46325982509104
 11
162.42996540600251
 21
125.85592536260327
  0
LINE
  8
_0-3_0_5
  6
CONTINUOUS
 62
    3
 10
162.42996540600251
 20
125.85592536260327
 11
162.8559473224685
 21
126.29036953792993
  0
LINE
  8
_0-3_0_5
  6
CONTINUOUS
 62
    3
 10
162.8559473224685
 20
126.29036953792993
 11
163.11682633038586
 21
126.75339198464307
  0
LINE
  8
_0-3_0_5
  6
CONTINUOUS
 62
    3
 10
163.11682633038586
 20
126.75339198464307
 11
163.20467575311014
 21
127.23092399999996
  0
LINE
  8
_0-3_0_5
  6
CONTINUOUS
 62
    3
 10
163.20467575311014
 20
127.23092399999996
 11
163.11682633038586
 21
127.70845601535686
  0
LINE
  8
_0-3_0_5
  6
CONTINUOUS
 62
    3
 10
163.11682633038586
 20
127.70845601535686
 11
162.8559473224685
 21
128.17147846206998
  0
LINE
  8
_0-3_0_5
  6
CONTINUOUS
 62
    3
 10
162.8559473224685
 20
128.17147846206998
 11
162.42996540600248
 21
128.60592263739665
  0
LINE
  8
_0-3_0_5
  6
CONTINUOUS
 62
    3
 10
162.42996540600248
 20
128.60592263739665
 11
161.85182382596241
 21
128.99858817490889
  0
LINE
  8
_0-3_0_5
  6
CONTINUOUS
 62
    3
 10
161.85182382596241
 20
128.99858817490889
 11
161.13908912170402
 21
129.33754413094775
  0
LINE
  8
_0-3_0_5
  6
CONTINUOUS
 62
    3
 10
161.13908912170402
 20
129.33754413094775
 11
160.31341737655507
 21
129.61249150030898
  0
LINE
  8
_0-3_0_5
  6
CONTINUOUS
 62
    3
 10
160.31341737655507
 20
129.61249150030898
 11
159.39989620868178
 21
129.81507614630465
  0
LINE
  8
_0-3_0_5
  6
CONTINUOUS
 62
    3
 10
159.39989620868178
 20
129.81507614630465
 11
158.42628249650605
 21
129.93914263697891
  0
LINE
  8
_0-3_0_5
  6
CONTINUOUS
 62
    3
 10
158.42628249650605
 20
129.93914263697891
 11
157.42215899999997
 21
129.98092127479333
  0
LINE
  8
_0-3_0_5
  6
CONTINUOUS
 62
    3
 10
169.67215899999997
 20
124.23092399999996
 11
157.42215899999997
 21
124.23092399999996
  0
LINE
  8
_0-3_0_5
  6
CONTINUOUS
 62
    3
 10
157.42215899999997
 20
130.23092399999996
 11
169.67215899999997
 21
130.23092399999996
  0
ARC
  8
_0-3_0_5
  6
CONTINUOUS
 62
    3
 10
167.975731
 20
127.23092399999996
 40
3.4464290000000002
 50
299.48712599999999
 51
60.512873999999968
  0
LINE
  8
_0-3_0_5
  6
CONTINUOUS
 62
    3
 10
103.42215976084822
 20
145.63092399999982
 11
103.46659278751486
 21
145.15339142793974
  0
LINE
  8
_0-3_0_5
  6
CONTINUOUS
 62
    3
 10
103.46659278751486
 20
145.15339142793974
 11
103.59854179248373
 21
144.69036844143855
  0
LINE
  8
_0-3_0_5
  6
CONTINUOUS
 62
    3
 10
103.59854179248373
 20
144.69036844143855
 11
103.81399757200826
 21
144.25592375964018
  0
LINE
  8
_0-3_0_5
  6
CONTINUOUS
 62
    3
 10
103.81399757200826
 20
144.25592375964018
 11
104.10641361125349
 21
143.86325776436144
  0
LINE
  8
_0-3_0_5
  6
CONTINUOUS
 62
    3
 10
104.10641361125349
 20
143.86325776436144
 11
104.46690499683659
 21
143.52430141317029
  0
LINE
  8
_0-3_0_5
  6
CONTINUOUS
 62
    3
 10
104.46690499683659
 20
143.52430141317029
 11
104.88451838042408
 21
143.24935372327749
  0
LINE
  8
_0-3_0_5
  6
CONTINUOUS
 62
    3
 10
104.88451838042408
 20
143.24935372327749
 11
105.34656479067822
 21
143.04676884111021
  0
LINE
  8
_0-3_0_5
  6
CONTINUOUS
 62
    3
 10
105.34656479067822
 20
143.04676884111021
 11
105.83900518123019
 21
142.92270220580016
  0
LINE
  8
_0-3_0_5
  6
CONTINUOUS
 62
    3
 10
105.83900518123019
 20
142.92270220580016
 11
106.34687699999995
 21
142.88092351928054
  0
LINE
  8
_0-3_0_5
  6
CONTINUOUS
 62
    3
 10
106.34687699999995
 20
142.88092351928054
 11
106.85474881876971
 21
142.92270220580016
  0
LINE
  8
_0-3_0_5
  6
CONTINUOUS
 62
    3
 10
106.85474881876971
 20
142.92270220580016
 11
107.34718920932168
 21
143.04676884111021
  0
LINE
  8
_0-3_0_5
  6
CONTINUOUS
 62
    3
 10
107.34718920932168
 20
143.04676884111021
 11
107.80923561957582
 21
143.24935372327749
  0
LINE
  8
_0-3_0_5
  6
CONTINUOUS
 62
    3
 10
107.80923561957582
 20
143.24935372327749
 11
108.22684900316331
 21
143.52430141317029
  0
LINE
  8
_0-3_0_5
  6
CONTINUOUS
 62
    3
 10
108.22684900316331
 20
143.52430141317029
 11
108.58734038874641
 21
143.86325776436144
  0
LINE
  8
_0-3_0_5
  6
CONTINUOUS
 62
    3
 10
108.58734038874641
 20
143.86325776436144
 11
108.87975642799164
 21
144.25592375964018
  0
LINE
  8
_0-3_0_5
  6
CONTINUOUS
 62
    3
 10
108.87975642799164
 20
144.25592375964018
 11
109.09521220751617
 21
144.69036844143855
  0
LINE
  8
_0-3_0_5
  6
CONTINUOUS
 62
    3
 10
109.09521220751617
 20
144.69036844143855
 11
109.22716121248504
 21
145.15339142793974
  0
LINE
  8
_0-3_0_5
  6
CONTINUOUS
 62
    3
 10
109.22716121248504
 20
145.15339142793974
 11
109.27159423915168
 21
145.63092399999982
  0
LINE
  8
_0-3_0_5
  6
CONTINUOUS
 62
    3
 10
109.27159423915168
 20
145.63092399999982
 11
109.22716121248504
 21
146.10845657205991
  0
LINE
  8
_0-3_0_5
  6
CONTINUOUS
 62
    3
 10
109.22716121248504
 20
146.10845657205991
 11
109.09521220751617
 21
146.57147955856109
  0
LINE
  8
_0-3_0_5
  6
CONTINUOUS
 62
    3
 10
109.09521220751617
 20
146.57147955856109
 11
108.87975642799165
 21
147.00592424035946
  0
LINE
  8
_0-3_0_5
  6
CONTINUOUS
 62
    3
 10
108.87975642799165
 20
147.00592424035946
 11
108.58734038874643
 21
147.39859023563821
  0
LINE
  8
_0-3_0_5
  6
CONTINUOUS
 62
    3
 10
108.58734038874643
 20
147.39859023563821
 11
108.22684900316331
 21
147.73754658682935
  0
LINE
  8
_0-3_0_5
  6
CONTINUOUS
 62
    3
 10
108.22684900316331
 20
147.73754658682935
 11
107.80923561957583
 21
148.01249427672215
  0
LINE
  8
_0-3_0_5
  6
CONTINUOUS
 62
    3
 10
107.80923561957583
 20
148.01249427672215
 11
107.34718920932168
 21
148.21507915888944
  0
LINE
  8
_0-3_0_5
  6
CONTINUOUS
 62
    3
 10
107.34718920932168
 20
148.21507915888944
 11
106.85474881876971
 21
148.33914579419948
  0
LINE
  8
_0-3_0_5
  6
CONTINUOUS
 62
    3
 10
106.85474881876971
 20
148.33914579419948
 11
106.34687699999996
 21
148.3809244807191
  0
LINE
  8
_0-3_0_5
  6
CONTINUOUS
 62
    3
 10
106.34687699999996
 20
148.3809244807191
 11
105.83900518123021
 21
148.33914579419948
  0
LINE
  8
_0-3_0_5
  6
CONTINUOUS
 62
    3
 10
105.83900518123021
 20
148.33914579419948
 11
105.34656479067823
 21
148.21507915888944
  0
LINE
  8
_0-3_0_5
  6
CONTINUOUS
 62
    3
 10
105.34656479067823
 20
148.21507915888944
 11
104.88451838042408
 21
148.01249427672215
  0
LINE
  8
_0-3_0_5
  6
CONTINUOUS
 62
    3
 10
104.88451838042408
 20
148.01249427672215
 11
104.4669049968366
 21
147.73754658682935
  0
LINE
  8
_0-3_0_5
  6
CONTINUOUS
 62
    3
 10
104.4669049968366
 20
147.73754658682935
 11
104.10641361125349
 21
147.39859023563821
  0
LINE
  8
_0-3_0_5
  6
CONTINUOUS
 62
    3
 10
104.10641361125349
 20
147.39859023563821
 11
103.81399757200826
 21
147.00592424035949
  0
LINE
  8
_0-3_0_5
  6
CONTINUOUS
 62
    3
 10
103.81399757200826
 20
147.00592424035949
 11
103.59854179248373
 21
146.57147955856109
  0
LINE
  8
_0-3_0_5
  6
CONTINUOUS
 62
    3
 10
103.59854179248373
 20
146.57147955856109
 11
103.46659278751486
 21
146.10845657205994
  0
LINE
  8
_0-3_0_5
  6
CONTINUOUS
 62
    3
 10
103.46659278751486
 20
146.10845657205994
 11
103.42215976084822
 21
145.63092399999982
  0
LINE
  8
_0-3_0_5
  6
CONTINUOUS
 62
    3
 10
117.42215899999997
 20
148.3809212747932
 11
118.42628249650603
 21
148.33914263697878
  0
LINE
  8
_0-3_0_5
  6
CONTINUOUS
 62
    3
 10
118.42628249650603
 20
148.33914263697878
 11
119.39989620868178
 21
148.21507614630451
  0
LINE
  8
_0-3_0_5
  6
CONTINUOUS
 62
    3
 10
119.39989620868178
 20
148.21507614630451
 11
120.31341737655505
 21
148.01249150030884
  0
LINE
  8
_0-3_0_5
  6
CONTINUOUS
 62
    3
 10
120.31341737655505
 20
148.01249150030884
 11
121.13908912170403
 21
147.73754413094761
  0
LINE
  8
_0-3_0_5
  6
CONTINUOUS
 62
    3
 10
121.13908912170403
 20
147.73754413094761
 11
121.85182382596241
 21
147.39858817490875
  0
LINE
  8
_0-3_0_5
  6
CONTINUOUS
 62
    3
 10
121.85182382596241
 20
147.39858817490875
 11
122.42996540600249
 21
147.00592263739651
  0
LINE
  8
_0-3_0_5
  6
CONTINUOUS
 62
    3
 10
122.42996540600249
 20
147.00592263739651
 11
122.8559473224685
 21
146.57147846206985
  0
LINE
  8
_0-3_0_5
  6
CONTINUOUS
 62
    3
 10
122.8559473224685
 20
146.57147846206985
 11
123.11682633038586
 21
146.10845601535672
  0
LINE
  8
_0-3_0_5
  6
CONTINUOUS
 62
    3
 10
123.11682633038586
 20
146.10845601535672
 11
123.20467575311015
 21
145.63092399999982
  0
LINE
  8
_0-3_0_5
  6
CONTINUOUS
 62
    3
 10
123.20467575311015
 20
145.63092399999982
 11
123.11682633038586
 21
145.15339198464292
  0
LINE
  8
_0-3_0_5
  6
CONTINUOUS
 62
    3
 10
123.11682633038586
 20
145.15339198464292
 11
122.8559473224685
 21
144.6903695379298
  0
LINE
  8
_0-3_0_5
  6
CONTINUOUS
 62
    3
 10
122.8559473224685
 20
144.6903695379298
 11
122.42996540600249
 21
144.25592536260314
  0
LINE
  8
_0-3_0_5
  6
CONTINUOUS
 62
    3
 10
122.42996540600249
 20
144.25592536260314
 11
121.85182382596243
 21
143.86325982509089
  0
LINE
  8
_0-3_0_5
  6
CONTINUOUS
 62
    3
 10
121.85182382596243
 20
143.86325982509089
 11
121.13908912170403
 21
143.52430386905203
  0
LINE
  8
_0-3_0_5
  6
CONTINUOUS
 62
    3
 10
121.13908912170403
 20
143.52430386905203
 11
120.31341737655507
 21
143.2493564996908
  0
LINE
  8
_0-3_0_5
  6
CONTINUOUS
 62
    3
 10
120.31341737655507
 20
143.2493564996908
 11
119.3998962086818
 21
143.04677185369513
  0
LINE
  8
_0-3_0_5
  6
CONTINUOUS
 62
    3
 10
119.3998962086818
 20
143.04677185369513
 11
118.42628249650605
 21
142.92270536302087
  0
LINE
  8
_0-3_0_5
  6
CONTINUOUS
 62
    3
 10
118.42628249650605
 20
142.92270536302087
 11
117.42215899999998
 21
142.88092672520645
  0
LINE
  8
_0-3_0_5
  6
CONTINUOUS
 62
    3
 10
105.17215899999997
 20
142.63092399999982
 11
117.42215899999997
 21
142.63092399999982
  0
LINE
  8
_0-3_0_5
  6
CONTINUOUS
 62
    3
 10
117.42215899999997
 20
148.63092399999982
 11
105.17215899999997
 21
148.63092399999982
  0
ARC
  8
_0-3_0_5
  6
CONTINUOUS
 62
    3
 10
106.86858800000005
 20
145.63092399999982
 40
3.4464290000000002
 50
119.487126
 51
240.51287400000001
  0
LINE
  8
_0-3_0_5
  6
CONTINUOUS
 62
    3
 10
187.8971590000001
 20
50.917649999999867
 11
187.8971590000001
 21
39.880923999999823
  0
LINE
  8
_0-3_0_5
  6
CONTINUOUS
 62
    3
 10
179.42215899999997
 20
50.917649999999867
 11
197.42215899999997
 21
50.917649999999867
  0
LINE
  8
_0-3_0_5
  6
CONTINUOUS
 62
    3
 10
184.42215899999997
 20
58.417649999999867
 11
197.42215899999997
 21
58.417649999999867
  0
LINE
  8
_0-3_0_5
  6
CONTINUOUS
 62
    3
 10
179.42215899999997
 20
53.417649999999867
 11
179.42215899999997
 21
50.917649999999867
  0
ARC
  8
_0-3_0_5
  6
CONTINUOUS
 62
    3
 10
184.42215899999997
 20
53.417649999999867
 40
5
 50
90
 51
180
  0
ARC
  8
_0-3_0_5
  6
CONTINUOUS
 62
    3
 10
202.18465900000001
 20
78.509072999999944
 40
11.840703
 50
68.120533999999992
 51
113.71667799999999
  0
ARC
  8
_0-3_0_5
  6
CONTINUOUS
 62
    3
 10
202.18465900000001
 20
81.509072999999944
 40
11.840703
 50
68.120533999999992
 51
113.71667799999999
  0
LINE
  8
_0-3_0_5
  6
CONTINUOUS
 62
    3
 10
206.94715900000006
 20
89.349775999999792
 11
206.94715900000006
 21
58.417649999999867
  0
LINE
  8
_0-3_0_5
  6
CONTINUOUS
 62
    3
 10
187.8971590000001
 20
89.349775999999792
 11
187.8971590000001
 21
58.417649999999867
  0
ARC
  8
_0-3_0_5
  6
CONTINUOUS
 62
    3
 10
202.18465900000001
 20
81.509072999999944
 40
11.840703
 50
66.283321999999998
 51
68.120533999999992
  0
ARC
  8
_0-3_0_5
  6
CONTINUOUS
 62
    3
 10
192.65965899999992
 20
103.19047899999987
 40
11.840703
 50
246.283322
 51
293.716678
  0
ARC
  8
_0-3_0_5
  6
CONTINUOUS
 62
    3
 10
202.18465900000001
 20
78.509072999999944
 40
11.840703
 50
66.283321999999998
 51
68.120533999999992
  0
ARC
  8
_0-3_0_5
  6
CONTINUOUS
 62
    3
 10
192.65965899999992
 20
100.19047899999987
 40
11.840703
 50
246.283322
 51
293.716678
  0
LINE
  8
_0-3_0_5
  6
CONTINUOUS
 62
    3
 10
206.59715899999992
 20
39.880923999999823
 11
197.42215899999997
 21
39.880923999999823
  0
LINE
  8
_0-3_0_5
  6
CONTINUOUS
 62
    3
 10
206.59715899999992
 20
39.880923999999823
 11
206.94715900000006
 21
39.880923999999823
  0
LINE
  8
_0-3_0_5
  6
CONTINUOUS
 62
    3
 10
197.42215899999997
 20
39.880923999999823
 11
187.8971590000001
 21
39.880923999999823
  0
LINE
  8
_0-3_0_5
  6
CONTINUOUS
 62
    3
 10
206.94715900000006
 20
134.88092399999982
 11
206.94715900000006
 21
92.349775999999792
  0
LINE
  8
_0-3_0_5
  6
CONTINUOUS
 62
    3
 10
187.8971590000001
 20
134.88092399999982
 11
187.8971590000001
 21
92.349775999999792
  0
ARC
  8
_0-3_0_5
  6
CONTINUOUS
 62
    3
 10
177.42215899999997
 20
134.88092399999982
 40
29.524999999999999
 50
0
 51
180
  0
ARC
  8
_0-3_0_5
  6
CONTINUOUS
 62
    3
 10
177.42215899999997
 20
134.88092399999982
 40
10.475
 50
0
 51
180
  0
LINE
  8
_0-3_0_5
  6
CONTINUOUS
 62
    3
 10
166.94715900000006
 20
134.88092399999982
 11
166.94715900000006
 21
130.23092399999996
  0
LINE
  8
_0-3_0_5
  6
CONTINUOUS
 62
    3
 10
147.8971590000001
 20
134.88092399999982
 11
147.8971590000001
 21
130.23092399999996
  0
LINE
  8
_0-3_0_5
  6
CENTER
 62
    7
 10
197.42215899999997
 20
134.88092399999982
 11
197.42215899999997
 21
37.380923999999823
  0
ARC
  8
_0-3_0_5
  6
CENTER
 62
    7
 10
177.42215899999997
 20
134.88092399999982
 40
20
 50
0
 51
180
  0
ARC
  8
_0-3_0_5
  6
CONTINUOUS
 62
    3
 10
105.42215899999997
 20
123.47751599999992
 40
2.5
 50
0
 51
32.859880000000004
  0
ARC
  8
_0-3_0_5
  6
CONTINUOUS
 62
    3
 10
129.42215899999997
 20
123.47751599999992
 40
2.5
 50
147.14012
 51
180
  0
LINE
  8
_0-3_0_5
  6
CONTINUOUS
 62
    3
 10
107.92215899999997
 20
122.88092399999982
 11
107.92215899999997
 21
123.47751599999992
  0
LINE
  8
_0-3_0_5
  6
CONTINUOUS
 62
    3
 10
126.92215899999997
 20
122.88092399999982
 11
126.92215899999997
 21
123.47751599999992
  0
LINE
  8
_0-3_0_5
  6
CONTINUOUS
 62
    3
 10
147.92215899999997
 20
122.88092399999982
 11
147.92215899999997
 21
123.88092399999982
  0
LINE
  8
_0-3_0_5
  6
CONTINUOUS
 62
    3
 10
166.92215899999997
 20
122.88092399999982
 11
166.92215899999997
 21
123.88092399999982
  0
ARC
  8
_0-3_0_5
  6
CONTINUOUS
 62
    3
 10
137.42215899999997
 20
122.88092399999982
 40
29.5
 50
180
 51
0
  0
ARC
  8
_0-3_0_5
  6
CONTINUOUS
 62
    3
 10
137.42215899999997
 20
122.88092399999982
 40
10.5
 50
180
 51
0
  0
LINE
  8
_0-3_0_5
  6
CENTER
 62
    7
 10
157.42215899999997
 20
122.88092399999982
 11
157.42215899999997
 21
134.88092399999982
  0
LINE
  8
_0-3_0_5
  6
CONTINUOUS
 62
    3
 10
105.47140899999999
 20
142.12042399999996
 11
106.2109089999999
 21
141.38092399999982
  0
LINE
  8
_0-3_0_5
  6
CONTINUOUS
 62
    3
 10
105.47140899999999
 20
142.63092399999982
 11
105.47140899999999
 21
142.12042399999996
  0
LINE
  8
_0-3_0_5
  6
CONTINUOUS
 62
    7
 10
106.2109089999999
 20
141.38092399999982
 11
106.2109089999999
 21
142.63092399999982
  0
LINE
  8
_0-3_0_5
  6
CONTINUOUS
 62
    3
 10
106.2109089999999
 20
141.38092399999982
 11
117.42215899999997
 21
141.38092399999982
  0
LINE
  8
_0-3_0_5
  6
CONTINUOUS
 62
    3
 10
117.42215899999997
 20
142.12042399999996
 11
105.47140899999999
 21
142.12042399999996
  0
LINE
  8
_0-3_0_5
  6
CONTINUOUS
 62
    3
 10
168.98340899999994
 20
124.23092399999996
 11
168.63340900000003
 21
123.88092399999982
  0
LINE
  8
_0-3_0_5
  6
CONTINUOUS
 62
    7
 10
168.63340900000003
 20
123.88092399999982
 11
168.63340900000003
 21
124.23092399999996
  0
LINE
  8
_0-3_0_5
  6
CONTINUOUS
 62
    3
 10
168.63340900000003
 20
123.88092399999982
 11
157.42215899999997
 21
123.88092399999982
  0
ARC
  8
_0-3_0_5
  6
CONTINUOUS
 62
    3
 10
125.22215899999992
 20
126.19044799999983
 40
2.5
 50
327.14012000000002
 51
0
  0
ARC
  8
_0-3_0_5
  6
CONTINUOUS
 62
    3
 10
109.62215900000001
 20
126.19044799999983
 40
2.5
 50
180
 51
212.85988
  0
LINE
  8
_0-3_0_5
  6
CONTINUOUS
 62
    3
 10
127.72215899999992
 20
126.19044799999983
 11
127.72215899999992
 21
141.38092399999982
  0
LINE
  8
_0-3_0_5
  6
CONTINUOUS
 62
    3
 10
117.42215899999997
 20
124.38092399999982
 11
108.36169999999993
 21
124.38092399999982
  0
LINE
  8
_0-3_0_5
  6
CONTINUOUS
 62
    3
 10
107.12215900000001
 20
126.19044799999983
 11
107.12215900000001
 21
141.38092399999982
  0
ARC
  8
_0-3_0_5
  6
CENTER
 62
    7
 10
137.42215899999997
 20
122.88092399999982
 40
20
 50
180
 51
0
  0
LINE
  8
_0-3_0_5
  6
CONTINUOUS
 62
    3
 10
126.94715900000006
 20
148.63092399999982
 11
126.94715900000006
 21
188.64365499999985
  0
TEXT
  8
_0-2_PV
 62
    7
 10
131.07580400000006
 20
9.6999999999998181
 40
4
 41
0.8635389999999999
 50
0
  1
※１　（　）内寸法は参考寸法である。
  0
TEXT
  8
_0-2_PV
 62
    7
 10
131.07580400000006
 20
3.6999999999998181
 40
4
 41
0.8635389999999999
 50
0
  1
※２　テール管の差込代は、15mm以上を確保すること。
  0
TEXT
  8
_0-2_PV
 62
    7
 10
131.07580400000006
 20
-2.3000000000001819
 40
4
 41
0.8635389999999999
 50
0
  1
※３　床排水管の差込代は、40mm以上を確保すること。
  0
TEXT
  8
_0-0_0
 62
    7
 10
61.208900210868222
 20
-29.410173540621599
 40
4
 41
1
 50
0
  1
日鉄物産マテックス株式会社
  0
TEXT
  8
_0-0_0
 62
    7
 10
180.86206900000002
 20
-17.25
 40
5
 41
1.034483
 50
0
  1
N-201
  0
TEXT
  8
_0-0_0
 62
    7
 10
180.56603799999993
 20
-29.25
 40
4
 41
0.8490569999999999
 50
0
  1
Sトラップユニット(キッチン用)
  0
TEXT
  8
_0-2_PV
 62
    7
 10
139.77351799999997
 20
-12.223474000000081
 40
3.2000000000000002
 41
1.1154539999999999
 50
0
  1
検 図
  0
TEXT
  8
_0-2_PV
 62
    7
 10
157.27351799999997
 20
-12.223474000000081
 40
3.2000000000000002
 41
1.1154539999999999
 50
0
  1
承 認
  0
LINE
  8
_0-3_0_5
  6
CONTINUOUS
 62
    7
 10
206.94715900000006
 20
31.999267999999802
 11
187.8971590000001
 21
31.999267999999802
  0
LINE
  8
_0-3_0_5
  6
CONTINUOUS
 62
    7
 10
206.94715900000006
 20
38.380923999999823
 11
206.94715900000006
 21
30.499267999999802
  0
LINE
  8
_0-3_0_5
  6
CONTINUOUS
 62
    7
 10
187.8971590000001
 20
38.380923999999823
 11
187.8971590000001
 21
30.499267999999802
  0
INSERT
  2
-000-_OPEN30
  8
_0-3_0_5
 10
206.94715900000006
 20
31.999267999999802
 41
2.77
 42
2.77
 50
0
  0
INSERT
  2
-000-_OPEN30
  8
_0-3_0_5
 10
187.8971590000001
 20
31.999267999999802
 41
2.77
 42
2.77
 50
180
  0
POINT
  8
_0-3_0_5
 62
    7
 10
206.94715900000006
 20
39.880923999999823
  0
POINT
  8
_0-3_0_5
 62
    7
 10
187.8971590000001
 20
39.880923999999823
  0
POINT
  8
_0-3_0_5
 62
    7
 10
187.8971590000001
 20
31.999267999999802
  0
LINE
  8
_0-3_0_5
  6
CONTINUOUS
 62
    7
 10
215.42215899999997
 20
25.519927999999936
 11
179.42215899999997
 21
25.519927999999936
  0
LINE
  8
_0-3_0_5
  6
CONTINUOUS
 62
    7
 10
215.42215899999997
 20
49.417650999999978
 11
215.42215899999997
 21
24.019927999999936
  0
LINE
  8
_0-3_0_5
  6
CONTINUOUS
 62
    7
 10
179.42215899999997
 20
49.417650999999978
 11
179.42215899999997
 21
24.019927999999936
  0
INSERT
  2
-000-_OPEN30
  8
_0-3_0_5
 10
215.42215899999997
 20
25.519927999999936
 41
2.77
 42
2.77
 50
0
  0
INSERT
  2
-000-_OPEN30
  8
_0-3_0_5
 10
179.42215899999997
 20
25.519927999999936
 41
2.77
 42
2.77
 50
180
  0
POINT
  8
_0-3_0_5
 62
    7
 10
215.42215899999997
 20
50.917650999999978
  0
POINT
  8
_0-3_0_5
 62
    7
 10
179.42215899999997
 20
50.917650999999978
  0
POINT
  8
_0-3_0_5
 62
    7
 10
179.42215899999997
 20
25.519927999999936
  0
TEXT
  8
_0-3_0_5
 62
    7
 10
194.55310602620168
 20
33.02215874467943
 40
2.5
 41
1
 50
0
  1
38.1
  0
TEXT
  8
_0-3_0_5
 62
    7
 10
194.59164682724523
 20
26.547304169362263
 40
2.5
 41
1
 50
0
  1
72.0
  0
ENDSEC
  0
EOF
