  0
SECTION
  2
HEADER
  9
$ACADVER
  1
AC1009
  9
$INSBASE
 10
0
 20
0
 30
0
  9
$EXTMIN
 10
0
 20
0
  9
$EXTMAX
 10
297
 20
210
  9
$LIMMIN
 10
0
 20
0
  9
$LIMMAX
 10
297
 20
210
  9
$LTSCALE
 40
1
  0
ENDSEC
  0
SECTION
  2
TABLES
  0
TABLE
  2
LTYPE
 70
     9
  0
LTYPE
  2
CONTINUOUS
 70
    64
  3
実線
 72
    65
 73
     0
 40
0.0
  0
LTYPE
  2
DASHED1
 70
    64
  3
--  --  --  --  --  --  --  --  
 72
    65
 73
     2
 40
2.5
 49
1.25
 49
-1.25
  0
LTYPE
  2
DASHED2
 70
    64
  3
----    ----    ----    ----    
 72
    65
 73
     2
 40
5.0
 49
2.5
 49
-2.5
  0
LTYPE
  2
DASHED3
 70
    64
  3
------  ------  ------  ------  
 72
    65
 73
     2
 40
5.0
 49
3.75
 49
-1.25
  0
LTYPE
  2
CENTER1
 70
    64
  3
----- - ----- - ----- - ----- - 
 72
    65
 73
     4
 40
10.0
 49
6.25
 49
-1.25
 49
1.25
 49
-1.25
  0
LTYPE
  2
CENTER2
 70
    64
  3
----------  --  ----------  --  
 72
    65
 73
     4
 40
20.0
 49
12.5
 49
-2.5
 49
2.5
 49
-2.5
  0
LTYPE
  2
PHANTOM1
 70
    64
  3
--- - - --- - - --- - - --- - - 
 72
    65
 73
     6
 40
10.0
 49
3.25
 49
-1.25
 49
1.25
 49
-1.25
 49
1.25
 49
-1.25
  0
LTYPE
  2
PHANTOM2
 70
    64
  3
--------  -  -  --------  -  -  
 72
    65
 73
     6
 40
20.0
 49
10.0
 49
-2.5
 49
1.25
 49
-2.5
 49
1.25
 49
-2.5
  0
LTYPE
  2
DOT
 70
    64
  3
-   -   -   -   -   -   -   -   
 72
    65
 73
     2
 40
2.5
 49
0.625
 49
-1.875
  0
LTYPE
  2
DUMMY
 70
    64
  3
ダミー
 72
    65
 73
     0
 40
0.0
  0
LTYPE
  2
RAND1
 70
    64
  3
ランダム線1
 72
    65
 73
     4
 40
10.0
 49
1.0
 49
-2.0
 49
3.0
 49
-4.0
  0
LTYPE
  2
RAND2
 70
    64
  3
ランダム線2
 72
    65
 73
     4
 40
14.0
 49
2.0
 49
-3.0
 49
4.0
 49
-5.0
  0
LTYPE
  2
RAND3
 70
    64
  3
ランダム線3
 72
    65
 73
     4
 40
18.0
 49
3.0
 49
-4.0
 49
5.0
 49
-6.0
  0
LTYPE
  2
RAND4
 70
    64
  3
ランダム線4
 72
    65
 73
     4
 40
22.0
 49
4.0
 49
-5.0
 49
6.0
 49
-7.0
  0
LTYPE
  2
RAND5
 70
    64
  3
ランダム線5
 72
    65
 73
     4
 40
26.0
 49
5.0
 49
-6.0
 49
7.0
 49
-8.0
  0
LTYPE
  2
LONG1
 70
    64
  3
----------  --  ----------  --  
 72
    65
 73
     4
 40
40.0
 49
32.5
 49
-2.5
 49
2.5
 49
-2.5
  0
LTYPE
  2
LONG2
 70
    64
  3
--------  -  -  --------  -  -  
 72
    65
 73
     6
 40
40.0
 49
30.0
 49
-2.5
 49
1.25
 49
-2.5
 49
1.25
 49
-2.5
  0
LTYPE
  2
LONG3
 70
    64
  3
+++++++++++++++..+++++++++++++++
 72
    65
 73
     2
 40
40.0
 49
37.5
 49
-2.5
  0
LTYPE
  2
LONG4
 70
    64
  3
+++++++++++++++..+++++++++++++++
 72
    65
 73
     2
 40
80.0
 49
75.0
 49
-5.0
  0
LTYPE
  2
LONG5
 70
    64
  3
----------  --  ----------  --  
 72
    65
 73
     4
 40
60.0
 49
37.5
 49
-7.5
 49
7.5
 49
-7.5
  0
LTYPE
  2
dashed
 70
   64
  3
-------   -------------   ------
 72
   65
 73
    2
 40
7.5
 49
6
 49
-1.5
  0
LTYPE
  2
dashed_spaced
 70
   64
  3
----        --------        ----
 72
   65
 73
    2
 40
12
 49
6
 49
-6
  0
LTYPE
  2
long_dashed_dotted
 70
   64
  3
------------- --- --------------
 72
   65
 73
    4
 40
15.25
 49
12
 49
-1.5
 49
0.25
 49
-1.5
  0
LTYPE
  2
long_dashed_double-dotted
 70
   64
  3
----------- --- --- ------------
 72
   65
 73
    6
 40
17
 49
12
 49
-1.5
 49
0.25
 49
-1.5
 49
0.25
 49
-1.5
  0
LTYPE
  2
long_dashed_triplicate-dotted
 70
   64
  3
--------- --- --- --- ----------
 72
   65
 73
    8
 40
18.75
 49
12
 49
-1.5
 49
0.25
 49
-1.5
 49
0.25
 49
-1.5
 49
0.25
 49
-1.5
  0
LTYPE
  2
dotted
 70
   64
  3
   -       -       -       -    
 72
   65
 73
    2
 40
1.75
 49
0.25
 49
-1.5
  0
LTYPE
  2
chain
 70
   64
  3
-------------- -- --------------
 72
   65
 73
    4
 40
18.5
 49
12
 49
-1.5
 49
3.5
 49
-1.5
  0
LTYPE
  2
chain_double_dash
 70
   64
  3
------------ -- -- -------------
 72
   65
 73
    6
 40
23.5
 49
12
 49
-1.5
 49
3.5
 49
-1.5
 49
3.5
 49
-1.5
  0
LTYPE
  2
dashed_dotted
 70
   64
  3
-----------     -     ----------
 72
   65
 73
    4
 40
9.25
 49
6
 49
-1.5
 49
0.25
 49
-1.5
  0
LTYPE
  2
double-dashed_dotted
 70
   64
  3
------   -----------   -   -----
 72
   65
 73
    6
 40
16.75
 49
6
 49
-1.5
 49
6
 49
-1.5
 49
0.25
 49
-1.5
  0
LTYPE
  2
dashed_double-dotted
 70
   64
  3
---------    -    -    ---------
 72
   65
 73
    6
 40
11
 49
6
 49
-1.5
 49
0.25
 49
-1.5
 49
0.25
 49
-1.5
  0
LTYPE
  2
double-dashed_double-dotted
 70
   64
  3
-----   ---------   -   -   ----
 72
   65
 73
    8
 40
18.5
 49
6
 49
-1.5
 49
6
 49
-1.5
 49
0.25
 49
-1.5
 49
0.25
 49
-1.5
  0
LTYPE
  2
dashed_triplicate-dotted
 70
   64
  3
-------    -    -    -    ------
 72
   65
 73
    8
 40
12.75
 49
6
 49
-1.5
 49
0.25
 49
-1.5
 49
0.25
 49
-1.5
 49
0.25
 49
-1.5
  0
LTYPE
  2
double-dashed_triplicate-dotted
 70
   64
  3
-----  ---------  -  -  -  -----
 72
   65
 73
   10
 40
20.25
 49
6
 49
-1.5
 49
6
 49
-1.5
 49
0.25
 49
-1.5
 49
0.25
 49
-1.5
 49
0.25
 49
-1.5
  0
LTYPE
  2
undefined
 70
   64
  3
--------------------------------
 72
   65
 73
    0
 40
0
  0
LTYPE
  2
CENTER
 70
   64
  3
----------    ----    ----------
 72
   65
 73
    4
 40
50.800000000000004
 49
31.75
 49
-6.3499999999999996
 49
6.3499999999999996
 49
-6.3499999999999996
  0
LTYPE
  2
_
 70
   64
  3
                                
 72
   65
 73
    0
 40
0
  0
LTYPE
  2
__19
 70
   64
  3
                                
 72
   65
 73
    0
 40
0
  0
LTYPE
  2
__20
 70
   64
  3
                                
 72
   65
 73
    0
 40
0
  0
LTYPE
  2
__21
 70
   64
  3
                                
 72
   65
 73
    0
 40
0
  0
LTYPE
  2
__22
 70
   64
  3
                                
 72
   65
 73
    0
 40
0
  0
LTYPE
  2
__23
 70
   64
  3
                                
 72
   65
 73
    0
 40
0
  0
LTYPE
  2
__24
 70
   64
  3
                                
 72
   65
 73
    0
 40
0
  0
LTYPE
  2
__25
 70
   64
  3
                                
 72
   65
 73
    0
 40
0
  0
LTYPE
  2
__26
 70
   64
  3
                                
 72
   65
 73
    0
 40
0
  0
LTYPE
  2
__27
 70
   64
  3
                                
 72
   65
 73
    0
 40
0
  0
LTYPE
  2
__28
 70
   64
  3
                                
 72
   65
 73
    0
 40
0
  0
LTYPE
  2
__29
 70
   64
  3
                                
 72
   65
 73
    0
 40
0
  0
LTYPE
  2
__30
 70
   64
  3
                                
 72
   65
 73
    0
 40
0
  0
LTYPE
  2
__31
 70
   64
  3
                                
 72
   65
 73
    0
 40
0
  0
LTYPE
  2
__32
 70
   64
  3
                                
 72
   65
 73
    0
 40
0
  0
ENDTAB
  0
TABLE
  2
STYLE
  5
3
100
AcDbSymbolTable
 70
     1
  0
STYLE
  5
10
100
AcDbSymbolTableRecord
100
AcDbTextStyleTableRecord
  2
STANDARD
 70
     0
 40
0.0
 41
1.0
 50
0.0
 71
     0
 42
0.2
  3
txt
  4
bigfont.shx
  0
STYLE
  5
26
100
AcDbSymbolTableRecord
100
AcDbTextStyleTableRecord
  2
TATEGAKI
 70
    68
 40
0.0
 41
1.0
 50
0.0
 71
     0
 42
1.0
  3
txt
  4
bigfont.shx
  0
ENDTAB
  0
TABLE
  2
LAYER
 70
    6
  0
LAYER
  2
_0-1_DEFPOINTS
 70
   64
 62
    7
  6
CONTINUOUS
  0
LAYER
  2
_0-2_CLASS1
 70
   64
 62
    7
  6
CONTINUOUS
  0
LAYER
  2
_0-3_1_2
 70
   64
 62
    7
  6
CONTINUOUS
  0
LAYER
  2
_0-f_
 70
   64
 62
    7
  6
CONTINUOUS
  0
LAYER
  2
_f-f_
 70
   64
 62
    7
  6
CONTINUOUS
  0
LAYER
  2
ADD_LINE
 70
   64
 62
    7
  6
CONTINUOUS
  0
ENDTAB
  0
ENDSEC
  0
SECTION
  2
BLOCKS
  0
BLOCK
  2
-000-_OPEN30
 70
   64
 10
0
 20
0
 30
0
  0
LINE
  8
_0-0_0
  6
CONTINUOUS
 62
    7
 10
-1
 20
0.2679489999999999
 11
0
 21
0
  0
LINE
  8
_0-0_0
  6
CONTINUOUS
 62
    7
 10
0
 20
0
 11
-1
 21
-0.2679489999999999
  0
LINE
  8
_0-0_0
  6
CONTINUOUS
 62
    7
 10
0
 20
0
 11
-1
 21
0
  0
ENDBLK
  0
BLOCK
  2
-003-_D3
 70
   64
 10
0
 20
0
 30
0
  0
LINE
  8
_0-0_0
  6
CONTINUOUS
 62
    7
 10
63.222329000000002
 20
-10.284592999999999
 11
35.222327
 21
-10.284592999999999
  0
LINE
  8
_0-0_0
  6
CONTINUOUS
 62
    7
 10
35.222327
 20
-10.284592999999999
 11
12.45781
 21
-10.284592999999999
  0
LINE
  8
_0-0_0
  6
CONTINUOUS
 62
    7
 10
63.222329000000002
 20
-10.284592999999999
 11
69.572327999999999
 21
-10.284592999999999
  0
LINE
  8
_0-0_0
  6
CONTINUOUS
 62
    7
 10
35.222327
 20
-10.284592999999999
 11
28.872326999999999
 21
-10.284592999999999
  0
INSERT
  2
-000-_OPEN30
  8
_0-0_0
 10
63.222329000000002
 20
-10.284592999999999
 41
2.77
 42
2.77
 50
180
  0
INSERT
  2
-000-_OPEN30
  8
_0-0_0
 10
35.222327
 20
-10.284592999999999
 41
2.77
 42
2.77
 50
0
  0
TEXT
  8
_0-0_0
 62
    7
 10
14.957809999999998
 20
-9.7845929999999992
 40
2.5
 41
1
 50
0
  1
八角対辺56.0
  0
POINT
  8
_0-1_DEFPOINTS
 62
    7
 10
63.222329000000002
 20
-5.3016009999999998
  0
POINT
  8
_0-1_DEFPOINTS
 62
    7
 10
35.222327
 20
-5.3016009999999998
  0
POINT
  8
_0-1_DEFPOINTS
 62
    7
 10
35.222327
 20
-10.284592999999999
  0
ENDBLK
  0
BLOCK
  2
-004-_D4
 70
   64
 10
0
 20
0
 30
0
  0
LINE
  8
_0-0_0
  6
CONTINUOUS
 62
    7
 10
132.88983899999999
 20
-2.0470630000000001
 11
132.88983899999999
 21
-65.347063000000006
  0
LINE
  8
_0-0_0
  6
CONTINUOUS
 62
    7
 10
85.022328000000002
 20
-2.0470630000000001
 11
134.38983899999999
 21
-2.0470630000000001
  0
LINE
  8
_0-0_0
  6
CONTINUOUS
 62
    7
 10
60.022331000000001
 20
-65.347063000000006
 11
134.38983899999999
 21
-65.347063000000006
  0
INSERT
  2
-000-_OPEN30
  8
_0-0_0
 10
132.88983899999999
 20
-2.0470630000000001
 41
2.77
 42
2.77
 50
90
  0
INSERT
  2
-000-_OPEN30
  8
_0-0_0
 10
132.88983899999999
 20
-65.347063000000006
 41
2.77
 42
2.77
 50
270
  0
TEXT
  8
_0-0_0
 62
    7
 10
132.38983899999999
 20
-38.072063
 40
2.5
 41
1
 50
90
  1
(126.5)
  0
POINT
  8
_0-1_DEFPOINTS
 62
    7
 10
83.522328000000002
 20
-2.0470630000000001
  0
POINT
  8
_0-1_DEFPOINTS
 62
    7
 10
58.522331000000001
 20
-65.347063000000006
  0
POINT
  8
_0-1_DEFPOINTS
 62
    7
 10
132.88983899999999
 20
-65.347063000000006
  0
ENDBLK
  0
BLOCK
  2
-008-_D8
 70
   64
 10
0
 20
0
 30
0
  0
LINE
  8
_0-0_0
  6
CONTINUOUS
 62
    7
 10
149.22079600000001
 20
40.267946999999999
 11
149.22079600000001
 21
-65.347063000000006
  0
LINE
  8
_0-0_0
  6
CONTINUOUS
 62
    7
 10
35.53792
 20
40.267946999999999
 11
150.72079600000001
 21
40.267946999999999
  0
LINE
  8
_0-0_0
  6
CONTINUOUS
 62
    7
 10
60.022325000000002
 20
-65.347063000000006
 11
150.72079600000001
 21
-65.347063000000006
  0
INSERT
  2
-000-_OPEN30
  8
_0-0_0
 10
149.22079600000001
 20
40.267946999999999
 41
2.77
 42
2.77
 50
90
  0
INSERT
  2
-000-_OPEN30
  8
_0-0_0
 10
149.22079600000001
 20
-65.347063000000006
 41
2.77
 42
2.77
 50
270
  0
TEXT
  8
_0-0_0
 62
    7
 10
148.72079600000001
 20
-16.914560000000002
 40
2.5
 41
1
 50
90
  1
(211.0)
  0
POINT
  8
_0-1_DEFPOINTS
 62
    7
 10
34.03792
 20
40.267946999999999
  0
POINT
  8
_0-1_DEFPOINTS
 62
    7
 10
58.522325000000002
 20
-65.347063000000006
  0
POINT
  8
_0-1_DEFPOINTS
 62
    7
 10
149.22079600000001
 20
-65.347063000000006
  0
ENDBLK
  0
BLOCK
  2
-013-_OPEN30
 70
   64
 10
0
 20
0
 30
0
  0
LINE
  8
_0-0_0
  6
CONTINUOUS
 62
    7
 10
-1
 20
0.2679489999999999
 11
0
 21
0
  0
LINE
  8
_0-0_0
  6
CONTINUOUS
 62
    7
 10
0
 20
0
 11
-1
 21
-0.2679489999999999
  0
LINE
  8
_0-0_0
  6
CONTINUOUS
 62
    7
 10
0
 20
0
 11
-1
 21
0
  0
ENDBLK
  0
BLOCK
  2
-018-_OPEN30
 70
   64
 10
0
 20
0
 30
0
  0
LINE
  8
_0-0_0
  6
CONTINUOUS
 62
    7
 10
-1
 20
0.2679489999999999
 11
0
 21
0
  0
LINE
  8
_0-0_0
  6
CONTINUOUS
 62
    7
 10
0
 20
0
 11
-1
 21
-0.2679489999999999
  0
LINE
  8
_0-0_0
  6
CONTINUOUS
 62
    7
 10
0
 20
0
 11
-1
 21
0
  0
ENDBLK
  0
ENDSEC
  0
SECTION
  2
ENTITIES
  0
TEXT
  8
_0-3_1_2
 62
    7
 10
196.39051081818184
 20
32.702114181818189
 40
2.5
 41
1
 50
0
  1
95.0
  0
LINE
  8
_f-f_
  6
CONTINUOUS
 62
    7
 10
245.44343828929465
 20
-8.6815617032214618
 11
245.44343828929465
 21
60.858198406580769
  0
LINE
  8
_0-2_CLASS1
  6
CONTINUOUS
 62
    7
 10
348.5
 20
-33.5
 11
348.5
 21
225.5
  0
LINE
  8
_0-2_CLASS1
  6
CONTINUOUS
 62
    7
 10
-46.5
 20
-33.5
 11
-46.5
 21
225.5
  0
LINE
  8
_0-2_CLASS1
  6
CONTINUOUS
 62
    7
 10
-46.5
 20
225.5
 11
348.5
 21
225.5
  0
LINE
  8
_0-2_CLASS1
  6
CONTINUOUS
 62
    7
 10
-46.5
 20
-33.5
 11
348.5
 21
-33.5
  0
LINE
  8
_0-1_DEFPOINTS
  6
CONTINUOUS
 62
    7
 10
-61.5
 20
-43.5
 11
358.5
 21
-43.5
  0
LINE
  8
_0-1_DEFPOINTS
  6
CONTINUOUS
 62
    7
 10
-61.5
 20
253.5
 11
358.5
 21
253.5
  0
LINE
  8
_0-1_DEFPOINTS
  6
CONTINUOUS
 62
    7
 10
358.5
 20
-43.5
 11
358.5
 21
253.5
  0
LINE
  8
_0-1_DEFPOINTS
  6
CONTINUOUS
 62
    7
 10
-61.5
 20
-43.5
 11
-61.5
 21
253.5
  0
TEXT
  8
_0-2_CLASS1
 62
    7
 10
66.389506999999995
 20
-18.844620000000006
 40
3.75
 41
1.0434110000000001
 50
0
  1
番
  0
TEXT
  8
_0-2_CLASS1
 62
    7
 10
66.389506999999995
 20
-13.844620000000006
 40
3.75
 41
1.0434110000000001
 50
0
  1
品
  0
TEXT
  8
_0-2_CLASS1
 62
    7
 10
66.389506999999995
 20
-26.34462000000002
 40
3.75
 41
1.0434110000000001
 50
0
  1
品
  0
TEXT
  8
_0-2_CLASS1
 62
    7
 10
66.389506999999995
 20
-31.344619999999992
 40
3.75
 41
1.0434110000000001
 50
0
  1
名
  0
LINE
  8
_0-2_CLASS1
  6
CONTINUOUS
 62
    7
 10
65.5
 20
-21
 11
125.5
 21
-21
  0
LINE
  8
_0-2_CLASS1
  6
CONTINUOUS
 62
    7
 10
70.5
 20
-8.5
 11
70.5
 21
-33.5
  0
TEXT
  8
_0-2_CLASS1
 62
    7
 10
22.621791999999999
 20
-12.598473999999996
 40
3.2000000000000002
 41
1.0434110000000001
 50
0
  1
製　図
  0
LINE
  8
_0-2_CLASS1
  6
CONTINUOUS
 62
    7
 10
20.5
 20
-28.5
 11
65.5
 21
-28.5
  0
LINE
  8
_0-2_CLASS1
  6
CONTINUOUS
 62
    7
 10
20.5
 20
-13.5
 11
65.5
 21
-13.5
  0
LINE
  8
_0-2_CLASS1
  6
CONTINUOUS
 62
    7
 10
-46.5
 20
-8.5
 11
80.699996999999996
 21
-8.5
  0
LINE
  8
_0-2_CLASS1
  6
CONTINUOUS
 62
    7
 10
-46.5
 20
-21
 11
20.5
 21
-21
  0
LINE
  8
_0-2_CLASS1
  6
CONTINUOUS
 62
    7
 10
0.5
 20
-8.5
 11
0.5
 21
-21
  0
LINE
  8
_0-2_CLASS1
  6
CONTINUOUS
 62
    7
 10
-19.5
 20
-8.5
 11
-19.5
 21
-21
  0
LINE
  8
_0-2_CLASS1
  6
CONTINUOUS
 62
    7
 10
5.5
 20
-8.5
 11
5.5
 21
-21
  0
LINE
  8
_0-2_CLASS1
  6
CONTINUOUS
 62
    7
 10
16.282359999999983
 20
-12.014697999999996
 11
8.5790360000000021
 21
-18.434134999999998
  0
LINE
  8
_0-2_CLASS1
  6
CONTINUOUS
 62
    7
 10
-32.215527000000009
 20
-12.875023999999996
 11
-24.715527000000009
 21
-11.375023999999996
  0
LINE
  8
_0-2_CLASS1
  6
CONTINUOUS
 62
    7
 10
-32.215509999999995
 20
-16.625018999999995
 11
-24.715509999999995
 21
-18.125018999999995
  0
LINE
  8
_0-2_CLASS1
  6
CONTINUOUS
 62
    7
 10
-24.715515000000011
 20
-11.375
 11
-24.715515000000011
 21
-18.124984999999995
  0
LINE
  8
_0-2_CLASS1
  6
CONTINUOUS
 62
    7
 10
-32.215515000000011
 20
-12.875
 11
-32.215515000000011
 21
-16.624984999999995
  0
LINE
  8
_0-2_CLASS1
  6
CENTER
 62
    7
 10
-42.608963000000017
 20
-14.75
 11
-23.175339000000008
 21
-14.75
  0
LINE
  8
_0-2_CLASS1
  6
CENTER
 62
    7
 10
-37.840515000000011
 20
-9.676636000000002
 11
-37.840515000000011
 21
-19.753326000000001
  0
CIRCLE
  8
_0-2_CLASS1
  6
CONTINUOUS
 62
    7
 10
-37.840515000000011
 20
-14.75
 40
3.375
  0
CIRCLE
  8
_0-2_CLASS1
  6
CONTINUOUS
 62
    7
 10
-37.840515000000011
 20
-14.75
 40
1.875
  0
TEXT
  8
_0-2_CLASS1
 62
    7
 10
8.6372609999999952
 20
-14.082663999999994
 40
3.75
 41
1.399883
 50
0
  1
1
  0
TEXT
  8
_0-2_CLASS1
 62
    7
 10
13.736694
 20
-19.319678999999994
 40
3.75
 41
1.143
 50
0
  1
2
  0
TEXT
  8
_0-2_CLASS1
 62
    7
 10
1.3895069999999805
 20
-18.844620000000006
 40
3.75
 41
1.0434110000000001
 50
0
  1
度
  0
TEXT
  8
_0-2_CLASS1
 62
    7
 10
-18.126118000000019
 20
-16.701172
 40
3.75
 41
1.0434110000000001
 50
0
  1
単位ｍｍ
  0
TEXT
  8
_0-2_CLASS1
 62
    7
 10
1.3895069999999805
 20
-13.844620000000006
 40
3.75
 41
1.0434110000000001
 50
0
  1
尺
  0
LINE
  8
_0-2_CLASS1
  6
CONTINUOUS
 62
    7
 10
80.699996999999996
 20
-21
 11
140.699997
 21
-21
  0
LINE
  8
_0-2_CLASS1
  6
CONTINUOUS
 62
    7
 10
80.699996999999996
 20
-8.5
 11
140.699997
 21
-8.5
  0
LINE
  8
_0-2_CLASS1
  6
CONTINUOUS
 62
    7
 10
-46.5
 20
-8.5
 11
-46.5
 21
-33.5
  0
LINE
  8
_0-2_CLASS1
  6
CONTINUOUS
 62
    7
 10
20.5
 20
-8.5
 11
20.5
 21
-33.5
  0
LINE
  8
_0-2_CLASS1
  6
CONTINUOUS
 62
    7
 10
35.5
 20
-8.5
 11
35.5
 21
-28.5
  0
LINE
  8
_0-2_CLASS1
  6
CONTINUOUS
 62
    7
 10
50.5
 20
-8.5
 11
50.5
 21
-28.5
  0
LINE
  8
_0-2_CLASS1
  6
CONTINUOUS
 62
    7
 10
65.5
 20
-8.5
 11
65.5
 21
-33.5
  0
TEXT
  8
_0-2_CLASS1
 62
    7
 10
73.75
 20
-17
 40
4.5
 41
0.8333329999999999
 50
0
  1
N-204
  0
TEXT
  8
_0-2_CLASS1
 62
    7
 10
73.625
 20
-29.5
 40
4.5
 41
0.8333329999999999
 50
0
  1
後ろ引きエルボーセット
  0
TEXT
  8
_0-2_CLASS1
 62
    7
 10
36.499170561644235
 20
-12.733447068841897
 40
3.2000000000000002
 41
1.143
 50
0
  1
検 図
  0
TEXT
  8
_0-2_CLASS1
 62
    7
 10
51.342282171779715
 20
-12.56943478585697
 40
3.2000000000000002
 41
1.143
 50
0
  1
承 認
  0
TEXT
  8
_0-2_CLASS1
 62
    7
 10
22.021091999999996
 20
-32.5
 40
3
 41
1.042184
 50
0
  1
2019年07月03日 作成
  0
TEXT
  8
_0-2_CLASS1
 62
    7
 10
-38.905923705319879
 20
-29.872730640766292
 40
4.5
 41
0.8333329999999999
 50
0
  1
日鉄物産マテックス株式会社
  0
TEXT
  8
_0-2_CLASS1
 62
    7
 10
-45.070718999999997
 20
-6.3316320000000132
 40
4
 41
0.8585859999999999
 50
0
  1
注：（ ）内寸法は参考寸法です。
  0
LINE
  8
_0-f_
  6
CONTINUOUS
 62
    7
 10
140.699997
 20
-8.5
 11
140.699997
 21
-33.5
  0
LINE
  8
_0-3_1_2
  6
CONTINUOUS
 62
    3
 10
191.44050981818185
 20
53.684755181818183
 11
191.94050981818185
 21
53.684755181818183
  0
LINE
  8
_0-3_1_2
  6
CONTINUOUS
 62
    3
 10
175.69050981818185
 20
53.684755181818183
 11
166.84050981818183
 21
53.684755181818183
  0
LINE
  8
_0-3_1_2
  6
CONTINUOUS
 62
    3
 10
191.44050981818185
 20
52.684755181818183
 11
202.29050981818182
 21
52.684755181818183
  0
LINE
  8
_0-3_1_2
  6
CONTINUOUS
 62
    3
 10
202.29051081818182
 20
52.434755181818183
 11
191.44050981818185
 21
52.434755181818183
  0
ARC
  8
_0-3_1_2
  6
CONTINUOUS
 62
    3
 10
190.94050981818185
 20
51.934755181818183
 40
0.5
 50
270
 51
0
  0
LINE
  8
_0-3_1_2
  6
CONTINUOUS
 62
    3
 10
184.44050981818185
 20
51.434755181818183
 11
190.94050981818185
 21
51.434755181818183
  0
ARC
  8
_0-3_1_2
  6
CONTINUOUS
 62
    3
 10
192.44050981818185
 20
53.184755181818183
 40
0.5
 50
180
 51
270
  0
ARC
  8
_0-3_1_2
  6
CONTINUOUS
 62
    3
 10
192.69050981818185
 20
53.184755181818183
 40
0.5
 50
270
 51
0
  0
LINE
  8
_0-3_1_2
  6
CONTINUOUS
 62
    3
 10
191.44050981818185
 20
54.184755181818183
 11
191.94050981818185
 21
54.184755181818183
  0
LINE
  8
_0-3_1_2
  6
CONTINUOUS
 62
    3
 10
193.19050981818185
 20
53.184755181818183
 11
193.19050981818185
 21
57.684755181818183
  0
LINE
  8
_0-3_1_2
  6
CONTINUOUS
 62
    3
 10
191.94050981818185
 20
58.184755181818183
 11
191.94050981818185
 21
53.184755181818183
  0
ARC
  8
_0-3_1_2
  6
CONTINUOUS
 62
    3
 10
189.94050981818185
 20
57.934755181818183
 40
1.5
 50
0
 51
90
  0
LINE
  8
_0-3_1_2
  6
CONTINUOUS
 62
    3
 10
184.94050981818185
 20
60.684755181818183
 11
184.94050981818185
 21
59.434755181818183
  0
LINE
  8
_0-3_1_2
  6
CONTINUOUS
 62
    3
 10
187.94050981818185
 20
60.684755181818183
 11
187.94050981818185
 21
59.434755181818183
  0
LINE
  8
_0-3_1_2
  6
CONTINUOUS
 62
    3
 10
186.94050981818185
 20
60.684755181818183
 11
186.94050981818185
 21
59.434755181818183
  0
LINE
  8
_0-3_1_2
  6
CONTINUOUS
 62
    3
 10
191.44050981818185
 20
57.825267181818184
 11
191.44050981818185
 21
57.834755181818181
  0
LINE
  8
_0-3_1_2
  6
CONTINUOUS
 62
    3
 10
191.44050981818185
 20
51.934755181818183
 11
191.44050981818185
 21
57.934755181818183
  0
LINE
  8
_0-3_1_2
  6
CONTINUOUS
 62
    3
 10
187.44050981818185
 20
61.684755181818183
 11
184.44050981818185
 21
61.684755181818183
  0
LINE
  8
_0-3_1_2
  6
CONTINUOUS
 62
    3
 10
184.44050981818185
 20
61.684755181818183
 11
189.19050981818185
 21
61.684755181818183
  0
LINE
  8
_0-3_1_2
  6
CONTINUOUS
 62
    3
 10
184.44050981818185
 20
60.684755181818183
 11
189.44050981818185
 21
60.684755181818183
  0
ARC
  8
_0-3_1_2
  6
CONTINUOUS
 62
    3
 10
189.44050981818185
 20
58.184755181818183
 40
2.5
 50
0
 51
90
  0
ARC
  8
_0-3_1_2
  6
CONTINUOUS
 62
    3
 10
189.19050981818185
 20
57.684755181818183
 40
4
 50
0
 51
90
  0
LINE
  8
_0-3_1_2
  6
CONTINUOUS
 62
    3
 10
184.44050981818185
 20
59.434755181818183
 11
189.94050981818185
 21
59.434755181818183
  0
LINE
  8
_0-3_1_2
  6
CONTINUOUS
 62
    7
 10
168.06551081818185
 20
52.684755181818183
 11
168.06551081818185
 21
52.434755181818183
  0
LINE
  8
_0-3_1_2
  6
CONTINUOUS
 62
    3
 10
176.27479181818182
 20
52.434755181818183
 11
177.44050981818185
 21
52.434755181818183
  0
ARC
  8
_0-3_1_2
  6
CONTINUOUS
 62
    3
 10
177.94050981818185
 20
51.934755181818183
 40
0.5
 50
180
 51
270
  0
LINE
  8
_0-3_1_2
  6
CONTINUOUS
 62
    3
 10
177.44050981818185
 20
53.684755181818183
 11
176.94050981818185
 21
53.684755181818183
  0
LINE
  8
_0-3_1_2
  6
CONTINUOUS
 62
    3
 10
177.44050981818185
 20
54.184755181818183
 11
176.94050981818185
 21
54.184755181818183
  0
ARC
  8
_0-3_1_2
  6
CONTINUOUS
 62
    3
 10
176.44050981818185
 20
53.184755181818183
 40
0.5
 50
270
 51
0
  0
ARC
  8
_0-3_1_2
  6
CONTINUOUS
 62
    3
 10
176.19050981818185
 20
53.184755181818183
 40
0.5
 50
180
 51
270
  0
LINE
  8
_0-3_1_2
  6
CONTINUOUS
 62
    3
 10
175.69050981818185
 20
53.184755181818183
 11
175.69050981818185
 21
57.684755181818183
  0
LINE
  8
_0-3_1_2
  6
CONTINUOUS
 62
    3
 10
176.94050981818185
 20
58.184755181818183
 11
176.94050981818185
 21
53.184755181818183
  0
LINE
  8
_0-3_1_2
  6
CONTINUOUS
 62
    2
 10
177.44050981818185
 20
57.825267181818184
 11
177.44050981818185
 21
57.834755181818181
  0
LINE
  8
_0-3_1_2
  6
CONTINUOUS
 62
    3
 10
177.44050981818185
 20
51.934755181818183
 11
177.44050981818185
 21
57.934755181818183
  0
LINE
  8
_0-3_1_2
  6
CONTINUOUS
 62
    3
 10
184.44050981818185
 20
51.434755181818183
 11
177.94050981818185
 21
51.434755181818183
  0
LINE
  8
_0-3_1_2
  6
CONTINUOUS
 62
    3
 10
181.44050981818185
 20
61.684755181818183
 11
184.44050981818185
 21
61.684755181818183
  0
LINE
  8
_0-3_1_2
  6
CONTINUOUS
 62
    3
 10
184.44050981818185
 20
61.684755181818183
 11
179.69050981818185
 21
61.684755181818183
  0
LINE
  8
_0-3_1_2
  6
CONTINUOUS
 62
    3
 10
181.94050981818185
 20
60.684755181818183
 11
181.94050981818185
 21
59.434755181818183
  0
LINE
  8
_0-3_1_2
  6
CONTINUOUS
 62
    3
 10
180.94050981818185
 20
60.684755181818183
 11
180.94050981818185
 21
59.434755181818183
  0
LINE
  8
_0-3_1_2
  6
CONTINUOUS
 62
    3
 10
183.94050981818185
 20
60.684755181818183
 11
183.94050981818185
 21
59.434755181818183
  0
LINE
  8
_0-3_1_2
  6
CONTINUOUS
 62
    3
 10
184.44050981818185
 20
60.684755181818183
 11
179.44050981818185
 21
60.684755181818183
  0
ARC
  8
_0-3_1_2
  6
CONTINUOUS
 62
    3
 10
178.94050981818185
 20
57.934755181818183
 40
1.5
 50
90
 51
180
  0
ARC
  8
_0-3_1_2
  6
CONTINUOUS
 62
    3
 10
179.44050981818185
 20
58.184755181818183
 40
2.5
 50
90
 51
180
  0
ARC
  8
_0-3_1_2
  6
CONTINUOUS
 62
    3
 10
179.69050981818185
 20
57.684755181818183
 40
4
 50
90
 51
180
  0
LINE
  8
_0-3_1_2
  6
CONTINUOUS
 62
    3
 10
184.44050981818185
 20
59.434755181818183
 11
178.94050981818185
 21
59.434755181818183
  0
INSERT
  2
-003-_D3
  8
_0-3_1_2
 10
125.91818181818184
 20
111.38181818181818
 41
1
 42
1
 50
0
  0
INSERT
  2
-004-_D4
  8
_0-3_1_2
 10
125.91818181818184
 20
111.38181818181818
 41
1
 42
1
 50
0
  0
INSERT
  2
-008-_D8
  8
_0-3_1_2
 10
125.91818181818184
 20
111.38181818181818
 41
1
 42
1
 50
0
  0
LINE
  8
_0-3_1_2
  6
CONTINUOUS
 62
    3
 10
236.69051081818185
 20
69.584755181818181
 11
236.69051081818185
 21
62.834755181818181
  0
LINE
  8
_0-3_1_2
  6
CONTINUOUS
 62
    3
 10
236.69053081818186
 20
62.834735181818182
 11
237.54051081818182
 21
61.98475518181818
  0
LINE
  8
_0-3_1_2
  6
CONTINUOUS
 62
    3
 10
236.69051081818185
 20
62.834755181818181
 11
222.64051081818184
 21
62.834755181818181
  0
LINE
  8
_0-3_1_2
  6
CONTINUOUS
 62
    3
 10
237.54051081818182
 20
61.98475518181818
 11
222.64051081818184
 21
61.98475518181818
  0
LINE
  8
_0-3_1_2
  6
CONTINUOUS
 62
    3
 10
227.54051081818182
 20
102.43475518181819
 11
227.54051081818182
 21
102.18475518181819
  0
LINE
  8
_0-3_1_2
  6
CONTINUOUS
 62
    3
 10
227.54050881818182
 20
103.18475518181819
 11
227.54050881818182
 21
106.98583918181818
  0
LINE
  8
_0-3_1_2
  6
CONTINUOUS
 62
    3
 10
227.29050981818182
 20
102.93475518181819
 11
225.78334781818182
 21
102.93475518181819
  0
ARC
  8
_0-3_1_2
  6
CONTINUOUS
 62
    3
 10
214.44050981818185
 20
97.18475518181819
 40
2.5
 50
270
 51
0
  0
ARC
  8
_0-3_1_2
  6
CONTINUOUS
 62
    3
 10
214.94051081818185
 20
97.43475518181819
 40
1.5
 50
270
 51
0
  0
LINE
  8
_0-3_1_2
  6
CONTINUOUS
 62
    3
 10
216.44051081818185
 20
97.544243181818189
 11
216.44051081818185
 21
97.534755181818184
  0
LINE
  8
_0-3_1_2
  6
CONTINUOUS
 62
    3
 10
212.94051081818185
 20
95.93475518181819
 11
212.94051081818185
 21
94.68475518181819
  0
LINE
  8
_0-3_1_2
  6
CONTINUOUS
 62
    3
 10
211.94051081818185
 20
95.93475518181819
 11
211.94051081818185
 21
94.68475518181819
  0
LINE
  8
_0-3_1_2
  6
CONTINUOUS
 62
    3
 10
209.94051081818185
 20
95.93475518181819
 11
209.94051081818185
 21
94.68475518181819
  0
LINE
  8
_0-3_1_2
  6
CONTINUOUS
 62
    3
 10
212.44051081818185
 20
93.68475518181819
 11
209.44051081818185
 21
93.68475518181819
  0
LINE
  8
_0-3_1_2
  6
CONTINUOUS
 62
    3
 10
209.44050981818185
 20
93.68475518181819
 11
214.19051081818185
 21
93.68475518181819
  0
LINE
  8
_0-3_1_2
  6
CONTINUOUS
 62
    3
 10
209.44051081818185
 20
95.93475518181819
 11
214.94051081818185
 21
95.93475518181819
  0
LINE
  8
_0-3_1_2
  6
CONTINUOUS
 62
    3
 10
209.44051081818185
 20
94.68475518181819
 11
214.44050981818185
 21
94.68475518181819
  0
ARC
  8
_0-3_1_2
  6
CONTINUOUS
 62
    3
 10
214.19051081818185
 20
97.68475518181819
 40
4
 50
270
 51
0
  0
LINE
  8
_0-3_1_2
  6
CONTINUOUS
 62
    3
 10
218.19051081818185
 20
102.18475518181819
 11
218.19051081818185
 21
97.68475518181819
  0
LINE
  8
_0-3_1_2
  6
CONTINUOUS
 62
    3
 10
218.19051081818185
 20
101.68475518181819
 11
227.04051081818182
 21
101.68475518181819
  0
LINE
  8
_0-3_1_2
  6
CONTINUOUS
 62
    3
 10
224.67400881818185
 20
99.43475518181819
 11
218.19051081818185
 21
99.43475518181819
  0
LINE
  8
_0-3_1_2
  6
CONTINUOUS
 62
    3
 10
216.44051081818185
 20
101.68475518181819
 11
216.94050981818185
 21
101.68475518181819
  0
LINE
  8
_0-3_1_2
  6
CONTINUOUS
 62
    3
 10
216.44051081818185
 20
101.18475518181819
 11
216.94050981818185
 21
101.18475518181819
  0
ARC
  8
_0-3_1_2
  6
CONTINUOUS
 62
    3
 10
227.29050981818182
 20
103.18475518181819
 40
0.25
 50
270
 51
0
  0
LINE
  8
_0-3_1_2
  6
CONTINUOUS
 62
    3
 10
225.81550981818185
 20
102.93475518181819
 11
227.29050881818182
 21
102.93475518181819
  0
ARC
  8
_0-3_1_2
  6
CONTINUOUS
 62
    3
 10
215.94051081818185
 20
103.43475518181819
 40
0.5
 50
0
 51
90
  0
LINE
  8
_0-3_1_2
  6
CONTINUOUS
 62
    3
 10
217.60622781818182
 20
102.93475518181819
 11
216.44051081818185
 21
102.93475518181819
  0
LINE
  8
_0-3_1_2
  6
CONTINUOUS
 62
    3
 10
209.44050981818185
 20
103.93475518181819
 11
215.94051081818185
 21
103.93475518181819
  0
LINE
  8
_0-3_1_2
  6
CONTINUOUS
 62
    3
 10
225.78334781818182
 20
102.93475518181819
 11
217.60622781818182
 21
102.93475518181819
  0
LINE
  8
_0-3_1_2
  6
CONTINUOUS
 62
    3
 10
216.94050981818185
 20
97.18475518181819
 11
216.94050981818185
 21
102.18475518181819
  0
LINE
  8
_0-3_1_2
  6
CONTINUOUS
 62
    3
 10
224.86550881818184
 20
102.68475518181819
 11
227.29051081818182
 21
102.68475518181819
  0
LINE
  8
_0-3_1_2
  6
CONTINUOUS
 62
    3
 10
216.44051081818185
 20
102.68475518181819
 11
227.29051081818182
 21
102.68475518181819
  0
LINE
  8
_0-3_1_2
  6
CONTINUOUS
 62
    3
 10
216.44051081818185
 20
103.43475518181819
 11
216.44051081818185
 21
97.43475518181819
  0
LINE
  8
_0-3_1_2
  6
CONTINUOUS
 62
    3
 10
223.32187481818184
 20
102.93475518181819
 11
223.31969281818184
 21
102.68475518181819
  0
ARC
  8
_0-3_1_2
  6
CONTINUOUS
 62
    3
 10
227.29051081818182
 20
102.43475518181819
 40
0.25
 50
0
 51
90
  0
ARC
  8
_0-3_1_2
  6
CONTINUOUS
 62
    3
 10
217.44050981818185
 20
102.18475518181819
 40
0.5
 50
90
 51
180
  0
ARC
  8
_0-3_1_2
  6
CONTINUOUS
 62
    3
 10
217.69051081818185
 20
102.18475518181819
 40
0.5
 50
0
 51
90
  0
LINE
  8
_0-3_1_2
  6
CONTINUOUS
 62
    3
 10
225.81550981818185
 20
102.68475518181819
 11
225.81550981818185
 21
102.93475518181819
  0
ARC
  8
_0-3_1_2
  6
CONTINUOUS
 62
    3
 10
224.86550981818183
 20
102.93475518181819
 40
0.25
 50
180
 51
270
  0
ARC
  8
_0-3_1_2
  6
CONTINUOUS
 62
    3
 10
227.29051081818182
 20
102.43475518181819
 40
0.25
 50
0
 51
90
  0
ARC
  8
_0-3_1_2
  6
CONTINUOUS
 62
    3
 10
224.86550881818184
 20
102.93475518181819
 40
0.25
 50
180
 51
270
  0
LINE
  8
_0-3_1_2
  6
CONTINUOUS
 62
    3
 10
175.14051081818184
 20
76.434914181818186
 11
186.22393281818182
 21
76.434914181818186
  0
LINE
  8
_0-3_1_2
  6
CONTINUOUS
 62
    3
 10
175.14051081818184
 20
75.199010181818181
 11
185.15708781818182
 21
75.199010181818181
  0
LINE
  8
_0-3_1_2
  6
CENTER
 62
    7
 10
206.95182281818182
 20
111.72095518181818
 11
185.67919681818182
 21
43.648555181818189
  0
LINE
  8
_0-3_1_2
  6
CONTINUOUS
 62
    3
 10
180.89051081818184
 20
95.630218181818179
 11
180.89051081818184
 21
106.43069918181818
  0
LINE
  8
_0-3_1_2
  6
CONTINUOUS
 62
    3
 10
180.14051081818184
 20
95.630218181818179
 11
180.14051081818184
 21
106.43069918181818
  0
ARC
  8
_0-3_1_2
  6
CONTINUOUS
 62
    3
 10
180.14051081818184
 20
106.43069918181818
 40
0.75
 50
0.000005
 51
60.000006999999982
  0
ARC
  8
_0-3_1_2
  6
CONTINUOUS
 62
    3
 10
180.89051081818184
 20
106.43069918181818
 40
0.75
 50
119.99999800000001
 51
180
  0
LINE
  8
_0-3_1_2
  6
CONTINUOUS
 62
    3
 10
188.64051281818183
 20
95.630218181818179
 11
188.64051281818183
 21
106.33021818181818
  0
ARC
  8
_0-3_1_2
  6
CONTINUOUS
 62
    3
 10
187.89051281818183
 20
106.33021818181818
 40
0.75
 50
359.99999500000001
 51
89.999996999999993
  0
LINE
  8
_0-3_1_2
  6
CONTINUOUS
 62
    3
 10
186.24051081818183
 20
93.18475518181819
 11
175.14051081818184
 21
93.18475518181819
  0
LINE
  8
_0-3_1_2
  6
CONTINUOUS
 62
    3
 10
186.99051081818183
 20
93.934630181818179
 11
175.14051081818184
 21
93.934630181818179
  0
LINE
  8
_0-3_1_2
  6
CONTINUOUS
 62
    7
 10
186.24051081818183
 20
93.18475518181819
 11
186.24051081818183
 21
95.630218181818179
  0
LINE
  8
_0-3_1_2
  6
CONTINUOUS
 62
    7
 10
164.04051081818184
 20
93.18475518181819
 11
164.04051081818184
 21
95.630218181818179
  0
LINE
  8
_0-3_1_2
  6
CONTINUOUS
 62
    3
 10
186.24051081818183
 20
76.524434181818179
 11
186.24051081818183
 21
93.18475518181819
  0
LINE
  8
_0-3_1_2
  6
CONTINUOUS
 62
    3
 10
175.14051081818184
 20
107.08021818181818
 11
162.14050881818184
 21
107.08021818181818
  0
ARC
  8
_0-3_1_2
  6
CONTINUOUS
 62
    3
 10
225.29050981818182
 20
106.98583918181818
 40
2.25
 50
0
 51
88.819321000000002
  0
ARC
  8
_0-3_1_2
  6
CONTINUOUS
 62
    3
 10
225.29051081818182
 20
106.98583918181818
 40
2.25
 50
0
 51
88.819321000000002
  0
ARC
  8
_0-3_1_2
  6
CONTINUOUS
 62
    3
 10
193.59050981818183
 20
106.98583918181818
 40
2.25
 50
91.180678999999998
 51
180
  0
ARC
  8
_0-3_1_2
  6
CONTINUOUS
 62
    3
 10
193.59051081818183
 20
106.98583918181818
 40
2.25
 50
91.180678999999998
 51
180
  0
LINE
  8
_0-3_1_2
  6
CONTINUOUS
 62
    3
 10
215.69050981818185
 20
109.33475518181818
 11
203.19050981818185
 21
109.33475518181818
  0
LINE
  8
_0-3_1_2
  6
CONTINUOUS
 62
    3
 10
175.14051081818184
 20
95.630218181818179
 11
189.14051081818184
 21
95.630218181818179
  0
LINE
  8
_0-3_1_2
  6
CONTINUOUS
 62
    3
 10
189.14051081818184
 20
95.630218181818179
 11
189.14051081818184
 21
106.08021818181818
  0
LINE
  8
_0-3_1_2
  6
CONTINUOUS
 62
    3
 10
175.14051081818184
 20
95.630218181818179
 11
161.14050881818184
 21
95.630218181818179
  0
LINE
  8
_0-3_1_2
  6
CONTINUOUS
 62
    3
 10
169.39051081818184
 20
95.630218181818179
 11
169.39051081818184
 21
106.43069918181818
  0
LINE
  8
_0-3_1_2
  6
CONTINUOUS
 62
    3
 10
170.14051081818184
 20
95.630218181818179
 11
170.14051081818184
 21
106.43069918181818
  0
LINE
  8
_0-3_1_2
  6
CONTINUOUS
 62
    3
 10
161.14050881818184
 20
95.630218181818179
 11
161.14050881818184
 21
106.08021818181818
  0
LINE
  8
_0-3_1_2
  6
CONTINUOUS
 62
    3
 10
161.64050881818184
 20
95.630218181818179
 11
161.64050881818184
 21
106.33021818181818
  0
LINE
  8
_0-3_1_2
  6
CONTINUOUS
 62
    3
 10
175.14051081818184
 20
76.434914181818186
 11
164.05708881818185
 21
76.434914181818186
  0
LINE
  8
_0-3_1_2
  6
CONTINUOUS
 62
    3
 10
175.14051081818184
 20
75.199010181818181
 11
165.12393381818183
 21
75.199010181818181
  0
LINE
  8
_0-3_1_2
  6
CONTINUOUS
 62
    3
 10
190.69050981818185
 20
46.034755181818177
 11
178.19050981818185
 21
46.034755181818177
  0
LINE
  8
_0-3_1_2
  6
CONTINUOUS
 62
    3
 10
190.69050981818185
 20
46.034755181818177
 11
178.19050981818185
 21
46.034755181818177
  0
LINE
  8
_0-3_1_2
  6
CONTINUOUS
 62
    3
 10
164.04051081818184
 20
93.18475518181819
 11
175.14051081818184
 21
93.18475518181819
  0
LINE
  8
_0-3_1_2
  6
CONTINUOUS
 62
    3
 10
164.04051081818184
 20
93.934630181818179
 11
175.14051081818184
 21
93.934630181818179
  0
LINE
  8
_0-3_1_2
  6
CONTINUOUS
 62
    3
 10
163.29063581818184
 20
93.934630181818179
 11
164.04051081818184
 21
93.934630181818179
  0
LINE
  8
_0-3_1_2
  6
CONTINUOUS
 62
    3
 10
163.29063581818184
 20
93.934630181818179
 11
163.29063581818184
 21
95.630218181818179
  0
LINE
  8
_0-3_1_2
  6
CONTINUOUS
 62
    3
 10
214.64051081818184
 20
73.432651181818187
 11
214.64051081818184
 21
71.584755181818181
  0
LINE
  8
_0-3_1_2
  6
CONTINUOUS
 62
    3
 10
190.69050981818185
 20
46.034755181818177
 11
178.19050981818185
 21
46.034755181818177
  0
ARC
  8
_0-3_1_2
  6
CONTINUOUS
 62
    3
 10
178.19050981818185
 20
514.18475518181822
 40
468.14999999999998
 50
268.819321
 51
270
  0
ARC
  8
_0-3_1_2
  6
CONTINUOUS
 62
    3
 10
168.59050981818183
 20
48.383670181818182
 40
2.25
 50
180
 51
268.819321
  0
ARC
  8
_0-3_1_2
  6
CONTINUOUS
 62
    3
 10
190.69050981818185
 20
514.18475518181822
 40
468.14999999999998
 50
270
 51
271.180679
  0
ARC
  8
_0-3_1_2
  6
CONTINUOUS
 62
    3
 10
200.29050981818182
 20
48.383670181818182
 40
2.25
 50
271.180679
 51
1.3006229999999652
  0
ARC
  8
_0-3_1_2
  6
CONTINUOUS
 62
    3
 10
200.29050981818182
 20
48.383670181818182
 40
2.25
 50
271.180679
 51
1.3006229999999652
  0
ARC
  8
_0-3_1_2
  6
CONTINUOUS
 62
    3
 10
190.69050981818185
 20
514.18475518181822
 40
468.14999999999998
 50
270
 51
271.180679
  0
LINE
  8
_0-3_1_2
  6
CONTINUOUS
 62
    3
 10
190.69050981818185
 20
46.034755181818177
 11
178.19050981818185
 21
46.034755181818177
  0
ARC
  8
_0-3_1_2
  6
CONTINUOUS
 62
    3
 10
178.19050981818185
 20
514.18475518181822
 40
468.14999999999998
 50
268.819321
 51
270
  0
ARC
  8
_0-3_1_2
  6
CONTINUOUS
 62
    3
 10
168.59050981818183
 20
48.383670181818182
 40
2.25
 50
180
 51
268.819321
  0
LINE
  8
_0-3_1_2
  6
CONTINUOUS
 62
    3
 10
206.44050881818185
 20
93.68475518181819
 11
209.44050881818185
 21
93.68475518181819
  0
LINE
  8
_0-3_1_2
  6
CONTINUOUS
 62
    3
 10
209.44050981818185
 20
103.93475518181819
 11
202.94050881818185
 21
103.93475518181819
  0
LINE
  8
_0-3_1_2
  6
CONTINUOUS
 62
    3
 10
191.59050981818183
 20
102.93475518181819
 11
193.09767181818182
 21
102.93475518181819
  0
LINE
  8
_0-3_1_2
  6
CONTINUOUS
 62
    3
 10
193.09767181818182
 20
102.93475518181819
 11
201.27479081818183
 21
102.93475518181819
  0
LINE
  8
_0-3_1_2
  6
CONTINUOUS
 62
    3
 10
201.27479081818183
 20
102.93475518181819
 11
202.44050881818185
 21
102.93475518181819
  0
LINE
  8
_0-3_1_2
  6
CONTINUOUS
 62
    3
 10
202.44050881818185
 20
103.43475518181819
 11
202.44050881818185
 21
97.43475518181819
  0
LINE
  8
_0-3_1_2
  6
CONTINUOUS
 62
    3
 10
202.44050881818185
 20
97.544243181818189
 11
202.44050881818185
 21
97.534755181818184
  0
ARC
  8
_0-3_1_2
  6
CONTINUOUS
 62
    3
 10
202.94050881818185
 20
103.43475518181819
 40
0.5
 50
90
 51
180
  0
LINE
  8
_0-3_1_2
  6
CONTINUOUS
 62
    3
 10
202.54051081818182
 20
52.184755181818183
 11
202.54051081818182
 21
48.434755181818183
  0
ARC
  8
_0-3_1_2
  6
CONTINUOUS
 62
    3
 10
202.29051081818182
 20
52.184755181818183
 40
0.25
 50
0
 51
90
  0
LINE
  8
_0-3_1_2
  6
CONTINUOUS
 62
    3
 10
166.34050881818183
 20
52.184755181818183
 11
166.34050881818183
 21
48.383670181818182
  0
ARC
  8
_0-3_1_2
  6
CONTINUOUS
 62
    3
 10
166.59050881818183
 20
52.184755181818183
 40
0.25
 50
90
 51
180
  0
LINE
  8
_0-3_1_2
  6
CONTINUOUS
 62
    3
 10
166.59050881818183
 20
52.434755181818183
 11
177.44050981818185
 21
52.434755181818183
  0
LINE
  8
_0-3_1_2
  6
CONTINUOUS
 62
    3
 10
166.34050881818183
 20
52.184755181818183
 11
166.34050881818183
 21
48.383670181818182
  0
ARC
  8
_0-3_1_2
  6
CONTINUOUS
 62
    3
 10
166.59050881818183
 20
52.184755181818183
 40
0.25
 50
90
 51
180
  0
LINE
  8
_0-3_1_2
  6
CONTINUOUS
 62
    3
 10
193.06550981818185
 20
102.93475518181819
 11
191.59051081818183
 21
102.93475518181819
  0
LINE
  8
_0-3_1_2
  6
CONTINUOUS
 62
    3
 10
202.54051081818182
 20
52.184755181818183
 11
202.54051081818182
 21
48.434755181818183
  0
ARC
  8
_0-3_1_2
  6
CONTINUOUS
 62
    3
 10
202.29051081818182
 20
52.184755181818183
 40
0.25
 50
0
 51
90
  0
LINE
  8
_0-3_1_2
  6
CENTER
 62
    7
 10
184.44050981818185
 20
63.434566181818184
 11
184.44050981818185
 21
43.534755181818177
  0
LINE
  8
_0-3_1_2
  6
CONTINUOUS
 62
    3
 10
189.88683381818183
 20
85.610186181818179
 11
185.62913081818184
 21
71.98553618181819
  0
LINE
  8
_0-3_1_2
  6
CONTINUOUS
 62
    3
 10
186.24051081818183
 20
85.68475518181819
 11
186.24051081818183
 21
76.524434181818179
  0
LINE
  8
_0-3_1_2
  6
CONTINUOUS
 62
    3
 10
186.17639981818184
 20
76.357266181818176
 11
185.20462181818183
 21
75.276658181818192
  0
LINE
  8
_0-3_1_2
  6
CONTINUOUS
 62
    3
 10
185.14051081818184
 20
75.109490181818188
 11
185.14051081818184
 21
72.060105181818187
  0
ARC
  8
_0-3_1_2
  6
CONTINUOUS
 62
    3
 10
185.99051081818183
 20
76.524434181818179
 40
0.25
 50
318.03533499999998
 51
0
  0
ARC
  8
_0-3_1_2
  6
CONTINUOUS
 62
    3
 10
185.39051081818184
 20
75.109490181818188
 40
0.25
 50
138.035335
 51
180
  0
LINE
  8
_0-3_1_2
  6
CONTINUOUS
 62
    3
 10
214.64051081818184
 20
86.134755181818178
 11
214.64051081818184
 21
73.432651181818187
  0
LINE
  8
_0-3_1_2
  6
CONTINUOUS
 62
    3
 10
201.93168481818185
 20
67.159324181818192
 11
208.58793481818185
 21
88.459324181818175
  0
LINE
  8
_0-3_1_2
  6
CONTINUOUS
 62
    3
 10
186.24051081818183
 20
85.68475518181819
 11
186.24051081818183
 21
76.524434181818179
  0
ARC
  8
_0-3_1_2
  6
CONTINUOUS
 62
    3
 10
185.99051081818183
 20
76.524434181818179
 40
0.25
 50
318.03533499999998
 51
0
  0
ARC
  8
_0-3_1_2
  6
CONTINUOUS
 62
    3
 10
212.14051081818184
 20
86.134755181818178
 40
2.5
 50
0
 51
90
  0
ARC
  8
_0-3_1_2
  6
CONTINUOUS
 62
    3
 10
208.82655481818182
 20
88.384755181818178
 40
0.25
 50
90
 51
162.64597499999999
  0
ARC
  8
_0-3_1_2
  6
CONTINUOUS
 62
    3
 10
185.39051081818184
 20
72.060105181818187
 40
0.25
 50
180
 51
342.64597400000002
  0
LINE
  8
_0-3_1_2
  6
CONTINUOUS
 62
    3
 10
208.82655481818182
 20
88.634755181818178
 11
212.14051081818184
 21
88.634755181818178
  0
LINE
  8
_0-3_1_2
  6
CONTINUOUS
 62
    3
 10
208.59051081818183
 20
62.834755181818181
 11
222.64051081818184
 21
62.834755181818181
  0
LINE
  8
_0-3_1_2
  6
CONTINUOUS
 62
    3
 10
207.74051081818183
 20
61.98475518181818
 11
222.64051081818184
 21
61.98475518181818
  0
LINE
  8
_0-3_1_2
  6
CONTINUOUS
 62
    3
 10
222.64051081818184
 20
70.584755181818181
 11
209.59051081818183
 21
70.584755181818181
  0
LINE
  8
_0-3_1_2
  6
CONTINUOUS
 62
    3
 10
208.59049081818182
 20
62.834735181818182
 11
207.74051081818183
 21
61.98475518181818
  0
ARC
  8
_0-3_1_2
  6
CONTINUOUS
 62
    3
 10
209.59051081818183
 20
69.584755181818181
 40
1
 50
90
 51
180
  0
ARC
  8
_0-3_1_2
  6
CONTINUOUS
 62
    3
 10
232.68692581818183
 20
73.084755181818181
 40
2.5
 50
191.82074299999999
 51
270
  0
ARC
  8
_0-3_1_2
  6
CONTINUOUS
 62
    3
 10
235.69051081818185
 20
69.584755181818181
 40
1
 50
0
 51
90
  0
LINE
  8
_0-3_1_2
  6
CONTINUOUS
 62
    3
 10
224.86551081818183
 20
101.68475518181819
 11
227.04050981818182
 21
101.68475518181819
  0
ARC
  8
_0-3_1_2
  6
CONTINUOUS
 62
    3
 10
227.04050981818182
 20
102.18475518181819
 40
0.5
 50
270
 51
0
  0
ARC
  8
_0-3_1_2
  6
CONTINUOUS
 62
    3
 10
224.86550881818184
 20
101.43475518181819
 40
0.25
 50
90
 51
180
  0
ARC
  8
_0-3_1_2
  6
CONTINUOUS
 62
    3
 10
225.11550881818184
 20
99.498423181818183
 40
0.5
 50
180
 51
191.82074299999999
  0
LINE
  8
_0-3_1_2
  6
CONTINUOUS
 62
    3
 10
224.61550881818184
 20
101.43475518181819
 11
224.61550881818184
 21
99.498423181818183
  0
ARC
  8
_0-3_1_2
  6
CONTINUOUS
 62
    3
 10
227.04051081818182
 20
102.18475518181819
 40
0.5
 50
270
 51
0
  0
ARC
  8
_0-3_1_2
  6
CONTINUOUS
 62
    3
 10
225.11551081818183
 20
99.498423181818183
 40
0.5
 50
180
 51
191.82074299999999
  0
ARC
  8
_0-3_1_2
  6
CONTINUOUS
 62
    3
 10
235.69051081818185
 20
69.584755181818181
 40
1
 50
0
 51
90
  0
ARC
  8
_0-3_1_2
  6
CONTINUOUS
 62
    3
 10
224.86551081818183
 20
101.43475518181819
 40
0.25
 50
90
 51
180
  0
LINE
  8
_0-3_1_2
  6
CONTINUOUS
 62
    3
 10
224.62611381818184
 20
99.395997181818188
 11
230.23994281818182
 21
72.572629181818172
  0
LINE
  8
_0-3_1_2
  6
CONTINUOUS
 62
    3
 10
227.04051081818182
 20
101.68475518181819
 11
224.86551081818183
 21
101.68475518181819
  0
LINE
  8
_0-3_1_2
  6
CONTINUOUS
 62
    3
 10
224.61551081818183
 20
101.43475518181819
 11
224.61551081818183
 21
99.498423181818183
  0
LINE
  8
_0-3_1_2
  6
CONTINUOUS
 62
    3
 10
222.64051081818184
 20
70.584755181818181
 11
235.69051081818185
 21
70.584755181818181
  0
LINE
  8
_0-3_1_2
  6
CONTINUOUS
 62
    3
 10
165.14051081818184
 20
66.052640181818191
 11
165.14051081818184
 21
75.109490181818188
  0
ARC
  8
_0-3_1_2
  6
CONTINUOUS
 62
    3
 10
164.89051081818184
 20
75.109490181818188
 40
0.25
 50
0
 51
41.964664999999997
  0
ARC
  8
_0-3_1_2
  6
CONTINUOUS
 62
    3
 10
164.29051081818184
 20
76.524434181818179
 40
0.25
 50
180
 51
221.964665
  0
LINE
  8
_0-3_1_2
  6
CONTINUOUS
 62
    3
 10
164.10462181818184
 20
76.357266181818176
 11
165.07639981818184
 21
75.276658181818192
  0
ARC
  8
_0-3_1_2
  6
CONTINUOUS
 62
    3
 10
171.39051081818184
 20
66.052640181818191
 40
6.25
 50
180
 51
200.447036
  0
LINE
  8
_0-3_1_2
  6
CONTINUOUS
 62
    3
 10
165.53428881818184
 20
63.869257181818185
 11
169.20562181818184
 21
54.022090181818186
  0
ARC
  8
_0-3_1_2
  6
CONTINUOUS
 62
    3
 10
164.29051081818184
 20
76.524434181818179
 40
0.25
 50
180
 51
221.964665
  0
LINE
  8
_0-3_1_2
  6
CONTINUOUS
 62
    3
 10
195.55914481818184
 20
102.93475518181819
 11
195.56132681818184
 21
102.68475518181819
  0
LINE
  8
_0-3_1_2
  6
CONTINUOUS
 62
    3
 10
164.04051081818184
 20
93.18475518181819
 11
163.29063581818184
 21
93.934630181818179
  0
LINE
  8
_0-3_1_2
  6
CONTINUOUS
 62
    3
 10
164.04051081818184
 20
76.524434181818179
 11
164.04051081818184
 21
93.18475518181819
  0
LINE
  8
_0-3_1_2
  6
CONTINUOUS
 62
    3
 10
202.17030481818182
 20
67.334755181818181
 11
208.34051081818183
 21
67.334755181818181
  0
ARC
  8
_0-3_1_2
  6
CONTINUOUS
 62
    3
 10
208.34051081818183
 20
67.084755181818181
 40
0.25
 50
0
 51
90
  0
ARC
  8
_0-3_1_2
  6
CONTINUOUS
 62
    3
 10
213.64051081818184
 20
71.584755181818181
 40
1
 50
270
 51
0
  0
LINE
  8
_0-3_1_2
  6
CONTINUOUS
 62
    3
 10
209.44050981818185
 20
93.68475518181819
 11
204.69050881818185
 21
93.68475518181819
  0
ARC
  8
_0-3_1_2
  6
CONTINUOUS
 62
    3
 10
191.84050781818183
 20
102.18475518181819
 40
0.5
 50
180
 51
270
  0
ARC
  8
_0-3_1_2
  6
CONTINUOUS
 62
    3
 10
191.59050781818183
 20
102.43475518181819
 40
0.25
 50
90
 51
180
  0
LINE
  8
_0-3_1_2
  6
CONTINUOUS
 62
    3
 10
191.34050781818183
 20
102.43475518181819
 11
191.34050781818183
 21
102.18475518181819
  0
ARC
  8
_0-3_1_2
  6
CONTINUOUS
 62
    3
 10
191.59050981818183
 20
103.18475518181819
 40
0.25
 50
180
 51
270
  0
ARC
  8
_0-3_1_2
  6
CONTINUOUS
 62
    3
 10
203.94050881818185
 20
97.43475518181819
 40
1.5
 50
180
 51
270
  0
LINE
  8
_0-3_1_2
  6
CONTINUOUS
 62
    3
 10
208.94050881818185
 20
95.93475518181819
 11
208.94050881818185
 21
94.68475518181819
  0
LINE
  8
_0-3_1_2
  6
CONTINUOUS
 62
    3
 10
206.94050881818185
 20
95.93475518181819
 11
206.94050881818185
 21
94.68475518181819
  0
LINE
  8
_0-3_1_2
  6
CONTINUOUS
 62
    3
 10
205.94050881818185
 20
95.93475518181819
 11
205.94050881818185
 21
94.68475518181819
  0
LINE
  8
_0-3_1_2
  6
CONTINUOUS
 62
    3
 10
209.44050881818185
 20
95.93475518181819
 11
203.94050881818185
 21
95.93475518181819
  0
LINE
  8
_0-3_1_2
  6
CONTINUOUS
 62
    3
 10
209.44050881818185
 20
94.68475518181819
 11
204.44050881818185
 21
94.68475518181819
  0
LINE
  8
_0-3_1_2
  6
CONTINUOUS
 62
    3
 10
202.44050881818185
 20
101.18475518181819
 11
201.94050881818185
 21
101.18475518181819
  0
LINE
  8
_0-3_1_2
  6
CONTINUOUS
 62
    3
 10
202.44050881818185
 20
101.68475518181819
 11
201.94050881818185
 21
101.68475518181819
  0
ARC
  8
_0-3_1_2
  6
CONTINUOUS
 62
    3
 10
201.44050881818185
 20
102.18475518181819
 40
0.5
 50
0
 51
90
  0
ARC
  8
_0-3_1_2
  6
CONTINUOUS
 62
    3
 10
201.19050881818185
 20
102.18475518181819
 40
0.5
 50
90
 51
180
  0
LINE
  8
_0-3_1_2
  6
CONTINUOUS
 62
    3
 10
202.44050881818185
 20
102.68475518181819
 11
191.59050781818183
 21
102.68475518181819
  0
LINE
  8
_0-3_1_2
  6
CONTINUOUS
 62
    3
 10
200.69050881818185
 20
102.18475518181819
 11
200.69050881818185
 21
97.68475518181819
  0
LINE
  8
_0-3_1_2
  6
CONTINUOUS
 62
    3
 10
201.94050881818185
 20
97.18475518181819
 11
201.94050881818185
 21
102.18475518181819
  0
ARC
  8
_0-3_1_2
  6
CONTINUOUS
 62
    3
 10
204.69050881818185
 20
97.68475518181819
 40
4
 50
180
 51
270
  0
ARC
  8
_0-3_1_2
  6
CONTINUOUS
 62
    3
 10
204.44050881818185
 20
97.18475518181819
 40
2.5
 50
180
 51
270
  0
ARC
  8
_0-3_1_2
  6
CONTINUOUS
 62
    3
 10
194.01550881818184
 20
101.43475518181819
 40
0.25
 50
0
 51
90
  0
LINE
  8
_0-3_1_2
  6
CONTINUOUS
 62
    3
 10
193.06550981818185
 20
102.68475518181819
 11
193.06550981818185
 21
102.93475518181819
  0
LINE
  8
_0-3_1_2
  6
CONTINUOUS
 62
    3
 10
200.69050881818185
 20
101.68475518181819
 11
191.84050781818183
 21
101.68475518181819
  0
ARC
  8
_0-3_1_2
  6
CONTINUOUS
 62
    3
 10
194.01550881818184
 20
102.93475518181819
 40
0.25
 50
270
 51
0
  0
LINE
  8
_0-3_1_2
  6
CONTINUOUS
 62
    3
 10
194.20701081818186
 20
99.43475518181819
 11
200.69050881818185
 21
99.43475518181819
  0
ARC
  8
_0-3_1_2
  6
CONTINUOUS
 62
    3
 10
193.76550881818184
 20
99.698254181818186
 40
0.5
 50
342.64597400000002
 51
0
  0
LINE
  8
_0-3_1_2
  6
CONTINUOUS
 62
    3
 10
194.26550881818184
 20
101.43475518181819
 11
194.26550881818184
 21
99.698254181818186
  0
LINE
  8
_0-3_1_2
  6
CONTINUOUS
 62
    3
 10
170.55914481818184
 20
52.434755181818183
 11
170.56132581818184
 21
52.684755181818183
  0
LINE
  8
_0-3_1_2
  6
CONTINUOUS
 62
    3
 10
168.06551081818185
 20
52.684755181818183
 11
168.06551081818185
 21
52.434755181818183
  0
LINE
  8
_0-3_1_2
  6
CONTINUOUS
 62
    3
 10
199.61550981818183
 20
53.934755181818183
 11
199.61550981818183
 21
58.793746181818186
  0
LINE
  8
_0-3_1_2
  6
CONTINUOUS
 62
    3
 10
202.04050981818182
 20
53.684755181818183
 11
193.19050981818185
 21
53.684755181818183
  0
ARC
  8
_0-3_1_2
  6
CONTINUOUS
 62
    3
 10
202.29050981818182
 20
52.934755181818183
 40
0.25
 50
270
 51
0
  0
LINE
  8
_0-3_1_2
  6
CONTINUOUS
 62
    3
 10
202.54050981818182
 20
52.934755181818183
 11
202.54050981818182
 21
53.184755181818183
  0
ARC
  8
_0-3_1_2
  6
CONTINUOUS
 62
    3
 10
202.04050981818182
 20
53.184755181818183
 40
0.5
 50
0
 51
90
  0
LINE
  8
_0-3_1_2
  6
CONTINUOUS
 62
    3
 10
200.81550881818185
 20
52.684755181818183
 11
200.81550881818185
 21
52.434755181818183
  0
ARC
  8
_0-3_1_2
  6
CONTINUOUS
 62
    3
 10
199.86550981818183
 20
53.934755181818183
 40
0.25
 50
180
 51
270
  0
ARC
  8
_0-3_1_2
  6
CONTINUOUS
 62
    3
 10
166.59050981818183
 20
52.934755181818183
 40
0.25
 50
180
 51
270
  0
LINE
  8
_0-3_1_2
  6
CONTINUOUS
 62
    3
 10
166.34050981818183
 20
52.934755181818183
 11
166.34050981818183
 21
53.184755181818183
  0
ARC
  8
_0-3_1_2
  6
CONTINUOUS
 62
    3
 10
166.84050981818183
 20
53.184755181818183
 40
0.5
 50
90
 51
180
  0
LINE
  8
_0-3_1_2
  6
CONTINUOUS
 62
    3
 10
168.06551081818185
 20
52.684755181818183
 11
168.06551081818185
 21
52.434755181818183
  0
ARC
  8
_0-3_1_2
  6
CONTINUOUS
 62
    3
 10
191.59050881818183
 20
102.43475518181819
 40
0.25
 50
90
 51
180
  0
LINE
  8
_0-3_1_2
  6
CONTINUOUS
 62
    3
 10
191.34050881818183
 20
102.43475518181819
 11
191.34050881818183
 21
102.18475518181819
  0
ARC
  8
_0-3_1_2
  6
CONTINUOUS
 62
    3
 10
191.84050881818183
 20
102.18475518181819
 40
0.5
 50
180
 51
270
  0
ARC
  8
_0-3_1_2
  6
CONTINUOUS
 62
    3
 10
191.59051081818183
 20
103.18475518181819
 40
0.25
 50
180
 51
270
  0
LINE
  8
_0-3_1_2
  6
CONTINUOUS
 62
    3
 10
199.90000981818184
 20
60.657965181818184
 11
201.93168481818185
 21
67.159324181818192
  0
LINE
  8
_0-3_1_2
  6
CONTINUOUS
 62
    3
 10
194.24275081818183
 20
99.54911718181819
 11
189.88683381818183
 21
85.610186181818179
  0
ARC
  8
_0-3_1_2
  6
CONTINUOUS
 62
    3
 10
168.97137281818183
 20
53.934755181818183
 40
0.25
 50
270
 51
20.447035999999997
  0
ARC
  8
_0-3_1_2
  6
CONTINUOUS
 62
    3
 10
199.86550981818183
 20
53.934755181818183
 40
0.25
 50
180
 51
270
  0
ARC
  8
_0-3_1_2
  6
CONTINUOUS
 62
    3
 10
169.01550981818184
 20
52.434755181818183
 40
0.25
 50
0
 51
90
  0
ARC
  8
_0-3_1_2
  6
CONTINUOUS
 62
    3
 10
202.29050981818182
 20
52.934755181818183
 40
0.25
 50
270
 51
0
  0
ARC
  8
_0-3_1_2
  6
CONTINUOUS
 62
    3
 10
202.04050981818182
 20
53.184755181818183
 40
0.5
 50
0
 51
90
  0
ARC
  8
_0-3_1_2
  6
CONTINUOUS
 62
    3
 10
166.59050981818183
 20
52.934755181818183
 40
0.25
 50
180
 51
270
  0
ARC
  8
_0-3_1_2
  6
CONTINUOUS
 62
    3
 10
166.84050981818183
 20
53.184755181818183
 40
0.5
 50
90
 51
180
  0
LINE
  8
_0-3_1_2
  6
CONTINUOUS
 62
    3
 10
202.54050981818182
 20
52.934755181818183
 11
202.54050981818182
 21
53.184755181818183
  0
LINE
  8
_0-3_1_2
  6
CONTINUOUS
 62
    3
 10
166.34050981818183
 20
52.934755181818183
 11
166.34050981818183
 21
53.184755181818183
  0
ARC
  8
_0-3_1_2
  6
CONTINUOUS
 62
    3
 10
208.34051081818183
 20
67.084755181818181
 40
0.25
 50
0
 51
90
  0
ARC
  8
_0-3_1_2
  6
CONTINUOUS
 62
    3
 10
202.17030481818182
 20
67.084755181818181
 40
0.25
 50
90
 51
162.64597499999999
  0
ARC
  8
_0-3_1_2
  6
CONTINUOUS
 62
    3
 10
189.64821381818183
 20
85.68475518181819
 40
0.25
 50
270
 51
342.64597400000002
  0
ARC
  8
_0-3_1_2
  6
CONTINUOUS
 62
    7
 10
186.49051081818183
 20
86.475185181818176
 40
0.25
 50
180
 51
270
  0
ARC
  8
_0-3_1_2
  6
CONTINUOUS
 62
    3
 10
164.29051081818184
 20
76.524434181818179
 40
0.25
 50
180
 51
221.964665
  0
LINE
  8
_0-3_1_2
  6
CONTINUOUS
 62
    3
 10
202.17030481818182
 20
67.334755181818181
 11
208.34051081818183
 21
67.334755181818181
  0
ARC
  8
_0-3_1_2
  6
CONTINUOUS
 62
    3
 10
193.76551081818184
 20
99.698254181818186
 40
0.5
 50
342.64597400000002
 51
0
  0
ARC
  8
_0-3_1_2
  6
CONTINUOUS
 62
    3
 10
205.86550981818183
 20
58.793746181818186
 40
6.25
 50
162.64597499999999
 51
180
  0
ARC
  8
_0-3_1_2
  6
CONTINUOUS
 62
    3
 10
194.01551081818184
 20
102.93475518181819
 40
0.25
 50
270
 51
0
  0
ARC
  8
_0-3_1_2
  6
CONTINUOUS
 62
    3
 10
194.01551081818184
 20
101.43475518181819
 40
0.25
 50
0
 51
90
  0
LINE
  8
_0-3_1_2
  6
CONTINUOUS
 62
    3
 10
189.64821381818183
 20
85.43475518181819
 11
186.49051081818183
 21
85.43475518181819
  0
ARC
  8
_0-3_1_2
  6
CONTINUOUS
 62
    3
 10
171.39051081818184
 20
66.052640181818191
 40
6.25
 50
180
 51
200.447036
  0
LINE
  8
_0-3_1_2
  6
CONTINUOUS
 62
    3
 10
191.84050881818183
 20
101.68475518181819
 11
194.01551081818184
 21
101.68475518181819
  0
LINE
  8
_0-3_1_2
  6
CONTINUOUS
 62
    3
 10
194.01551081818184
 20
102.68475518181819
 11
191.59050881818183
 21
102.68475518181819
  0
LINE
  8
_0-3_1_2
  6
CONTINUOUS
 62
    3
 10
168.97137281818183
 20
53.684755181818183
 11
166.84050981818183
 21
53.684755181818183
  0
LINE
  8
_0-3_1_2
  6
CONTINUOUS
 62
    3
 10
166.59050981818183
 20
52.684755181818183
 11
177.44050981818185
 21
52.684755181818183
  0
LINE
  8
_0-3_1_2
  6
CONTINUOUS
 62
    3
 10
194.26551081818184
 20
101.43475518181819
 11
194.26551081818184
 21
99.698254181818186
  0
LINE
  8
_0-3_1_2
  6
CONTINUOUS
 62
    3
 10
199.61550981818183
 20
53.934755181818183
 11
199.61550981818183
 21
58.793746181818186
  0
LINE
  8
_0-3_1_2
  6
CONTINUOUS
 62
    3
 10
165.53428881818184
 20
63.869257181818185
 11
169.20562181818184
 21
54.022090181818186
  0
LINE
  8
_0-3_1_2
  6
CONTINUOUS
 62
    3
 10
198.32187581818184
 20
52.434755181818183
 11
198.31969381818183
 21
52.684755181818183
  0
LINE
  8
_0-3_1_2
  6
CONTINUOUS
 62
    3
 10
186.99051081818183
 20
95.630218181818179
 11
186.99051081818183
 21
93.934630181818179
  0
LINE
  8
_0-3_1_2
  6
CONTINUOUS
 62
    3
 10
186.24051081818183
 20
93.18475518181819
 11
186.99051081818183
 21
93.934754181818178
  0
LINE
  8
_0-3_1_2
  6
CONTINUOUS
 62
    3
 10
191.34051081818183
 20
103.18475518181819
 11
191.34051081818183
 21
106.98583918181818
  0
LINE
  8
_0-3_1_2
  6
CONTINUOUS
 62
    3
 10
191.34050981818183
 20
103.18475518181819
 11
191.34050981818183
 21
106.98583918181818
  0
LINE
  8
_0-3_1_2
  6
CENTER
 62
    7
 10
209.44050981818185
 20
86.134755181818178
 11
209.44050981818185
 21
111.83475518181818
  0
ARC
  8
_0-3_1_2
  6
CONTINUOUS
 62
    3
 10
162.14050881818184
 20
106.08021818181818
 40
1
 50
89.999999000000003
 51
179.99999500000001
  0
ARC
  8
_0-3_1_2
  6
CONTINUOUS
 62
    3
 10
170.14051081818184
 20
106.43069918181818
 40
0.75
 50
119.99999299999999
 51
179.99999500000001
  0
ARC
  8
_0-3_1_2
  6
CONTINUOUS
 62
    3
 10
169.39051081818184
 20
106.43069918181818
 40
0.75
 50
0
 51
60.000002000000002
  0
ARC
  8
_0-3_1_2
  6
CONTINUOUS
 62
    3
 10
188.14051081818184
 20
106.08021818181818
 40
1
 50
0
 51
90.000003000000007
  0
ARC
  8
_0-3_1_2
  6
CONTINUOUS
 62
    3
 10
162.39050881818184
 20
106.33021818181818
 40
0.75
 50
90.000003000000007
 51
180.00000499999999
  0
ARC
  8
_0-3_1_2
  6
CENTER
 62
    7
 10
159.64051081818184
 20
136.15297818181818
 40
15.5
 50
0
 51
88.833332999999996
  0
ARC
  8
_0-3_1_2
  6
CONTINUOUS
 62
    3
 10
159.64051081818184
 20
136.15297818181818
 40
25
 50
0
 51
88.833333999999994
  0
ARC
  8
_0-3_1_2
  6
CONTINUOUS
 62
    3
 10
159.64051081818184
 20
136.15297818181818
 40
6
 50
0
 51
88.833331999999999
  0
LINE
  8
_0-3_1_2
  6
CONTINUOUS
 62
    3
 10
165.64051081818184
 20
136.15297818181818
 11
165.64051081818184
 21
107.08021818181818
  0
LINE
  8
_0-3_1_2
  6
CONTINUOUS
 62
    3
 10
184.64051081818184
 20
136.15297818181818
 11
184.64051081818184
 21
107.08021818181818
  0
LINE
  8
_0-3_1_2
  6
CONTINUOUS
 62
    3
 10
160.14952981818183
 20
161.1477951818182
 11
67.146605818181825
 21
163.04180518181818
  0
LINE
  8
_0-3_1_2
  6
CONTINUOUS
 62
    3
 10
159.76267581818183
 20
142.15174318181818
 11
66.593107818181835
 21
144.04913818181819
  0
LINE
  8
_0-3_1_2
  6
CENTER
 62
    7
 10
175.14051081818184
 20
136.15297818181818
 11
175.14051081818184
 21
43.444690181818181
  0
LINE
  8
_0-3_1_2
  6
CONTINUOUS
 62
    3
 10
188.14051081818184
 20
107.08021818181818
 11
162.14051081818184
 21
107.08021818181818
  0
LINE
  8
_f-f_
  6
CONTINUOUS
 62
    3
 10
47.820195175757618
 20
170.79546476253535
 11
47.820195175757618
 21
165.92046476253535
  0
LINE
  8
_f-f_
  6
CONTINUOUS
 62
    3
 10
47.820195175757618
 20
170.79546476253535
 11
47.820195175757618
 21
165.92046476253535
  0
ARC
  8
_f-f_
  6
CONTINUOUS
 62
    3
 10
50.570195175757618
 20
172.29546476253535
 40
0.75
 50
270
 51
0
  0
LINE
  8
_f-f_
  6
CONTINUOUS
 62
    3
 10
50.570195175757618
 20
171.54546476253535
 11
33.820195175757618
 21
171.54546476253535
  0
LINE
  8
_f-f_
  6
CONTINUOUS
 62
    3
 10
51.320195175757618
 20
173.54546476253535
 11
33.820195175757618
 21
173.54546476253535
  0
LINE
  8
_f-f_
  6
CONTINUOUS
 62
    3
 10
51.320195175757618
 20
173.54546476253535
 11
51.320195175757618
 21
172.29546476253535
  0
LINE
  8
_f-f_
  6
CONTINUOUS
 62
    3
 10
33.820195175757618
 20
173.54546476253535
 11
49.820195175757618
 21
173.54546476253535
  0
LINE
  8
_f-f_
  6
CONTINUOUS
 62
    3
 10
55.420195175757613
 20
140.04546326253535
 11
66.120195175757615
 21
140.04546326253535
  0
LINE
  8
_f-f_
  6
CONTINUOUS
 62
    3
 10
55.420195175757613
 20
139.54546326253535
 11
65.870195175757615
 21
139.54546326253535
  0
LINE
  8
_f-f_
  6
CONTINUOUS
 62
    3
 10
55.420195175757613
 20
148.54546476253535
 11
66.220676175757617
 21
148.54546476253535
  0
LINE
  8
_f-f_
  6
CONTINUOUS
 62
    3
 10
55.420195175757613
 20
147.79546476253535
 11
66.220676175757617
 21
147.79546476253535
  0
ARC
  8
_f-f_
  6
CONTINUOUS
 62
    3
 10
65.870195175757615
 20
140.54546326253535
 40
1
 50
270.00000499999999
 51
0.0000010000000039
  0
ARC
  8
_f-f_
  6
CONTINUOUS
 62
    3
 10
66.120195175757615
 20
140.79546326253535
 40
0.75
 50
269.99999500000001
 51
359.99999700000001
  0
ARC
  8
_f-f_
  6
CONTINUOUS
 62
    3
 10
66.220676175757617
 20
148.54546476253535
 40
0.75
 50
270.00000499999999
 51
330.00000699999998
  0
ARC
  8
_f-f_
  6
CONTINUOUS
 62
    3
 10
66.220676175757617
 20
147.79546476253535
 40
0.75
 50
29.999998000000001
 51
90
  0
LINE
  8
_f-f_
  6
CONTINUOUS
 62
    3
 10
55.420195175757613
 20
153.54546476253535
 11
55.420195175757613
 21
139.54546326253535
  0
LINE
  8
_f-f_
  6
CONTINUOUS
 62
    3
 10
66.870195175757615
 20
153.54546476253535
 11
66.870195175757615
 21
140.54546326253535
  0
ARC
  8
_f-f_
  6
CONTINUOUS
 62
    3
 10
19.070195175757618
 20
170.79546476253535
 40
0.75
 50
0
 51
90
  0
ARC
  8
_f-f_
  6
CONTINUOUS
 62
    3
 10
17.070195175757618
 20
172.29546476253535
 40
0.75
 50
180
 51
270
  0
ARC
  8
_f-f_
  6
CONTINUOUS
 62
    3
 10
33.820195175757618
 20
158.04546476253535
 40
14
 50
180
 51
270
  0
ARC
  8
_f-f_
  6
CONTINUOUS
 62
    3
 10
48.570195175757618
 20
170.79546476253535
 40
0.75
 50
90
 51
180
  0
ARC
  8
_f-f_
  6
CONTINUOUS
 62
    3
 10
48.695195175757618
 20
165.92046476253535
 40
0.875
 50
180
 51
270
  0
ARC
  8
_f-f_
  6
CONTINUOUS
 62
    3
 10
44.945195175757618
 20
143.17046476253535
 40
0.875
 50
0
 51
90
  0
ARC
  8
_f-f_
  6
CONTINUOUS
 62
    3
 10
46.820195175757618
 20
143.04546476253535
 40
1
 50
180
 51
270
  0
LINE
  8
_f-f_
  6
CONTINUOUS
 62
    3
 10
16.320195175757618
 20
173.54546476253535
 11
33.820195175757618
 21
173.54546476253535
  0
LINE
  8
_f-f_
  6
CONTINUOUS
 62
    3
 10
16.320195175757618
 20
173.54546476253535
 11
16.320195175757618
 21
172.29546476253535
  0
LINE
  8
_f-f_
  6
CONTINUOUS
 62
    3
 10
17.070195175757618
 20
171.54546476253535
 11
33.820195175757618
 21
171.54546476253535
  0
LINE
  8
_f-f_
  6
CONTINUOUS
 62
    3
 10
54.820195175757618
 20
142.04546476253535
 11
54.820195175757618
 21
165.04546476253535
  0
LINE
  8
_f-f_
  6
CONTINUOUS
 62
    3
 10
19.820195175757618
 20
170.79546476253535
 11
19.820195175757618
 21
158.04546476253535
  0
LINE
  8
_f-f_
  6
CONTINUOUS
 62
    3
 10
54.820195175757618
 20
142.44546476253535
 11
55.420195175757613
 21
141.84546476253536
  0
LINE
  8
_f-f_
  6
CONTINUOUS
 62
    3
 10
54.820195175757618
 20
164.64546476253537
 11
55.420195175757613
 21
164.64546476253537
  0
LINE
  8
_f-f_
  6
CONTINUOUS
 62
    3
 10
54.820195175757618
 20
164.64546476253537
 11
55.420195175757613
 21
165.24546476253536
  0
LINE
  8
_f-f_
  6
CONTINUOUS
 62
    3
 10
50.570195175757618
 20
171.54546476253535
 11
48.570195175757618
 21
171.54546476253535
  0
LINE
  8
_f-f_
  6
CONTINUOUS
 62
    3
 10
47.820195175757618
 20
170.79546476253535
 11
47.820195175757618
 21
165.92046476253535
  0
LINE
  8
_f-f_
  6
CONTINUOUS
 62
    3
 10
54.820195175757618
 20
142.44546476253535
 11
55.420195175757613
 21
142.44546476253535
  0
LINE
  8
_f-f_
  6
CONTINUOUS
 62
    3
 10
48.695195175757618
 20
165.04546476253535
 11
54.820195175757618
 21
165.04546476253535
  0
LINE
  8
_f-f_
  6
CONTINUOUS
 62
    3
 10
33.820195175757618
 20
144.04546476253535
 11
44.945195175757618
 21
144.04546476253535
  0
LINE
  8
_f-f_
  6
CONTINUOUS
 62
    3
 10
45.820195175757618
 20
143.17046476253535
 11
45.820195175757618
 21
143.04546476253535
  0
LINE
  8
_f-f_
  6
CONTINUOUS
 62
    3
 10
46.820195175757618
 20
142.04546476253535
 11
54.820195175757618
 21
142.04546476253535
  0
LINE
  8
_f-f_
  6
CENTER
 62
    7
 10
33.820195175757618
 20
188.64224426253534
 11
33.820195175757618
 21
141.54546476253535
  0
ARC
  8
_f-f_
  6
CONTINUOUS
 62
    3
 10
66.220676175757617
 20
159.29546476253535
 40
0.75
 50
270
 51
330.00000199999999
  0
ARC
  8
_f-f_
  6
CONTINUOUS
 62
    3
 10
66.220676175757617
 20
158.54546476253535
 40
0.75
 50
29.999992999999996
 51
89.999994999999984
  0
ARC
  8
_f-f_
  6
CONTINUOUS
 62
    3
 10
66.120195175757615
 20
166.29546676253534
 40
0.75
 50
0.000003
 51
90.000004999999987
  0
ARC
  8
_f-f_
  6
CONTINUOUS
 62
    3
 10
65.870195175757615
 20
166.54546676253534
 40
1
 50
359.999999
 51
89.999995000000027
  0
LINE
  8
_f-f_
  6
CONTINUOUS
 62
    3
 10
55.420195175757613
 20
159.29546476253535
 11
66.220676175757617
 21
159.29546476253535
  0
LINE
  8
_f-f_
  6
CONTINUOUS
 62
    3
 10
55.420195175757613
 20
158.54546476253535
 11
66.220676175757617
 21
158.54546476253535
  0
LINE
  8
_f-f_
  6
CONTINUOUS
 62
    3
 10
55.420195175757613
 20
153.54546476253535
 11
55.420195175757613
 21
167.54546676253534
  0
LINE
  8
_f-f_
  6
CONTINUOUS
 62
    3
 10
55.420195175757613
 20
167.54546676253534
 11
65.870195175757615
 21
167.54546676253534
  0
LINE
  8
_f-f_
  6
CONTINUOUS
 62
    3
 10
66.870195175757615
 20
153.54546476253535
 11
66.870195175757615
 21
166.54546676253534
  0
LINE
  8
_f-f_
  6
CONTINUOUS
 62
    3
 10
55.420195175757613
 20
167.04546676253534
 11
66.120195175757615
 21
167.04546676253534
  0
LINE
  8
_f-f_
  6
CONTINUOUS
 62
    3
 10
33.820195175757618
 20
173.54546476253535
 11
17.820195675757617
 21
173.54546476253535
  0
LINE
  8
_f-f_
  6
CENTER
 62
    7
 10
18.0631216757576
 20
153.54546476253535
 11
66.870195175757488
 21
153.54546476253535
  0
LINE
  8
_0-3_1_2
  6
CENTER
 62
    7
 10
159.95610281818182
 20
151.64976518181817
 11
66.870195175757488
 21
153.54546476253535
  0
POINT
  8
_f-f_
 62
    7
 10
17.07019517575759
 20
180.79546676253537
  0
POINT
  8
_f-f_
 62
    7
 10
50.570195175757604
 20
180.79546676253537
  0
LINE
  8
_f-f_
  6
CONTINUOUS
 62
    7
 10
17.07019517575759
 20
196.69836791006531
 11
50.570195175757604
 21
196.69836791006531
  0
INSERT
  2
-013-_OPEN30
  8
_f-f_
 10
17.07019517575759
 20
196.69836791006531
 41
1.385
 42
1.385
 50
180
  0
INSERT
  2
-013-_OPEN30
  8
_f-f_
 10
50.570195175757604
 20
196.69836791006531
 41
1.385
 42
1.385
 50
0
  0
POINT
  8
_f-f_
 62
    7
 10
50.570195175757604
 20
196.69836791006531
  0
LINE
  8
_f-f_
  6
CONTINUOUS
 62
    7
 10
17.07019517575759
 20
181.54546676253537
 11
17.07019517575759
 21
197.48628114808923
  0
LINE
  8
_f-f_
  6
CONTINUOUS
 62
    7
 10
50.570195175757604
 20
181.54546676253537
 11
50.570195175757604
 21
197.48628114808923
  0
ARC
  8
_f-f_
  6
CONTINUOUS
 62
    3
 10
214.55182178929482
 20
16.728698406580733
 40
0.522
 50
180
 51
270
  0
ARC
  8
_f-f_
  6
CONTINUOUS
 62
    3
 10
214.55182178929482
 20
16.002198406580732
 40
0.2044999999999999
 50
0
 51
90
  0
LINE
  8
_f-f_
  6
CONTINUOUS
 62
    3
 10
222.62632178929482
 20
45.549198406580729
 11
232.82632178929481
 21
45.549198406580729
  0
LINE
  8
_f-f_
  6
CONTINUOUS
 62
    3
 10
237.37632178929482
 20
49.858198406580726
 11
222.62632178929482
 21
49.858198406580726
  0
LINE
  8
_f-f_
  6
CONTINUOUS
 62
    3
 10
222.62632178929482
 20
49.858198406580726
 11
207.87632178929482
 21
49.858198406580726
  0
LINE
  8
_f-f_
  6
CONTINUOUS
 62
    3
 10
212.42632178929483
 20
49.858198406580726
 11
212.42632178929483
 21
45.549198406580729
  0
ARC
  8
_f-f_
  6
CONTINUOUS
 62
    3
 10
214.62632178929482
 20
57.501198406580727
 40
7.3929999999999998
 50
239.85199999999998
 51
300.14800000000002
  0
ARC
  8
_f-f_
  6
CONTINUOUS
 62
    3
 10
208.76982178929481
 20
52.905698406580726
 40
2.7974999999999999
 50
219.98299999999998
 51
320.01699999999994
  0
ARC
  8
_f-f_
  6
CONTINUOUS
 62
    3
 10
222.62632178929482
 20
59.797198406580733
 40
9.6890000000000001
 50
243.73899999999998
 51
270.00599999999997
  0
LINE
  8
_f-f_
  6
CONTINUOUS
 62
    3
 10
218.33932178929481
 20
60.858198406580726
 11
218.33932178929481
 21
51.108198406580726
  0
LINE
  8
_f-f_
  6
CONTINUOUS
 62
    3
 10
210.91332178929483
 20
60.858198406580726
 11
210.91332178929483
 21
51.108198406580726
  0
LINE
  8
_f-f_
  6
CONTINUOUS
 62
    3
 10
206.62632178929482
 20
51.108198406580726
 11
206.62632178929482
 21
60.858198406580726
  0
ARC
  8
_f-f_
  6
CONTINUOUS
 62
    3
 10
207.87632178929482
 20
51.108198406580726
 40
1.25
 50
180
 51
270
  0
ARC
  8
_f-f_
  6
CONTINUOUS
 62
    3
 10
237.37632178929482
 20
51.108198406580726
 40
1.25
 50
270
 51
0
  0
LINE
  8
_f-f_
  6
CONTINUOUS
 62
    3
 10
238.62632178929482
 20
60.858198406580726
 11
206.62632178929482
 21
60.858198406580726
  0
LINE
  8
_f-f_
  6
CONTINUOUS
 62
    3
 10
238.62632178929482
 20
51.108198406580726
 11
238.62632178929482
 21
60.858198406580726
  0
LINE
  8
_f-f_
  6
CONTINUOUS
 62
    3
 10
232.82632178929481
 20
49.858198406580726
 11
232.82632178929481
 21
45.549198406580729
  0
LINE
  8
_f-f_
  6
CONTINUOUS
 62
    3
 10
212.42632178929483
 20
45.549198406580729
 11
222.62632178929482
 21
45.549198406580729
  0
LINE
  8
_f-f_
  6
CONTINUOUS
 62
    3
 10
219.8843217892948
 20
45.549198406580729
 11
214.63135278929482
 21
44.817796906580725
  0
LINE
  8
_f-f_
  6
CONTINUOUS
 62
    3
 10
214.75632178929482
 20
45.549198406580729
 11
214.75632178929482
 21
45.006198406580729
  0
LINE
  8
_f-f_
  6
CONTINUOUS
 62
    3
 10
222.62632178929482
 20
45.549198406580729
 11
212.50132178929482
 21
45.549198406580729
  0
ARC
  8
_f-f_
  6
CONTINUOUS
 62
    3
 10
214.55182178929482
 20
29.502198406580732
 40
0.2044999999999999
 50
0
 51
90
  0
ARC
  8
_f-f_
  6
CONTINUOUS
 62
    3
 10
214.55182178929482
 20
30.228698406580719
 40
0.522
 50
180
 51
270
  0
LINE
  8
_f-f_
  6
CONTINUOUS
 62
    3
 10
214.75632178929482
 20
29.502198406580732
 11
214.75632178929482
 21
27.006198406580722
  0
ARC
  8
_f-f_
  6
CONTINUOUS
 62
    3
 10
214.55182178929482
 20
25.002198406580732
 40
0.2044999999999999
 50
0
 51
90
  0
ARC
  8
_f-f_
  6
CONTINUOUS
 62
    3
 10
214.55182178929482
 20
27.006198406580722
 40
0.2044999999999999
 50
270
 51
0
  0
ARC
  8
_f-f_
  6
CONTINUOUS
 62
    3
 10
214.55182178929482
 20
25.728698406580719
 40
0.522
 50
180
 51
270
  0
ARC
  8
_f-f_
  6
CONTINUOUS
 62
    3
 10
214.55182178929482
 20
26.279698406580735
 40
0.522
 50
90
 51
180
  0
LINE
  8
_f-f_
  6
CONTINUOUS
 62
    3
 10
214.03132178929479
 20
26.289198406580738
 11
214.03132178929479
 21
25.724198406580726
  0
LINE
  8
_f-f_
  6
CONTINUOUS
 62
    3
 10
214.75632178929482
 20
25.002198406580732
 11
214.75632178929482
 21
22.506198406580722
  0
ARC
  8
_f-f_
  6
CONTINUOUS
 62
    3
 10
214.55182178929482
 20
20.502198406580732
 40
0.2044999999999999
 50
0
 51
90
  0
ARC
  8
_f-f_
  6
CONTINUOUS
 62
    3
 10
214.55182178929482
 20
22.506198406580722
 40
0.2044999999999999
 50
270
 51
0
  0
ARC
  8
_f-f_
  6
CONTINUOUS
 62
    3
 10
214.55182178929482
 20
21.228698406580733
 40
0.522
 50
180
 51
270
  0
ARC
  8
_f-f_
  6
CONTINUOUS
 62
    3
 10
214.55182178929482
 20
21.779698406580735
 40
0.522
 50
90
 51
180
  0
LINE
  8
_f-f_
  6
CONTINUOUS
 62
    3
 10
214.03132178929479
 20
21.789198406580724
 11
214.03132178929479
 21
21.224198406580726
  0
LINE
  8
_f-f_
  6
CONTINUOUS
 62
    3
 10
214.75632178929482
 20
20.502198406580732
 11
214.75632178929482
 21
18.006198406580722
  0
ARC
  8
_f-f_
  6
CONTINUOUS
 62
    3
 10
214.55182178929482
 20
18.006198406580722
 40
0.2044999999999999
 50
270
 51
0
  0
ARC
  8
_f-f_
  6
CONTINUOUS
 62
    3
 10
214.55182178929482
 20
17.279698406580735
 40
0.522
 50
90
 51
180
  0
LINE
  8
_f-f_
  6
CONTINUOUS
 62
    3
 10
214.03132178929479
 20
17.289198406580724
 11
214.03132178929479
 21
16.724198406580726
  0
LINE
  8
_f-f_
  6
CONTINUOUS
 62
    3
 10
230.61334378929482
 20
45.43754340658073
 11
214.57685578929483
 21
43.205160406580731
  0
LINE
  8
_f-f_
  6
CONTINUOUS
 62
    3
 10
230.68005478929481
 20
42.551784906580728
 11
214.63133378929481
 21
40.317788906580731
  0
LINE
  8
_f-f_
  6
CONTINUOUS
 62
    3
 10
230.61334378929482
 20
40.93754340658073
 11
214.57685578929483
 21
38.705160406580731
  0
LINE
  8
_f-f_
  6
CONTINUOUS
 62
    3
 10
230.68658728929483
 20
38.052694406580727
 11
214.63133378929481
 21
35.817788906580731
  0
LINE
  8
_f-f_
  6
CONTINUOUS
 62
    3
 10
230.61334378929482
 20
36.43754340658073
 11
214.57685578929483
 21
34.205160406580731
  0
ARC
  8
_f-f_
  6
CONTINUOUS
 62
    3
 10
214.55182178929482
 20
43.002198406580732
 40
0.2044999999999999
 50
0
 51
90
  0
ARC
  8
_f-f_
  6
CONTINUOUS
 62
    3
 10
214.55182178929482
 20
45.006198406580729
 40
0.2044999999999999
 50
270
 51
0
  0
ARC
  8
_f-f_
  6
CONTINUOUS
 62
    3
 10
214.55182178929482
 20
43.728698406580726
 40
0.522
 50
180
 51
270
  0
ARC
  8
_f-f_
  6
CONTINUOUS
 62
    3
 10
214.55182178929482
 20
44.279698406580728
 40
0.522
 50
90
 51
180
  0
LINE
  8
_f-f_
  6
CONTINUOUS
 62
    3
 10
214.03132178929482
 20
44.289198406580731
 11
214.03132178929482
 21
43.724198406580726
  0
LINE
  8
_f-f_
  6
CONTINUOUS
 62
    3
 10
214.75632178929482
 20
43.002198406580732
 11
214.75632178929482
 21
40.506198406580722
  0
ARC
  8
_f-f_
  6
CONTINUOUS
 62
    3
 10
214.55182178929482
 20
38.502198406580732
 40
0.2044999999999999
 50
0
 51
90
  0
ARC
  8
_f-f_
  6
CONTINUOUS
 62
    3
 10
214.55182178929482
 20
40.506198406580722
 40
0.2044999999999999
 50
270
 51
0
  0
ARC
  8
_f-f_
  6
CONTINUOUS
 62
    3
 10
214.55182178929482
 20
39.228698406580719
 40
0.522
 50
180
 51
270
  0
ARC
  8
_f-f_
  6
CONTINUOUS
 62
    3
 10
214.55182178929482
 20
39.779698406580735
 40
0.522
 50
90
 51
180
  0
LINE
  8
_f-f_
  6
CONTINUOUS
 62
    3
 10
214.03132178929482
 20
39.789198406580738
 11
214.03132178929482
 21
39.224198406580726
  0
LINE
  8
_f-f_
  6
CONTINUOUS
 62
    3
 10
214.75632178929482
 20
38.502198406580732
 11
214.75632178929482
 21
36.006198406580722
  0
ARC
  8
_f-f_
  6
CONTINUOUS
 62
    3
 10
214.55182178929482
 20
34.002198406580732
 40
0.2044999999999999
 50
0
 51
90
  0
ARC
  8
_f-f_
  6
CONTINUOUS
 62
    3
 10
214.55182178929482
 20
36.006198406580722
 40
0.2044999999999999
 50
270
 51
0
  0
ARC
  8
_f-f_
  6
CONTINUOUS
 62
    3
 10
214.55182178929482
 20
34.728698406580719
 40
0.522
 50
180
 51
270
  0
ARC
  8
_f-f_
  6
CONTINUOUS
 62
    3
 10
214.55182178929482
 20
35.279698406580735
 40
0.522
 50
90
 51
180
  0
LINE
  8
_f-f_
  6
CONTINUOUS
 62
    3
 10
214.03132178929482
 20
35.289198406580738
 11
214.03132178929482
 21
34.724198406580726
  0
LINE
  8
_f-f_
  6
CONTINUOUS
 62
    3
 10
214.75632178929482
 20
34.002198406580732
 11
214.75632178929482
 21
31.506198406580722
  0
ARC
  8
_f-f_
  6
CONTINUOUS
 62
    3
 10
214.55182178929482
 20
31.506198406580722
 40
0.2044999999999999
 50
270
 51
0
  0
ARC
  8
_f-f_
  6
CONTINUOUS
 62
    3
 10
214.55182178929482
 20
30.779698406580735
 40
0.522
 50
90
 51
180
  0
LINE
  8
_f-f_
  6
CONTINUOUS
 62
    3
 10
214.03132178929482
 20
30.789198406580738
 11
214.03132178929482
 21
30.224198406580726
  0
LINE
  8
_f-f_
  6
CONTINUOUS
 62
    3
 10
230.49632178929483
 20
45.252698406580727
 11
230.49632178929483
 21
42.756698406580725
  0
ARC
  8
_f-f_
  6
CONTINUOUS
 62
    3
 10
230.70082178929482
 20
45.252698406580727
 40
0.2044999999999999
 50
90
 51
180
  0
ARC
  8
_f-f_
  6
CONTINUOUS
 62
    3
 10
230.70082178929482
 20
45.979198406580728
 40
0.522
 50
270
 51
304.53755200000001
  0
LINE
  8
_f-f_
  6
CONTINUOUS
 62
    3
 10
230.49632178929483
 20
40.75269840658072
 11
230.49632178929483
 21
38.256698406580725
  0
ARC
  8
_f-f_
  6
CONTINUOUS
 62
    3
 10
230.70082178929482
 20
40.75269840658072
 40
0.2044999999999999
 50
90
 51
180
  0
ARC
  8
_f-f_
  6
CONTINUOUS
 62
    3
 10
230.70082178929482
 20
42.756698406580725
 40
0.2044999999999999
 50
180
 51
270
  0
ARC
  8
_f-f_
  6
CONTINUOUS
 62
    3
 10
230.70082178929482
 20
41.479198406580728
 40
0.522
 50
270
 51
0
  0
ARC
  8
_f-f_
  6
CONTINUOUS
 62
    3
 10
230.70082178929482
 20
42.03019840658073
 40
0.522
 50
0
 51
90
  0
LINE
  8
_f-f_
  6
CONTINUOUS
 62
    3
 10
231.22132178929482
 20
42.039698406580726
 11
231.22132178929482
 21
41.474698406580728
  0
ARC
  8
_f-f_
  6
CONTINUOUS
 62
    3
 10
230.70082178929482
 20
36.25269840658072
 40
0.2044999999999999
 50
90
 51
180
  0
ARC
  8
_f-f_
  6
CONTINUOUS
 62
    3
 10
230.70082178929482
 20
38.256698406580725
 40
0.2044999999999999
 50
180
 51
270
  0
ARC
  8
_f-f_
  6
CONTINUOUS
 62
    3
 10
230.70082178929482
 20
36.979198406580736
 40
0.522
 50
270
 51
0
  0
ARC
  8
_f-f_
  6
CONTINUOUS
 62
    3
 10
230.70082178929482
 20
37.530198406580723
 40
0.522
 50
0
 51
90
  0
LINE
  8
_f-f_
  6
CONTINUOUS
 62
    3
 10
231.22132178929482
 20
37.539698406580726
 11
231.22132178929482
 21
36.974698406580728
  0
ARC
  8
_f-f_
  6
CONTINUOUS
 62
    3
 10
230.62632178929482
 20
57.501198406580727
 40
7.3929999999999998
 50
239.85199999999998
 51
300.14800000000002
  0
ARC
  8
_f-f_
  6
CONTINUOUS
 62
    3
 10
236.4828217892948
 20
52.905698406580726
 40
2.7974999999999999
 50
219.98299999999998
 51
320.01699999999994
  0
ARC
  8
_f-f_
  6
CONTINUOUS
 62
    3
 10
222.62632178929482
 20
59.797198406580733
 40
9.6890000000000001
 50
269.99400000000003
 51
296.26100000000002
  0
LINE
  8
_f-f_
  6
CONTINUOUS
 62
    3
 10
226.91332178929483
 20
60.858198406580726
 11
226.9133217892948
 21
51.108198406580726
  0
LINE
  8
_f-f_
  6
CONTINUOUS
 62
    3
 10
234.33932178929481
 20
60.858198406580726
 11
234.33932178929481
 21
51.108198406580726
  0
LINE
  8
_f-f_
  6
CONTINUOUS
 62
    3
 10
230.68658728929483
 20
33.552694406580727
 11
214.63133378929481
 21
31.317788906580731
  0
LINE
  8
_f-f_
  6
CONTINUOUS
 62
    3
 10
230.61334378929482
 20
31.93754340658073
 11
214.57685578929483
 21
29.705160406580731
  0
LINE
  8
_f-f_
  6
CONTINUOUS
 62
    3
 10
230.49632178929483
 20
36.25269840658072
 11
230.49632178929483
 21
33.756698406580725
  0
LINE
  8
_f-f_
  6
CONTINUOUS
 62
    3
 10
231.22132178929482
 20
33.039698406580726
 11
231.22132178929482
 21
32.474698406580728
  0
ARC
  8
_f-f_
  6
CONTINUOUS
 62
    3
 10
230.70082178929482
 20
33.030198406580723
 40
0.522
 50
0
 51
90
  0
ARC
  8
_f-f_
  6
CONTINUOUS
 62
    3
 10
230.70082178929482
 20
32.479198406580736
 40
0.522
 50
270
 51
0
  0
ARC
  8
_f-f_
  6
CONTINUOUS
 62
    3
 10
230.70082178929482
 20
33.756698406580725
 40
0.2044999999999999
 50
180
 51
270
  0
ARC
  8
_f-f_
  6
CONTINUOUS
 62
    3
 10
230.70082178929482
 20
31.75269840658072
 40
0.2044999999999999
 50
90
 51
180
  0
LINE
  8
_f-f_
  6
CONTINUOUS
 62
    3
 10
230.68658728929483
 20
29.052694406580727
 11
214.63133378929481
 21
26.817788906580731
  0
LINE
  8
_f-f_
  6
CONTINUOUS
 62
    3
 10
230.61334378929482
 20
27.43754340658073
 11
214.57685578929483
 21
25.205160406580731
  0
LINE
  8
_f-f_
  6
CONTINUOUS
 62
    3
 10
230.49632178929483
 20
31.75269840658072
 11
230.49632178929483
 21
29.256698406580725
  0
LINE
  8
_f-f_
  6
CONTINUOUS
 62
    3
 10
231.22132178929482
 20
28.539698406580726
 11
231.22132178929482
 21
27.974698406580728
  0
ARC
  8
_f-f_
  6
CONTINUOUS
 62
    3
 10
230.70082178929482
 20
28.530198406580723
 40
0.522
 50
0
 51
90
  0
ARC
  8
_f-f_
  6
CONTINUOUS
 62
    3
 10
230.70082178929482
 20
27.979198406580736
 40
0.522
 50
270
 51
0
  0
ARC
  8
_f-f_
  6
CONTINUOUS
 62
    3
 10
230.70082178929482
 20
29.256698406580725
 40
0.2044999999999999
 50
180
 51
270
  0
ARC
  8
_f-f_
  6
CONTINUOUS
 62
    3
 10
230.70082178929482
 20
27.25269840658072
 40
0.2044999999999999
 50
90
 51
180
  0
LINE
  8
_f-f_
  6
CONTINUOUS
 62
    3
 10
230.68658728929481
 20
24.552694406580727
 11
214.63133378929481
 21
22.317788906580731
  0
LINE
  8
_f-f_
  6
CONTINUOUS
 62
    3
 10
230.61334378929482
 20
22.93754340658073
 11
214.57685578929483
 21
20.705160406580731
  0
LINE
  8
_f-f_
  6
CONTINUOUS
 62
    3
 10
230.49632178929483
 20
27.25269840658072
 11
230.49632178929483
 21
24.756698406580725
  0
LINE
  8
_f-f_
  6
CONTINUOUS
 62
    3
 10
231.22132178929482
 20
24.039698406580726
 11
231.22132178929482
 21
23.474698406580728
  0
ARC
  8
_f-f_
  6
CONTINUOUS
 62
    3
 10
230.70082178929482
 20
24.030198406580723
 40
0.522
 50
0
 51
90
  0
ARC
  8
_f-f_
  6
CONTINUOUS
 62
    3
 10
230.70082178929482
 20
23.479198406580736
 40
0.522
 50
270
 51
0
  0
ARC
  8
_f-f_
  6
CONTINUOUS
 62
    3
 10
230.70082178929482
 20
24.756698406580725
 40
0.2044999999999999
 50
180
 51
270
  0
ARC
  8
_f-f_
  6
CONTINUOUS
 62
    3
 10
230.70082178929482
 20
22.75269840658072
 40
0.2044999999999999
 50
90
 51
180
  0
LINE
  8
_f-f_
  6
CONTINUOUS
 62
    3
 10
230.68658728929481
 20
20.052694406580727
 11
214.63133378929481
 21
17.817788906580731
  0
LINE
  8
_f-f_
  6
CONTINUOUS
 62
    3
 10
230.61334378929482
 20
18.43754340658073
 11
214.57685578929483
 21
16.205160406580731
  0
LINE
  8
_f-f_
  6
CONTINUOUS
 62
    3
 10
230.49632178929483
 20
22.75269840658072
 11
230.49632178929483
 21
20.256698406580725
  0
LINE
  8
_f-f_
  6
CONTINUOUS
 62
    3
 10
231.22132178929482
 20
19.539698406580726
 11
231.22132178929482
 21
18.974698406580728
  0
ARC
  8
_f-f_
  6
CONTINUOUS
 62
    3
 10
230.70082178929482
 20
19.530198406580723
 40
0.522
 50
0
 51
90
  0
ARC
  8
_f-f_
  6
CONTINUOUS
 62
    3
 10
230.70082178929482
 20
18.979198406580736
 40
0.522
 50
270
 51
0
  0
ARC
  8
_f-f_
  6
CONTINUOUS
 62
    3
 10
230.70082178929482
 20
20.256698406580725
 40
0.2044999999999999
 50
180
 51
270
  0
ARC
  8
_f-f_
  6
CONTINUOUS
 62
    3
 10
230.70082178929482
 20
18.25269840658072
 40
0.2044999999999999
 50
90
 51
180
  0
LINE
  8
_0-3_1_2
  6
CONTINUOUS
 62
    3
 10
207.74051081818183
 20
61.98475518181818
 11
207.74051081818183
 21
60.858198406580726
  0
LINE
  8
_0-3_1_2
  6
CONTINUOUS
 62
    3
 10
237.54051081818182
 20
61.98475518181818
 11
237.54051081818182
 21
60.858198406580726
  0
LINE
  8
_0-3_1_2
  6
CONTINUOUS
 62
    3
 10
208.59051081818183
 20
69.584755181818181
 11
208.59051081818183
 21
60.858198406580726
  0
POINT
  8
_f-f_
 62
    7
 10
206.62632178929482
 20
60.858198906580725
  0
LINE
  8
_f-f_
  6
CONTINUOUS
 62
    7
 10
206.72928872116154
 20
55.265863025432225
 11
238.72928872116151
 21
55.265863025432225
  0
INSERT
  2
-018-_OPEN30
  8
_f-f_
 10
206.72928872116151
 20
55.265863025432225
 41
1.385
 42
1.385
 50
540
  0
INSERT
  2
-018-_OPEN30
  8
_f-f_
 10
238.72928872116151
 20
55.265863025432225
 41
1.385
 42
1.385
 50
360
  0
LINE
  8
_0-f_
  6
CONTINUOUS
 62
    7
 10
229.4668239929812
 20
55.154546088028198
 11
241.53570329282218
 21
67.223425387869185
  0
ARC
  8
_f-f_
  6
CONTINUOUS
 62
    3
 10
218.01348315235643
 20
25.516392045248082
 40
10.609722
 50
243.78046399999999
 51
295.656544
  0
ARC
  8
_f-f_
  6
CONTINUOUS
 62
    3
 10
227.20098315235643
 20
6.3890650452480742
 40
10.609722
 50
64.156091000000018
 51
115.65654400000001
  0
LINE
  8
_f-f_
  6
CONTINUOUS
 62
    3
 10
214.75632178929482
 20
16.002198406580732
 11
214.75632178929482
 21
15.419011158490235
  0
LINE
  8
_f-f_
  6
CONTINUOUS
 62
    3
 10
230.49632178929483
 20
18.25269840658072
 11
230.49632178929483
 21
16.474051122838119
  0
ARC
  8
_f-f_
  6
CONTINUOUS
 62
    3
 10
214.52681075914887
 20
-2.3465617032214539
 40
0.522
 50
90
 51
161.565
  0
LINE
  8
_f-f_
  6
CONTINUOUS
 62
    3
 10
232.22631075914887
 20
-2.1815617032214618
 11
222.60131075914887
 21
-2.1815617032214618
  0
ARC
  8
_f-f_
  6
CONTINUOUS
 62
    3
 10
213.97631075914887
 20
-7.6815617032214618
 40
1
 50
180
 51
270
  0
LINE
  8
_f-f_
  6
CONTINUOUS
 62
    3
 10
212.97631075914887
 20
-2.1815617032214618
 11
212.97631075914887
 21
-7.6815617032214618
  0
LINE
  8
_f-f_
  6
CONTINUOUS
 62
    3
 10
231.22631075914887
 20
-8.6815617032214618
 11
213.97631075914887
 21
-8.6815617032214618
  0
LINE
  8
_f-f_
  6
CONTINUOUS
 62
    3
 10
222.60131075914887
 20
-2.1815617032214618
 11
212.97631075914887
 21
-2.1815617032214618
  0
ARC
  8
_f-f_
  6
CONTINUOUS
 62
    3
 10
231.22631075914887
 20
-7.6815617032214618
 40
1
 50
270
 51
0
  0
LINE
  8
_f-f_
  6
CONTINUOUS
 62
    3
 10
232.22631075914887
 20
-2.1815617032214618
 11
232.22631075914887
 21
-7.6815617032214618
  0
LINE
  8
_f-f_
  6
CONTINUOUS
 62
    3
 10
230.68959125914887
 20
0.4237562967785493
 11
214.55481075914889
 21
-1.8230617032214411
  0
LINE
  8
_f-f_
  6
CONTINUOUS
 62
    3
 10
230.63446775914889
 20
3.3247152967785496
 11
214.49831075914886
 21
1.0784382967785575
  0
LINE
  8
_f-f_
  6
CONTINUOUS
 62
    3
 10
230.68959125914887
 20
4.9237562967785493
 11
214.55481075914889
 21
2.6769382967785589
  0
LINE
  8
_f-f_
  6
CONTINUOUS
 62
    3
 10
214.73131075914887
 20
0.8759382967785427
 11
214.73131075914887
 21
-1.6200617032214666
  0
ARC
  8
_f-f_
  6
CONTINUOUS
 62
    3
 10
214.52681075914887
 20
-1.6200617032214666
 40
0.2044999999999999
 50
270
 51
0
  0
ARC
  8
_f-f_
  6
CONTINUOUS
 62
    3
 10
214.52681075914887
 20
0.8759382967785427
 40
0.2044999999999999
 50
0
 51
90
  0
ARC
  8
_f-f_
  6
CONTINUOUS
 62
    3
 10
214.52681075914887
 20
2.8799382967785334
 40
0.2044999999999999
 50
270
 51
0
  0
ARC
  8
_f-f_
  6
CONTINUOUS
 62
    3
 10
214.52681075914887
 20
1.6024382967785584
 40
0.522
 50
180
 51
270
  0
ARC
  8
_f-f_
  6
CONTINUOUS
 62
    3
 10
214.52681075914887
 20
2.1534382967785461
 40
0.522
 50
90
 51
180
  0
LINE
  8
_f-f_
  6
CONTINUOUS
 62
    3
 10
214.00631075914887
 20
2.1629382967785489
 11
214.00631075914887
 21
1.5979382967785511
  0
ARC
  8
_f-f_
  6
CONTINUOUS
 62
    3
 10
230.67581075914887
 20
3.1244382967785498
 40
0.2044999999999999
 50
90
 51
180
  0
ARC
  8
_f-f_
  6
CONTINUOUS
 62
    3
 10
230.67581075914887
 20
5.1284382967785405
 40
0.2044999999999999
 50
180
 51
270
  0
ARC
  8
_f-f_
  6
CONTINUOUS
 62
    3
 10
230.67581075914887
 20
3.8509382967785371
 40
0.522
 50
270
 51
0
  0
ARC
  8
_f-f_
  6
CONTINUOUS
 62
    3
 10
230.67581075914887
 20
4.4019382967785532
 40
0.522
 50
0
 51
90
  0
LINE
  8
_f-f_
  6
CONTINUOUS
 62
    3
 10
231.19631075914887
 20
4.4114382967785559
 11
231.19631075914887
 21
3.8464382967785582
  0
LINE
  8
_f-f_
  6
CONTINUOUS
 62
    3
 10
230.47131075914888
 20
3.1244382967785498
 11
230.47131075914888
 21
0.6284382967785404
  0
ARC
  8
_f-f_
  6
CONTINUOUS
 62
    3
 10
230.67581075914887
 20
-1.3755617032214502
 40
0.2044999999999999
 50
90
 51
180
  0
ARC
  8
_f-f_
  6
CONTINUOUS
 62
    3
 10
230.67581075914887
 20
0.6284382967785404
 40
0.2044999999999999
 50
180
 51
270
  0
ARC
  8
_f-f_
  6
CONTINUOUS
 62
    3
 10
230.67581075914887
 20
-0.6490617032214629
 40
0.522
 50
270
 51
0
  0
ARC
  8
_f-f_
  6
CONTINUOUS
 62
    3
 10
230.67581075914887
 20
-0.0980617032214468
 40
0.522
 50
0
 51
90
  0
LINE
  8
_f-f_
  6
CONTINUOUS
 62
    3
 10
231.19631075914887
 20
-0.088561703221444
 11
231.19631075914887
 21
-0.6535617032214418
  0
LINE
  8
_f-f_
  6
CONTINUOUS
 62
    3
 10
230.47131075914888
 20
-1.3755617032214502
 11
230.47131075914888
 21
-2.1815617032214618
  0
LINE
  8
_f-f_
  6
CONTINUOUS
 62
    3
 10
230.63446775914889
 20
7.8247152967785496
 11
214.49831075914886
 21
5.5784382967785575
  0
LINE
  8
_f-f_
  6
CONTINUOUS
 62
    3
 10
230.68959125914887
 20
9.4237562967785493
 11
214.55481075914889
 21
7.1769382967785589
  0
LINE
  8
_f-f_
  6
CONTINUOUS
 62
    3
 10
214.73131075914887
 20
5.3759382967785427
 11
214.73131075914887
 21
2.8799382967785334
  0
LINE
  8
_f-f_
  6
CONTINUOUS
 62
    3
 10
214.00631075914887
 20
6.6629382967785489
 11
214.00631075914887
 21
6.0979382967785511
  0
ARC
  8
_f-f_
  6
CONTINUOUS
 62
    3
 10
214.52681075914887
 20
6.6534382967785461
 40
0.522
 50
90
 51
180
  0
ARC
  8
_f-f_
  6
CONTINUOUS
 62
    3
 10
214.52681075914887
 20
6.1024382967785584
 40
0.522
 50
180
 51
270
  0
ARC
  8
_f-f_
  6
CONTINUOUS
 62
    3
 10
214.52681075914887
 20
7.3799382967785334
 40
0.2044999999999999
 50
270
 51
0
  0
ARC
  8
_f-f_
  6
CONTINUOUS
 62
    3
 10
214.52681075914887
 20
5.3759382967785427
 40
0.2044999999999999
 50
0
 51
90
  0
LINE
  8
_f-f_
  6
CONTINUOUS
 62
    3
 10
230.47131075914888
 20
7.6244382967785498
 11
230.47131075914888
 21
5.1284382967785405
  0
LINE
  8
_f-f_
  6
CONTINUOUS
 62
    3
 10
231.19631075914887
 20
8.9114382967785559
 11
231.19631075914887
 21
8.3464382967785582
  0
ARC
  8
_f-f_
  6
CONTINUOUS
 62
    3
 10
230.67581075914887
 20
8.9019382967785532
 40
0.522
 50
0
 51
90
  0
ARC
  8
_f-f_
  6
CONTINUOUS
 62
    3
 10
230.67581075914887
 20
8.3509382967785371
 40
0.522
 50
270
 51
0
  0
ARC
  8
_f-f_
  6
CONTINUOUS
 62
    3
 10
230.67581075914887
 20
9.6284382967785405
 40
0.2044999999999999
 50
180
 51
270
  0
ARC
  8
_f-f_
  6
CONTINUOUS
 62
    3
 10
230.67581075914887
 20
7.6244382967785498
 40
0.2044999999999999
 50
90
 51
180
  0
LINE
  8
_f-f_
  6
CONTINUOUS
 62
    3
 10
230.63446775914889
 20
12.32471529677855
 11
214.49831075914886
 21
10.078438296778558
  0
LINE
  8
_f-f_
  6
CONTINUOUS
 62
    3
 10
230.68959125914887
 20
13.923756296778549
 11
214.55481075914889
 21
11.676938296778559
  0
LINE
  8
_f-f_
  6
CONTINUOUS
 62
    3
 10
214.73131075914887
 20
9.8759382967785427
 11
214.73131075914887
 21
7.3799382967785334
  0
LINE
  8
_f-f_
  6
CONTINUOUS
 62
    3
 10
214.00631075914887
 20
11.162938296778549
 11
214.00631075914887
 21
10.597938296778551
  0
ARC
  8
_f-f_
  6
CONTINUOUS
 62
    3
 10
214.52681075914887
 20
11.153438296778546
 40
0.522
 50
90
 51
180
  0
ARC
  8
_f-f_
  6
CONTINUOUS
 62
    3
 10
214.52681075914887
 20
10.602438296778558
 40
0.522
 50
180
 51
270
  0
ARC
  8
_f-f_
  6
CONTINUOUS
 62
    3
 10
214.52681075914887
 20
11.879938296778533
 40
0.2044999999999999
 50
270
 51
0
  0
ARC
  8
_f-f_
  6
CONTINUOUS
 62
    3
 10
214.52681075914887
 20
9.8759382967785427
 40
0.2044999999999999
 50
0
 51
90
  0
LINE
  8
_f-f_
  6
CONTINUOUS
 62
    3
 10
230.47131075914888
 20
12.12443829677855
 11
230.47131075914888
 21
9.6284382967785405
  0
LINE
  8
_f-f_
  6
CONTINUOUS
 62
    3
 10
231.1963107591489
 20
13.411438296778556
 11
231.1963107591489
 21
12.846438296778558
  0
ARC
  8
_f-f_
  6
CONTINUOUS
 62
    3
 10
230.67581075914887
 20
13.401938296778553
 40
0.522
 50
0
 51
90
  0
ARC
  8
_f-f_
  6
CONTINUOUS
 62
    3
 10
230.67581075914887
 20
12.850938296778537
 40
0.522
 50
270
 51
0
  0
ARC
  8
_f-f_
  6
CONTINUOUS
 62
    3
 10
230.67581075914887
 20
14.12843829677854
 40
0.2044999999999999
 50
180
 51
270
  0
ARC
  8
_f-f_
  6
CONTINUOUS
 62
    3
 10
230.67581075914887
 20
12.12443829677855
 40
0.2044999999999999
 50
90
 51
180
  0
LINE
  8
_f-f_
  6
CONTINUOUS
 62
    3
 10
230.63446775914889
 20
-1.1752847032214504
 11
223.40586425914887
 21
-2.1815617032214618
  0
ARC
  8
_f-f_
  6
CONTINUOUS
 62
    3
 10
218.24745477268658
 20
23.768501610135473
 40
10.609722
 50
243.78046399999999
 51
295.656544
  0
ARC
  8
_f-f_
  6
CONTINUOUS
 62
    3
 10
227.43495477268658
 20
4.6411746101354652
 40
10.609722
 50
64.156091000000018
 51
115.65654400000001
  0
LINE
  8
_f-f_
  6
CONTINUOUS
 62
    3
 10
214.73131075914887
 20
13.75836014293597
 11
214.73131075914887
 21
11.879938296778533
  0
LINE
  8
_f-f_
  6
CONTINUOUS
 62
    3
 10
230.47131075914888
 20
14.807134635669627
 11
230.47131075914888
 21
14.12843829677854
  0
LINE
  8
_f-f_
  6
CONTINUOUS
 62
    7
 10
239.37632078929465
 20
60.858198406580769
 11
246.19343828929465
 21
60.858198406580769
  0
INSERT
  2
-018-_OPEN30
  8
_f-f_
 10
245.44343828929465
 20
60.858198406580769
 41
-1.385
 42
1.385
 50
-450
  0
POINT
  8
_f-f_
 62
    7
 10
238.62632078929465
 20
60.858198406580769
  0
POINT
  8
_f-f_
 62
    7
 10
245.44343828929465
 20
60.858198406580769
  0
LINE
  8
_f-f_
  6
CONTINUOUS
 62
    7
 10
231.97631075914887
 20
-8.6815617032214618
 11
246.16842825914887
 21
-8.6815617032214618
  0
INSERT
  2
-018-_OPEN30
  8
_f-f_
 10
245.41842825914887
 20
-8.6815617032214618
 41
-1.385
 42
1.385
 50
-270
  0
POINT
  8
_f-f_
 62
    7
 10
231.22631075914887
 20
-8.6815617032214618
  0
TEXT
  8
_f-f_
 62
    4
 10
240.11051481915376
 20
67.737595024945364
 40
2.5
 41
1
 50
0
  1
十二角対辺64.0
  0
LINE
  8
_0-f_
  6
CONTINUOUS
 62
    7
 10
241.53570329282218
 20
67.223425387869185
 11
257.57940979105985
 21
67.223425387869185
  0
LINE
  8
_f-f_
  6
CONTINUOUS
 62
    7
 10
232.22631075914887
 20
-20.461984703221447
 11
212.97631075914887
 21
-20.461984703221447
  0
LINE
  8
_f-f_
  6
CONTINUOUS
 62
    7
 10
232.22631075914887
 20
-8.4315607032214501
 11
232.22631075914887
 21
-21.211984703221447
  0
LINE
  8
_f-f_
  6
CONTINUOUS
 62
    7
 10
212.97631075914887
 20
-8.4315607032214501
 11
212.97631075914887
 21
-21.211984703221447
  0
INSERT
  2
-018-_OPEN30
  8
_f-f_
 10
232.2263107591489
 20
-20.461984703221447
 41
1.385
 42
1.385
 50
360
  0
INSERT
  2
-018-_OPEN30
  8
_f-f_
 10
212.9763107591489
 20
-20.461984703221447
 41
1.385
 42
1.385
 50
540
  0
POINT
  8
_f-f_
 62
    7
 10
232.2263107591489
 20
-7.6815607032214501
  0
POINT
  8
_f-f_
 62
    7
 10
212.9763107591489
 20
-7.6815607032214501
  0
POINT
  8
_f-f_
 62
    7
 10
212.9763107591489
 20
-20.461984703221447
  0
LINE
  8
_f-f_
  6
CONTINUOUS
 62
    7
 10
231.22282178929481
 20
21.825698211209655
 11
214.02982178929483
 21
21.825698211209655
  0
LINE
  8
_f-f_
  6
CONTINUOUS
 62
    7
 10
231.22282178929481
 20
23.640346711209645
 11
231.22282178929481
 21
21.075698211209655
  0
LINE
  8
_f-f_
  6
CONTINUOUS
 62
    7
 10
214.02982178929483
 20
21.391846711209652
 11
214.02982178929483
 21
21.075698211209655
  0
LINE
  8
_f-f_
  6
CONTINUOUS
 62
    7
 10
231.22282178929481
 20
21.825698211209655
 11
234.39782178929482
 21
21.825698211209655
  0
LINE
  8
_f-f_
  6
CONTINUOUS
 62
    7
 10
214.02982178929483
 20
21.825698211209655
 11
210.85482178929482
 21
21.825698211209655
  0
INSERT
  2
-018-_OPEN30
  8
_f-f_
 10
231.22282178929481
 20
21.825698211209655
 41
1.385
 42
1.385
 50
540
  0
INSERT
  2
-018-_OPEN30
  8
_f-f_
 10
214.02982178929483
 20
21.825698211209655
 41
1.385
 42
1.385
 50
360
  0
POINT
  8
_f-f_
 62
    7
 10
231.22282178929481
 20
24.390346711209659
  0
POINT
  8
_f-f_
 62
    7
 10
214.02982178929483
 20
22.141846711209652
  0
POINT
  8
_f-f_
 62
    7
 10
214.02982178929483
 20
21.825698211209655
  0
LINE
  8
_f-f_
  6
CONTINUOUS
 62
    7
 10
244.29533524254543
 20
21.825698211209655
 11
231.22282178929481
 21
21.825698211209655
  0
LINE
  8
_0-3_1_2
  6
CONTINUOUS
 62
    7
 10
222.64051081818184
 20
32.202114181818189
 11
175.14051081818184
 21
32.202114181818189
  0
LINE
  8
_0-3_1_2
  6
CONTINUOUS
 62
    7
 10
222.64051081818184
 20
50.334754181818184
 11
222.64051081818184
 21
30.702114181818189
  0
LINE
  8
_0-3_1_2
  6
CONTINUOUS
 62
    7
 10
175.14051081818184
 20
41.944690181818181
 11
175.14051081818184
 21
30.702114181818189
  0
INSERT
  2
-000-_OPEN30
  8
_0-3_1_2
 10
222.64051081818184
 20
32.202114181818189
 41
2.77
 42
2.77
 50
0
  0
INSERT
  2
-000-_OPEN30
  8
_0-3_1_2
 10
175.14051081818184
 20
32.202114181818189
 41
2.77
 42
2.77
 50
180
  0
POINT
  8
_0-3_1_2
 62
    7
 10
222.64051081818184
 20
51.834754181818184
  0
POINT
  8
_0-3_1_2
 62
    7
 10
175.14051081818184
 20
43.444690181818181
  0
POINT
  8
_0-3_1_2
 62
    7
 10
175.14051081818184
 20
32.202114181818189
  0
LINE
  8
_0-3_1_2
  6
CONTINUOUS
 62
    3
 10
215.69051081818185
 20
109.33475518181818
 11
193.5441489436019
 21
109.33475518181818
  0
TEXT
  8
_f-f_
 62
    4
 10
248.92480999031949
 20
16.614010920514175
 40
2.5
 41
1
 50
90
  1
700.0
  0
TEXT
  8
_f-f_
 62
    4
 10
30.699795778637764
 20
196.98316980265497
 40
2.5
 41
1
 50
0
  1
67.0
  0
TEXT
  8
_f-f_
 62
    4
 10
235.26465062285843
 20
22.10480523217467
 40
2.5
 41
1
 50
0
  1
34.0
  0
TEXT
  8
_f-f_
 62
    4
 10
222.91354999455598
 20
-20.055201720203826
 40
2.5
 41
1
 50
0
  1
38.5
  0
LINE
  8
_f-f_
  6
CONTINUOUS
 62
    7
 10
10.905228675757598
 20
153.54546476253535
 11
10.905228675757598
 21
173.54546476253535
  0
LINE
  8
_f-f_
  6
CONTINUOUS
 62
    7
 10
17.3131216757576
 20
153.54546476253535
 11
10.155228675757598
 21
153.54546476253535
  0
LINE
  8
_f-f_
  6
CONTINUOUS
 62
    7
 10
15.570195175757618
 20
173.54546476253535
 11
10.155228675757598
 21
173.54546476253535
  0
INSERT
  2
-013-_OPEN30
  8
_f-f_
 10
10.905228675757598
 20
153.54546476253535
 41
1.385
 42
1.385
 50
270
  0
INSERT
  2
-013-_OPEN30
  8
_f-f_
 10
10.905228675757598
 20
173.54546476253535
 41
1.385
 42
1.385
 50
90
  0
POINT
  8
_f-f_
 62
    7
 10
18.0631216757576
 20
153.54546476253535
  0
POINT
  8
_f-f_
 62
    7
 10
16.320195175757618
 20
173.54546476253535
  0
POINT
  8
_f-f_
 62
    7
 10
10.905228675757598
 20
173.54546476253535
  0
TEXT
  8
_f-f_
 62
    4
 10
10.540366862376572
 20
161.09222748224195
 40
2.5
 41
1
 50
90
  1
40.0
  0
LINE
  8
_f-f_
  6
CONTINUOUS
 62
    7
 10
60.645195175757607
 20
167.54546676253537
 11
60.645195175757607
 21
139.54546326253535
  0
LINE
  8
_f-f_
  6
CONTINUOUS
 62
    7
 10
60.645195175757607
 20
167.54546676253537
 11
60.645195175757607
 21
170.72046676253535
  0
LINE
  8
_f-f_
  6
CONTINUOUS
 62
    7
 10
60.645195175757607
 20
139.54546326253535
 11
60.645195175757607
 21
136.37046326253537
  0
INSERT
  2
-013-_OPEN30
  8
_f-f_
 10
60.645195175757607
 20
167.54546676253537
 41
1.385
 42
1.385
 50
270
  0
INSERT
  2
-013-_OPEN30
  8
_f-f_
 10
60.645195175757607
 20
139.54546326253535
 41
1.385
 42
1.385
 50
90
  0
POINT
  8
_f-f_
 62
    7
 10
55.420195175757613
 20
167.54546676253537
  0
POINT
  8
_f-f_
 62
    7
 10
55.420195175757613
 20
139.54546326253535
  0
POINT
  8
_f-f_
 62
    7
 10
60.645195175757607
 20
139.54546326253535
  0
TEXT
  8
_f-f_
 62
    4
 10
60.192079246425862
 20
171.22718887634227
 40
2.5
 41
1
 50
90
  1
八角対辺56.0
  0
LINE
  8
_f-f_
  6
CONTINUOUS
 62
    7
 10
60.645195175757607
 20
186.04763496815846
 11
60.645195175757607
 21
167.54546676253537
  0
LINE
  8
_f-f_
  6
CENTER
 62
    7
 10
222.62632178929482
 20
63.358198406580726
 11
222.62632178929482
 21
-33.5
  0
ENDSEC
  0
EOF
