  0
SECTION
  2
HEADER
  9
$ACADVER
  1
AC1009
  9
$INSBASE
 10
0
 20
0
 30
0
  9
$EXTMIN
 10
0
 20
0
  9
$EXTMAX
 10
297
 20
210
  9
$LIMMIN
 10
0
 20
0
  9
$LIMMAX
 10
297
 20
210
  9
$LTSCALE
 40
1
  0
ENDSEC
  0
SECTION
  2
TABLES
  0
TABLE
  2
LTYPE
 70
     9
  0
LTYPE
  2
CONTINUOUS
 70
    64
  3
実線
 72
    65
 73
     0
 40
0.0
  0
LTYPE
  2
DASHED1
 70
    64
  3
--  --  --  --  --  --  --  --  
 72
    65
 73
     2
 40
2.5
 49
1.25
 49
-1.25
  0
LTYPE
  2
DASHED2
 70
    64
  3
----    ----    ----    ----    
 72
    65
 73
     2
 40
5.0
 49
2.5
 49
-2.5
  0
LTYPE
  2
DASHED3
 70
    64
  3
------  ------  ------  ------  
 72
    65
 73
     2
 40
5.0
 49
3.75
 49
-1.25
  0
LTYPE
  2
CENTER1
 70
    64
  3
----- - ----- - ----- - ----- - 
 72
    65
 73
     4
 40
10.0
 49
6.25
 49
-1.25
 49
1.25
 49
-1.25
  0
LTYPE
  2
CENTER2
 70
    64
  3
----------  --  ----------  --  
 72
    65
 73
     4
 40
20.0
 49
12.5
 49
-2.5
 49
2.5
 49
-2.5
  0
LTYPE
  2
PHANTOM1
 70
    64
  3
--- - - --- - - --- - - --- - - 
 72
    65
 73
     6
 40
10.0
 49
3.25
 49
-1.25
 49
1.25
 49
-1.25
 49
1.25
 49
-1.25
  0
LTYPE
  2
PHANTOM2
 70
    64
  3
--------  -  -  --------  -  -  
 72
    65
 73
     6
 40
20.0
 49
10.0
 49
-2.5
 49
1.25
 49
-2.5
 49
1.25
 49
-2.5
  0
LTYPE
  2
DOT
 70
    64
  3
-   -   -   -   -   -   -   -   
 72
    65
 73
     2
 40
2.5
 49
0.625
 49
-1.875
  0
LTYPE
  2
DUMMY
 70
    64
  3
ダミー
 72
    65
 73
     0
 40
0.0
  0
LTYPE
  2
RAND1
 70
    64
  3
ランダム線1
 72
    65
 73
     4
 40
10.0
 49
1.0
 49
-2.0
 49
3.0
 49
-4.0
  0
LTYPE
  2
RAND2
 70
    64
  3
ランダム線2
 72
    65
 73
     4
 40
14.0
 49
2.0
 49
-3.0
 49
4.0
 49
-5.0
  0
LTYPE
  2
RAND3
 70
    64
  3
ランダム線3
 72
    65
 73
     4
 40
18.0
 49
3.0
 49
-4.0
 49
5.0
 49
-6.0
  0
LTYPE
  2
RAND4
 70
    64
  3
ランダム線4
 72
    65
 73
     4
 40
22.0
 49
4.0
 49
-5.0
 49
6.0
 49
-7.0
  0
LTYPE
  2
RAND5
 70
    64
  3
ランダム線5
 72
    65
 73
     4
 40
26.0
 49
5.0
 49
-6.0
 49
7.0
 49
-8.0
  0
LTYPE
  2
LONG1
 70
    64
  3
----------  --  ----------  --  
 72
    65
 73
     4
 40
40.0
 49
32.5
 49
-2.5
 49
2.5
 49
-2.5
  0
LTYPE
  2
LONG2
 70
    64
  3
--------  -  -  --------  -  -  
 72
    65
 73
     6
 40
40.0
 49
30.0
 49
-2.5
 49
1.25
 49
-2.5
 49
1.25
 49
-2.5
  0
LTYPE
  2
LONG3
 70
    64
  3
+++++++++++++++..+++++++++++++++
 72
    65
 73
     2
 40
40.0
 49
37.5
 49
-2.5
  0
LTYPE
  2
LONG4
 70
    64
  3
+++++++++++++++..+++++++++++++++
 72
    65
 73
     2
 40
80.0
 49
75.0
 49
-5.0
  0
LTYPE
  2
LONG5
 70
    64
  3
----------  --  ----------  --  
 72
    65
 73
     4
 40
60.0
 49
37.5
 49
-7.5
 49
7.5
 49
-7.5
  0
LTYPE
  2
dashed
 70
   64
  3
-------   -------------   ------
 72
   65
 73
    2
 40
7.5
 49
6
 49
-1.5
  0
LTYPE
  2
dashed_spaced
 70
   64
  3
----        --------        ----
 72
   65
 73
    2
 40
12
 49
6
 49
-6
  0
LTYPE
  2
long_dashed_dotted
 70
   64
  3
------------- --- --------------
 72
   65
 73
    4
 40
15.25
 49
12
 49
-1.5
 49
0.25
 49
-1.5
  0
LTYPE
  2
long_dashed_double-dotted
 70
   64
  3
----------- --- --- ------------
 72
   65
 73
    6
 40
17
 49
12
 49
-1.5
 49
0.25
 49
-1.5
 49
0.25
 49
-1.5
  0
LTYPE
  2
long_dashed_triplicate-dotted
 70
   64
  3
--------- --- --- --- ----------
 72
   65
 73
    8
 40
18.75
 49
12
 49
-1.5
 49
0.25
 49
-1.5
 49
0.25
 49
-1.5
 49
0.25
 49
-1.5
  0
LTYPE
  2
dotted
 70
   64
  3
   -       -       -       -    
 72
   65
 73
    2
 40
1.75
 49
0.25
 49
-1.5
  0
LTYPE
  2
chain
 70
   64
  3
-------------- -- --------------
 72
   65
 73
    4
 40
18.5
 49
12
 49
-1.5
 49
3.5
 49
-1.5
  0
LTYPE
  2
chain_double_dash
 70
   64
  3
------------ -- -- -------------
 72
   65
 73
    6
 40
23.5
 49
12
 49
-1.5
 49
3.5
 49
-1.5
 49
3.5
 49
-1.5
  0
LTYPE
  2
dashed_dotted
 70
   64
  3
-----------     -     ----------
 72
   65
 73
    4
 40
9.25
 49
6
 49
-1.5
 49
0.25
 49
-1.5
  0
LTYPE
  2
double-dashed_dotted
 70
   64
  3
------   -----------   -   -----
 72
   65
 73
    6
 40
16.75
 49
6
 49
-1.5
 49
6
 49
-1.5
 49
0.25
 49
-1.5
  0
LTYPE
  2
dashed_double-dotted
 70
   64
  3
---------    -    -    ---------
 72
   65
 73
    6
 40
11
 49
6
 49
-1.5
 49
0.25
 49
-1.5
 49
0.25
 49
-1.5
  0
LTYPE
  2
double-dashed_double-dotted
 70
   64
  3
-----   ---------   -   -   ----
 72
   65
 73
    8
 40
18.5
 49
6
 49
-1.5
 49
6
 49
-1.5
 49
0.25
 49
-1.5
 49
0.25
 49
-1.5
  0
LTYPE
  2
dashed_triplicate-dotted
 70
   64
  3
-------    -    -    -    ------
 72
   65
 73
    8
 40
12.75
 49
6
 49
-1.5
 49
0.25
 49
-1.5
 49
0.25
 49
-1.5
 49
0.25
 49
-1.5
  0
LTYPE
  2
double-dashed_triplicate-dotted
 70
   64
  3
-----  ---------  -  -  -  -----
 72
   65
 73
   10
 40
20.25
 49
6
 49
-1.5
 49
6
 49
-1.5
 49
0.25
 49
-1.5
 49
0.25
 49
-1.5
 49
0.25
 49
-1.5
  0
LTYPE
  2
undefined
 70
   64
  3
--------------------------------
 72
   65
 73
    0
 40
0
  0
LTYPE
  2
CENTER
 70
   64
  3
----------    ----    ----------
 72
   65
 73
    4
 40
50.800000000000004
 49
31.75
 49
-6.3499999999999996
 49
6.3499999999999996
 49
-6.3499999999999996
  0
LTYPE
  2
_
 70
   64
  3
                                
 72
   65
 73
    0
 40
0
  0
LTYPE
  2
__19
 70
   64
  3
                                
 72
   65
 73
    0
 40
0
  0
LTYPE
  2
__20
 70
   64
  3
                                
 72
   65
 73
    0
 40
0
  0
LTYPE
  2
__21
 70
   64
  3
                                
 72
   65
 73
    0
 40
0
  0
LTYPE
  2
__22
 70
   64
  3
                                
 72
   65
 73
    0
 40
0
  0
LTYPE
  2
__23
 70
   64
  3
                                
 72
   65
 73
    0
 40
0
  0
LTYPE
  2
__24
 70
   64
  3
                                
 72
   65
 73
    0
 40
0
  0
LTYPE
  2
__25
 70
   64
  3
                                
 72
   65
 73
    0
 40
0
  0
LTYPE
  2
__26
 70
   64
  3
                                
 72
   65
 73
    0
 40
0
  0
LTYPE
  2
__27
 70
   64
  3
                                
 72
   65
 73
    0
 40
0
  0
LTYPE
  2
__28
 70
   64
  3
                                
 72
   65
 73
    0
 40
0
  0
LTYPE
  2
__29
 70
   64
  3
                                
 72
   65
 73
    0
 40
0
  0
LTYPE
  2
__30
 70
   64
  3
                                
 72
   65
 73
    0
 40
0
  0
LTYPE
  2
__31
 70
   64
  3
                                
 72
   65
 73
    0
 40
0
  0
LTYPE
  2
__32
 70
   64
  3
                                
 72
   65
 73
    0
 40
0
  0
ENDTAB
  0
TABLE
  2
STYLE
  5
3
100
AcDbSymbolTable
 70
     1
  0
STYLE
  5
10
100
AcDbSymbolTableRecord
100
AcDbTextStyleTableRecord
  2
STANDARD
 70
     0
 40
0.0
 41
1.0
 50
0.0
 71
     0
 42
0.2
  3
txt
  4
bigfont.shx
  0
STYLE
  5
26
100
AcDbSymbolTableRecord
100
AcDbTextStyleTableRecord
  2
TATEGAKI
 70
    68
 40
0.0
 41
1.0
 50
0.0
 71
     0
 42
1.0
  3
txt
  4
bigfont.shx
  0
ENDTAB
  0
TABLE
  2
LAYER
 70
    5
  0
LAYER
  2
_0-0_0
 70
   64
 62
    7
  6
CONTINUOUS
  0
LAYER
  2
_0-1_DEFPOINTS
 70
   64
 62
    7
  6
CONTINUOUS
  0
LAYER
  2
_0-2_PV
 70
   64
 62
    7
  6
CONTINUOUS
  0
LAYER
  2
_0-3_0_5
 70
   64
 62
    7
  6
CONTINUOUS
  0
LAYER
  2
ADD_LINE
 70
   64
 62
    7
  6
CONTINUOUS
  0
ENDTAB
  0
ENDSEC
  0
SECTION
  2
BLOCKS
  0
BLOCK
  2
-000-_OPEN30
 70
   64
 10
0
 20
0
 30
0
  0
LINE
  8
_0-0_0
  6
CONTINUOUS
 62
    7
 10
-1
 20
0.2679489999999998
 11
0
 21
0
  0
LINE
  8
_0-0_0
  6
CONTINUOUS
 62
    7
 10
0
 20
0
 11
-1
 21
-0.2679489999999998
  0
LINE
  8
_0-0_0
  6
CONTINUOUS
 62
    7
 10
0
 20
0
 11
-1
 21
0
  0
ENDBLK
  0
BLOCK
  2
-001-_D3
 70
   64
 10
0
 20
0
 30
0
  0
LINE
  8
_0-0_0
  6
CONTINUOUS
 62
    7
 10
1112.9684380000001
 20
-1471.375405
 11
1074.962724
 21
-1471.375405
  0
LINE
  8
_0-0_0
  6
CONTINUOUS
 62
    7
 10
1074.962724
 20
-1429.093308
 11
1074.962724
 21
-1472.875405
  0
INSERT
  2
-000-_OPEN30
  8
_0-0_0
 10
1112.9684380000001
 20
-1471.375405
 41
2.77
 42
2.77
 50
0
  0
INSERT
  2
-000-_OPEN30
  8
_0-0_0
 10
1074.962724
 20
-1471.375405
 41
2.77
 42
2.77
 50
180
  0
TEXT
  8
_0-0_0
 62
    7
 10
1091.46558
 20
-1470.375405
 40
2.5
 41
1
 50
0
  1
76.0
  0
POINT
  8
_0-1_DEFPOINTS
 62
    7
 10
1112.9684380000001
 20
-1419.593308
  0
POINT
  8
_0-1_DEFPOINTS
 62
    7
 10
1074.962724
 20
-1427.593308
  0
POINT
  8
_0-1_DEFPOINTS
 62
    7
 10
1074.962724
 20
-1471.375405
  0
ENDBLK
  0
BLOCK
  2
-003-_D5
 70
   64
 10
0
 20
0
 30
0
  0
LINE
  8
_0-0_0
  6
CONTINUOUS
 62
    7
 10
1150.564597
 20
-1400.5933090000001
 11
1150.564597
 21
-1546.176901
  0
LINE
  8
_0-0_0
  6
CONTINUOUS
 62
    7
 10
1095.4684400000001
 20
-1400.5933090000001
 11
1152.064597
 21
-1400.5933090000001
  0
LINE
  8
_0-0_0
  6
CONTINUOUS
 62
    7
 10
1122.4059380000001
 20
-1546.176901
 11
1152.064597
 21
-1546.176901
  0
INSERT
  2
-000-_OPEN30
  8
_0-0_0
 10
1150.564597
 20
-1400.5933090000001
 41
2.77
 42
2.77
 50
90
  0
INSERT
  2
-000-_OPEN30
  8
_0-0_0
 10
1150.564597
 20
-1546.176901
 41
2.77
 42
2.77
 50
270
  0
TEXT
  8
_0-0_0
 62
    7
 10
1149.564597
 20
-1476.5101030000001
 40
2.5
 41
1
 50
90
  1
750.0
  0
POINT
  8
_0-1_DEFPOINTS
 62
    7
 10
1093.9684400000001
 20
-1400.5933090000001
  0
POINT
  8
_0-1_DEFPOINTS
 62
    7
 10
1120.9059380000001
 20
-1546.176901
  0
POINT
  8
_0-1_DEFPOINTS
 62
    7
 10
1150.564597
 20
-1546.176901
  0
ENDBLK
  0
BLOCK
  2
-005-_D7
 70
   64
 10
0
 20
0
 30
0
  0
LINE
  8
_0-0_0
  6
CONTINUOUS
 62
    7
 10
1141.801066
 20
-1400.5933090000001
 11
1141.801066
 21
-1446.5933090000001
  0
LINE
  8
_0-0_0
  6
CONTINUOUS
 62
    7
 10
1095.468435
 20
-1400.5933090000001
 11
1143.301066
 21
-1400.5933090000001
  0
LINE
  8
_0-0_0
  6
CONTINUOUS
 62
    7
 10
1057.4570100000001
 20
-1446.5933090000001
 11
1143.301066
 21
-1446.5933090000001
  0
INSERT
  2
-000-_OPEN30
  8
_0-0_0
 10
1141.801066
 20
-1400.5933090000001
 41
2.77
 42
2.77
 50
90
  0
INSERT
  2
-000-_OPEN30
  8
_0-0_0
 10
1141.801066
 20
-1446.5933090000001
 41
2.77
 42
2.77
 50
270
  0
TEXT
  8
_0-0_0
 62
    7
 10
1140.801066
 20
-1427.211816
 40
2.5
 41
1
 50
90
  1
(92.0)
  0
POINT
  8
_0-1_DEFPOINTS
 62
    7
 10
1093.968435
 20
-1400.5933090000001
  0
POINT
  8
_0-1_DEFPOINTS
 62
    7
 10
1055.9570100000001
 20
-1446.5933090000001
  0
POINT
  8
_0-1_DEFPOINTS
 62
    7
 10
1141.801066
 20
-1446.5933090000001
  0
ENDBLK
  0
BLOCK
  2
-006-_D8
 70
   64
 10
0
 20
0
 30
0
  0
LINE
  8
_0-0_0
  6
CONTINUOUS
 62
    7
 10
1010.726886
 20
-1446.5933090000001
 11
1010.726886
 21
-1381.5933090000001
  0
LINE
  8
_0-0_0
  6
CONTINUOUS
 62
    7
 10
1054.4570120000001
 20
-1446.5933090000001
 11
1009.226886
 21
-1446.5933090000001
  0
LINE
  8
_0-0_0
  6
CONTINUOUS
 62
    7
 10
1023.4455850000001
 20
-1381.5933090000001
 11
1009.226886
 21
-1381.5933090000001
  0
INSERT
  2
-000-_OPEN30
  8
_0-0_0
 10
1010.726886
 20
-1446.5933090000001
 41
2.77
 42
2.77
 50
270
  0
INSERT
  2
-000-_OPEN30
  8
_0-0_0
 10
1010.726886
 20
-1381.5933090000001
 41
2.77
 42
2.77
 50
90
  0
TEXT
  8
_0-0_0
 62
    7
 10
1009.726886
 20
-1415.8018810000001
 40
2.5
 41
1
 50
90
  1
(130.0)
  0
POINT
  8
_0-1_DEFPOINTS
 62
    7
 10
1055.9570120000001
 20
-1446.5933090000001
  0
POINT
  8
_0-1_DEFPOINTS
 62
    7
 10
1024.9455849999999
 20
-1381.5933090000001
  0
POINT
  8
_0-1_DEFPOINTS
 62
    7
 10
1010.726886
 20
-1381.5933090000001
  0
ENDBLK
  0
BLOCK
  2
-007-_D9
 70
   64
 10
0
 20
0
 30
0
  0
LINE
  8
_0-0_0
  6
CONTINUOUS
 62
    7
 10
1018.396789
 20
-1407.5933090000001
 11
1018.396789
 21
-1381.5933090000001
  0
LINE
  8
_0-0_0
  6
CONTINUOUS
 62
    7
 10
1027.0570110000001
 20
-1407.5933090000001
 11
1016.896789
 21
-1407.5933090000001
  0
INSERT
  2
-000-_OPEN30
  8
_0-0_0
 10
1018.396789
 20
-1407.5933090000001
 41
2.77
 42
2.77
 50
270
  0
INSERT
  2
-000-_OPEN30
  8
_0-0_0
 10
1018.396789
 20
-1381.5933090000001
 41
2.77
 42
2.77
 50
90
  0
TEXT
  8
_0-0_0
 62
    7
 10
1017.396789
 20
-1398.3433090000001
 40
2.5
 41
1
 50
90
  1
(52.0)
  0
POINT
  8
_0-1_DEFPOINTS
 62
    7
 10
1028.5570110000001
 20
-1407.5933090000001
  0
POINT
  8
_0-1_DEFPOINTS
 62
    7
 10
1035.4570100000001
 20
-1381.5933090000001
  0
POINT
  8
_0-1_DEFPOINTS
 62
    7
 10
1018.396789
 20
-1381.5933090000001
  0
ENDBLK
  0
BLOCK
  2
-008-_D10
 70
   64
 10
0
 20
0
 30
0
  0
LINE
  8
_0-0_0
  6
CONTINUOUS
 62
    7
 10
1074.957011
 20
-1471.375405
 11
1036.957011
 21
-1471.375405
  0
LINE
  8
_0-0_0
  6
CONTINUOUS
 62
    7
 10
1074.957011
 20
-1429.093312
 11
1074.957011
 21
-1472.875405
  0
LINE
  8
_0-0_0
  6
CONTINUOUS
 62
    7
 10
1036.957011
 20
-1429.093312
 11
1036.957011
 21
-1472.875405
  0
INSERT
  2
-000-_OPEN30
  8
_0-0_0
 10
1074.957011
 20
-1471.375405
 41
2.77
 42
2.77
 50
0
  0
INSERT
  2
-000-_OPEN30
  8
_0-0_0
 10
1036.957011
 20
-1471.375405
 41
2.77
 42
2.77
 50
180
  0
TEXT
  8
_0-0_0
 62
    7
 10
1054.1588389999999
 20
-1470.375405
 40
2.5
 41
1
 50
0
  1
76.0
  0
POINT
  8
_0-1_DEFPOINTS
 62
    7
 10
1074.957011
 20
-1427.593312
  0
POINT
  8
_0-1_DEFPOINTS
 62
    7
 10
1036.957011
 20
-1427.593312
  0
POINT
  8
_0-1_DEFPOINTS
 62
    7
 10
1036.957011
 20
-1471.375405
  0
ENDBLK
  0
BLOCK
  2
-009-_D11
 70
   64
 10
0
 20
0
 30
0
  0
LINE
  8
_0-0_0
  6
CONTINUOUS
 62
    7
 10
1024.957011
 20
-1367.9490860000001
 11
1048.957011
 21
-1367.9490860000001
  0
LINE
  8
_0-0_0
  6
CONTINUOUS
 62
    7
 10
1024.957011
 20
-1380.0745589999999
 11
1024.957011
 21
-1366.4490860000001
  0
LINE
  8
_0-0_0
  6
CONTINUOUS
 62
    7
 10
1048.957011
 20
-1380.0745589999999
 11
1048.957011
 21
-1366.4490860000001
  0
INSERT
  2
-000-_OPEN30
  8
_0-0_0
 10
1024.957011
 20
-1367.9490860000001
 41
2.77
 42
2.77
 50
180
  0
INSERT
  2
-000-_OPEN30
  8
_0-0_0
 10
1048.957011
 20
-1367.9490860000001
 41
2.77
 42
2.77
 50
0
  0
TEXT
  8
_0-0_0
 62
    7
 10
1029.457011
 20
-1366.9490860000001
 40
2.5
 41
1
 50
0
  1
六角対辺43.0
  0
POINT
  8
_0-1_DEFPOINTS
 62
    7
 10
1024.957011
 20
-1381.5745589999999
  0
POINT
  8
_0-1_DEFPOINTS
 62
    7
 10
1048.957011
 20
-1381.5745589999999
  0
POINT
  8
_0-1_DEFPOINTS
 62
    7
 10
1048.957011
 20
-1367.9490860000001
  0
ENDBLK
  0
BLOCK
  2
-010-_D12
 70
   64
 10
0
 20
0
 30
0
  0
LINE
  8
_0-0_0
  6
CONTINUOUS
 62
    7
 10
1062.957011
 20
-1388.0205679999999
 11
1086.957011
 21
-1388.0205679999999
  0
LINE
  8
_0-0_0
  6
CONTINUOUS
 62
    7
 10
1062.957011
 20
-1421.7433080000001
 11
1062.957011
 21
-1386.5205679999999
  0
LINE
  8
_0-0_0
  6
CONTINUOUS
 62
    7
 10
1086.957011
 20
-1421.7433080000001
 11
1086.957011
 21
-1386.5205679999999
  0
INSERT
  2
-000-_OPEN30
  8
_0-0_0
 10
1062.957011
 20
-1388.0205679999999
 41
2.77
 42
2.77
 50
180
  0
INSERT
  2
-000-_OPEN30
  8
_0-0_0
 10
1086.957011
 20
-1388.0205679999999
 41
2.77
 42
2.77
 50
0
  0
TEXT
  8
_0-0_0
 62
    7
 10
1068.030544
 20
-1387.0205679999999
 40
2.5
 41
1
 50
0
  1
六角対辺43.0
  0
POINT
  8
_0-1_DEFPOINTS
 62
    7
 10
1062.957011
 20
-1423.2433080000001
  0
POINT
  8
_0-1_DEFPOINTS
 62
    7
 10
1086.957011
 20
-1423.2433080000001
  0
POINT
  8
_0-1_DEFPOINTS
 62
    7
 10
1086.957011
 20
-1388.0205679999999
  0
ENDBLK
  0
ENDSEC
  0
SECTION
  2
ENTITIES
  0
LINE
  8
_0-2_PV
  6
CONTINUOUS
 62
    7
 10
53.5
 20
243.5
 11
53.5
 21
-33.5
  0
CIRCLE
  8
_0-2_PV
  6
CONTINUOUS
 62
    7
 10
62.159485000000018
 20
-14.75
 40
1.875
  0
CIRCLE
  8
_0-2_PV
  6
CONTINUOUS
 62
    7
 10
62.159485000000018
 20
-14.75
 40
3.375
  0
LINE
  8
_0-2_PV
  6
CENTER
 62
    7
 10
57.391036999999983
 20
-14.75
 11
76.824661999999989
 21
-14.75
  0
LINE
  8
_0-2_PV
  6
CONTINUOUS
 62
    7
 10
120.5
 20
-25
 11
173
 21
-25
  0
LINE
  8
_0-2_PV
  6
CONTINUOUS
 62
    7
 10
116.28235999999993
 20
-12.014697000000069
 11
108.57903600000009
 21
-18.434134000000086
  0
TEXT
  8
_0-2_PV
 62
    7
 10
108.63726199999996
 20
-14.082664000000022
 40
3.75
 41
1.399883
 50
0
  1
1
  0
TEXT
  8
_0-2_PV
 62
    7
 10
114.73669399999994
 20
-19.319679000000178
 40
3.75
 41
1.143
 50
0
  1
2
  0
TEXT
  8
_0-2_PV
 62
    7
 10
173.88950700000009
 20
-18.844620000000077
 40
3.75
 41
1.0434110000000001
 50
0
  1
番
  0
TEXT
  8
_0-2_PV
 62
    7
 10
173.88950700000009
 20
-13.844620000000077
 40
3.75
 41
1.0434110000000001
 50
0
  1
品
  0
TEXT
  8
_0-2_PV
 62
    7
 10
173.88950700000009
 20
-26.344620000000077
 40
3.75
 41
1.0434110000000001
 50
0
  1
品
  0
TEXT
  8
_0-2_PV
 62
    7
 10
173.88950700000009
 20
-31.344620000000077
 40
3.75
 41
1.0434110000000001
 50
0
  1
名
  0
LINE
  8
_0-2_PV
  6
CONTINUOUS
 62
    7
 10
178
 20
-8.5
 11
178
 21
-33.5
  0
TEXT
  8
_0-2_PV
 62
    7
 10
122.12179199999991
 20
-12.223474000000081
 40
3.2000000000000002
 41
1.0434110000000001
 50
0
  1
製　　図
  0
LINE
  8
_0-2_PV
  6
CONTINUOUS
 62
    7
 10
120.5
 20
-29.25
 11
173
 21
-29.25
  0
LINE
  8
_0-2_PV
  6
CONTINUOUS
 62
    7
 10
120.5
 20
-12.75
 11
173
 21
-12.75
  0
LINE
  8
_0-2_PV
  6
CONTINUOUS
 62
    7
 10
100.5
 20
-8.5
 11
100.5
 21
-21
  0
LINE
  8
_0-2_PV
  6
CONTINUOUS
 62
    7
 10
80.5
 20
-8.5
 11
80.5
 21
-21
  0
LINE
  8
_0-2_PV
  6
CONTINUOUS
 62
    7
 10
105.5
 20
-8.5
 11
105.5
 21
-21
  0
LINE
  8
_0-2_PV
  6
CONTINUOUS
 62
    7
 10
67.784473000000048
 20
-12.875024000000167
 11
75.284473000000048
 21
-11.375024000000167
  0
LINE
  8
_0-2_PV
  6
CONTINUOUS
 62
    7
 10
67.784490000000005
 20
-16.625019000000066
 11
75.284490000000005
 21
-18.125019000000066
  0
LINE
  8
_0-2_PV
  6
CONTINUOUS
 62
    7
 10
75.284485000000018
 20
-11.375
 11
75.284485000000018
 21
-18.124985000000152
  0
LINE
  8
_0-2_PV
  6
CONTINUOUS
 62
    7
 10
67.784485000000018
 20
-12.875
 11
67.784485000000018
 21
-16.624985000000152
  0
LINE
  8
_0-2_PV
  6
CENTER
 62
    7
 10
62.159485000000018
 20
-9.6766360000001441
 11
62.159485000000018
 21
-19.753326000000015
  0
TEXT
  8
_0-2_PV
 62
    7
 10
101.38950700000009
 20
-18.844620000000077
 40
3.75
 41
1.0434110000000001
 50
0
  1
度
  0
TEXT
  8
_0-2_PV
 62
    7
 10
81.873881999999981
 20
-16.701172000000042
 40
3.75
 41
1.0434110000000001
 50
0
  1
単位ｍｍ
  0
TEXT
  8
_0-2_PV
 62
    7
 10
101.38950700000009
 20
-13.844620000000077
 40
3.75
 41
1.0434110000000001
 50
0
  1
尺
  0
LINE
  8
_0-2_PV
  6
CONTINUOUS
 62
    7
 10
120.5
 20
-8.5
 11
120.5
 21
-33.5
  0
LINE
  8
_0-2_PV
  6
CONTINUOUS
 62
    7
 10
138
 20
-8.5
 11
138
 21
-25
  0
LINE
  8
_0-2_PV
  6
CONTINUOUS
 62
    7
 10
155.5
 20
-8.5
 11
155.5
 21
-25
  0
LINE
  8
_0-2_PV
  6
CONTINUOUS
 62
    7
 10
173
 20
-8.5
 11
173
 21
-33.5
  0
LINE
  8
_0-2_PV
  6
CONTINUOUS
 62
    7
 10
53.5
 20
-33.5
 11
243.5
 21
-33.5
  0
LINE
  8
_0-2_PV
  6
CONTINUOUS
 62
    7
 10
173
 20
-21
 11
243.5
 21
-21
  0
LINE
  8
_0-2_PV
  6
CONTINUOUS
 62
    7
 10
53.5
 20
-8.5
 11
243.5
 21
-8.5
  0
LINE
  8
_0-2_PV
  6
CONTINUOUS
 62
    7
 10
53.5
 20
-21
 11
120.5
 21
-21
  0
LINE
  8
_0-1_DEFPOINTS
  6
CONTINUOUS
 62
    7
 10
43.5
 20
253.5
 11
253.5
 21
253.5
  0
LINE
  8
_0-1_DEFPOINTS
  6
CONTINUOUS
 62
    7
 10
43.5
 20
-43.5
 11
253.5
 21
-43.5
  0
LINE
  8
_0-1_DEFPOINTS
  6
CONTINUOUS
 62
    7
 10
43.5
 20
-43.5
 11
43.5
 21
253.5
  0
LINE
  8
_0-1_DEFPOINTS
  6
CONTINUOUS
 62
    7
 10
253.5
 20
-43.5
 11
253.5
 21
253.5
  0
LINE
  8
_0-2_PV
  6
CONTINUOUS
 62
    7
 10
243.5
 20
-33.5
 11
243.5
 21
243.5
  0
LINE
  8
_0-2_PV
  6
CONTINUOUS
 62
    7
 10
53.5
 20
243.5
 11
243.5
 21
243.5
  0
INSERT
  2
-001-_D3
  8
_0-3_0_5
 10
-940.19092599999999
 20
1590.4066519999999
 41
1
 42
1
 50
0
  0
INSERT
  2
-003-_D5
  8
_0-3_0_5
 10
-940.19092599999999
 20
1590.4066519999999
 41
1
 42
1
 50
0
  0
LINE
  8
_0-3_0_5
  6
CONTINUOUS
 62
    3
 10
164.84001200000012
 20
59.229750999999851
 11
164.84001200000012
 21
44.229750999999851
  0
LINE
  8
_0-3_0_5
  6
CONTINUOUS
 62
    3
 10
180.71501200000012
 20
59.229750999999851
 11
180.71501200000012
 21
44.229750999999851
  0
LINE
  8
_0-3_0_5
  6
CONTINUOUS
 62
    3
 10
164.84001200000012
 20
96.368024999999989
 11
164.84001200000012
 21
69.229750999999851
  0
LINE
  8
_0-3_0_5
  6
CONTINUOUS
 62
    3
 10
180.71501200000012
 20
96.368024999999989
 11
180.71501200000012
 21
69.229750999999851
  0
LINE
  8
_0-3_0_5
  6
CONTINUOUS
 62
    3
 10
183.77601600000003
 20
69.229750999999851
 11
161.77900700000009
 21
69.229750999999851
  0
LINE
  8
_0-3_0_5
  6
CONTINUOUS
 62
    3
 10
156.27751200000012
 20
63.72825499999999
 11
156.27751200000012
 21
59.229750999999851
  0
ARC
  8
_0-3_0_5
  6
CONTINUOUS
 62
    3
 10
161.77900700000009
 20
63.72825499999999
 40
5.5014960000000004
 50
90
 51
180
  0
LINE
  8
_0-3_0_5
  6
CONTINUOUS
 62
    3
 10
189.27751200000012
 20
59.229750999999851
 11
156.27751200000012
 21
59.229750999999851
  0
ARC
  8
_0-3_0_5
  6
CONTINUOUS
 62
    3
 10
183.77601600000003
 20
63.72825499999999
 40
5.5014960000000004
 50
0
 51
90
  0
LINE
  8
_0-3_0_5
  6
CONTINUOUS
 62
    3
 10
189.27751200000012
 20
63.72825499999999
 11
189.27751200000012
 21
59.229750999999851
  0
ARC
  8
_0-3_0_5
  6
CONTINUOUS
 62
    3
 10
168.80876200000012
 20
107.04341599999998
 40
6.9253910000000003
 50
235.03524999999996
 51
304.96474999999998
  0
ARC
  8
_0-3_0_5
  6
CONTINUOUS
 62
    3
 10
168.80876200000012
 20
102.04341599999998
 40
6.9253910000000003
 50
235.03524999999996
 51
304.96474999999998
  0
ARC
  8
_0-3_0_5
  6
CONTINUOUS
 62
    3
 10
168.80876200000012
 20
90.692633999999998
 40
6.9253910000000003
 50
55.035249999999998
 51
124.96474999999997
  0
ARC
  8
_0-3_0_5
  6
CONTINUOUS
 62
    3
 10
176.74626200000012
 20
95.692633999999998
 40
6.9253910000000003
 50
55.035249999999998
 51
124.96474999999997
  0
ARC
  8
_0-3_0_5
  6
CONTINUOUS
 62
    3
 10
176.74626200000012
 20
107.04341599999998
 40
6.9253910000000003
 50
235.03524999999996
 51
304.96474999999998
  0
ARC
  8
_0-3_0_5
  6
CONTINUOUS
 62
    3
 10
176.74626200000012
 20
90.692633999999998
 40
6.9253910000000003
 50
55.035249999999998
 51
124.96474999999997
  0
LINE
  8
_0-3_0_5
  6
CONTINUOUS
 62
    3
 10
180.71501200000012
 20
44.229750999999851
 11
172.77751200000012
 21
44.229750999999851
  0
LINE
  8
_0-3_0_5
  6
CONTINUOUS
 62
    3
 10
180.71501200000012
 20
44.229750999999851
 11
164.84001200000012
 21
44.229750999999851
  0
LINE
  8
_0-3_0_5
  6
CONTINUOUS
 62
    3
 10
164.84001200000012
 20
170.8133429999998
 11
164.84001200000012
 21
101.36802499999999
  0
LINE
  8
_0-3_0_5
  6
CONTINUOUS
 62
    3
 10
180.71501200000012
 20
170.8133429999998
 11
180.71501200000012
 21
101.36802499999999
  0
LINE
  8
_0-3_0_5
  6
CENTER
 62
    7
 10
172.77751200000012
 20
40.804997999999841
 11
172.77751200000012
 21
170.8133429999998
  0
INSERT
  2
-005-_D7
  8
_0-3_0_5
 10
-940.19092599999999
 20
1590.4066519999999
 41
1
 42
1
 50
0
  0
ARC
  8
_0-3_0_5
  6
CENTER
 62
    7
 10
153.77751200000012
 20
170.8133429999998
 40
19
 50
0
 51
180
  0
ARC
  8
_0-3_0_5
  6
CONTINUOUS
 62
    3
 10
153.77751200000012
 20
170.8133429999998
 40
26.9375
 50
0
 51
180
  0
ARC
  8
_0-3_0_5
  6
CONTINUOUS
 62
    3
 10
153.77751200000012
 20
170.8133429999998
 40
11.0625
 50
0
 51
180
  0
INSERT
  2
-006-_D8
  8
_0-3_0_5
 10
-940.19092599999999
 20
1590.4066519999999
 41
1
 42
1
 50
0
  0
INSERT
  2
-007-_D9
  8
_0-3_0_5
 10
-940.19092599999999
 20
1590.4066519999999
 41
1
 42
1
 50
0
  0
INSERT
  2
-008-_D10
  8
_0-3_0_5
 10
-940.19092599999999
 20
1590.4066519999999
 41
1
 42
1
 50
0
  0
LINE
  8
_0-3_0_5
  6
CONTINUOUS
 62
    3
 10
126.84001200000012
 20
170.8133429999998
 11
126.84001200000012
 21
170.16334299999994
  0
LINE
  8
_0-3_0_5
  6
CONTINUOUS
 62
    3
 10
145.41183599999999
 20
164.16334299999994
 11
134.76608499999998
 21
164.16334299999994
  0
LINE
  8
_0-3_0_5
  6
CONTINUOUS
 62
    3
 10
134.76608499999998
 20
170.16334299999994
 11
145.41183599999999
 21
170.16334299999994
  0
LINE
  8
_0-3_0_5
  6
CONTINUOUS
 62
    3
 10
144.11065400000007
 20
164.16334299999994
 11
144.5757329622264
 21
164.20891974096332
  0
LINE
  8
_0-3_0_5
  6
CONTINUOUS
 62
    3
 10
144.5757329622264
 20
164.20891974096332
 11
145.02668073552678
 21
164.34426513764222
  0
LINE
  8
_0-3_0_5
  6
CONTINUOUS
 62
    3
 10
145.02668073552678
 20
164.34426513764222
 11
145.44979550000008
 21
164.56526678864662
  0
LINE
  8
_0-3_0_5
  6
CONTINUOUS
 62
    3
 10
145.44979550000008
 20
164.56526678864662
 11
145.83222112763417
 21
164.865209670643
  0
LINE
  8
_0-3_0_5
  6
CONTINUOUS
 62
    3
 10
145.83222112763417
 20
164.865209670643
 11
146.16233780925009
 21
165.23498017094033
  0
LINE
  8
_0-3_0_5
  6
CONTINUOUS
 62
    3
 10
146.16233780925009
 20
165.23498017094033
 11
146.43011511652406
 21
165.66334299999994
  0
LINE
  8
_0-3_0_5
  6
CONTINUOUS
 62
    3
 10
146.43011511652406
 20
165.66334299999994
 11
146.62741677147642
 21
166.13728257002293
  0
LINE
  8
_0-3_0_5
  6
CONTINUOUS
 62
    3
 10
146.62741677147642
 20
166.13728257002293
 11
146.74824786316086
 21
166.64239846699914
  0
LINE
  8
_0-3_0_5
  6
CONTINUOUS
 62
    3
 10
146.74824786316086
 20
166.64239846699914
 11
146.78893700000006
 21
167.16334299999994
  0
LINE
  8
_0-3_0_5
  6
CONTINUOUS
 62
    3
 10
146.78893700000006
 20
167.16334299999994
 11
146.74824786316086
 21
167.68428753300074
  0
LINE
  8
_0-3_0_5
  6
CONTINUOUS
 62
    3
 10
146.74824786316086
 20
167.68428753300074
 11
146.62741677147642
 21
168.18940342997695
  0
LINE
  8
_0-3_0_5
  6
CONTINUOUS
 62
    3
 10
146.62741677147642
 20
168.18940342997695
 11
146.43011511652406
 21
168.66334299999994
  0
LINE
  8
_0-3_0_5
  6
CONTINUOUS
 62
    3
 10
146.43011511652406
 20
168.66334299999994
 11
146.16233780925009
 21
169.09170582905955
  0
LINE
  8
_0-3_0_5
  6
CONTINUOUS
 62
    3
 10
146.16233780925009
 20
169.09170582905955
 11
145.83222112763417
 21
169.46147632935688
  0
LINE
  8
_0-3_0_5
  6
CONTINUOUS
 62
    3
 10
145.83222112763417
 20
169.46147632935688
 11
145.44979550000008
 21
169.76141921135326
  0
LINE
  8
_0-3_0_5
  6
CONTINUOUS
 62
    3
 10
145.44979550000008
 20
169.76141921135326
 11
145.02668073552678
 21
169.98242086235766
  0
LINE
  8
_0-3_0_5
  6
CONTINUOUS
 62
    3
 10
145.02668073552678
 20
169.98242086235766
 11
144.5757329622264
 21
170.11776625903656
  0
LINE
  8
_0-3_0_5
  6
CONTINUOUS
 62
    3
 10
144.5757329622264
 20
170.11776625903656
 11
144.11065400000007
 21
170.16334299999994
  0
LINE
  8
_0-3_0_5
  6
CONTINUOUS
 62
    3
 10
144.11065400000007
 20
170.16334299999994
 11
143.64557503777377
 21
170.11776625903656
  0
LINE
  8
_0-3_0_5
  6
CONTINUOUS
 62
    3
 10
143.64557503777377
 20
170.11776625903656
 11
143.19462726447338
 21
169.98242086235766
  0
LINE
  8
_0-3_0_5
  6
CONTINUOUS
 62
    3
 10
143.19462726447338
 20
169.98242086235766
 11
142.77151250000009
 21
169.76141921135326
  0
LINE
  8
_0-3_0_5
  6
CONTINUOUS
 62
    3
 10
142.77151250000009
 20
169.76141921135326
 11
142.38908687236597
 21
169.46147632935688
  0
LINE
  8
_0-3_0_5
  6
CONTINUOUS
 62
    3
 10
142.38908687236597
 20
169.46147632935688
 11
142.05897019075005
 21
169.09170582905958
  0
LINE
  8
_0-3_0_5
  6
CONTINUOUS
 62
    3
 10
142.05897019075005
 20
169.09170582905958
 11
141.79119288347607
 21
168.66334299999994
  0
LINE
  8
_0-3_0_5
  6
CONTINUOUS
 62
    3
 10
141.79119288347607
 20
168.66334299999994
 11
141.59389122852372
 21
168.18940342997695
  0
LINE
  8
_0-3_0_5
  6
CONTINUOUS
 62
    3
 10
141.59389122852372
 20
168.18940342997695
 11
141.47306013683928
 21
167.68428753300074
  0
LINE
  8
_0-3_0_5
  6
CONTINUOUS
 62
    3
 10
141.47306013683928
 20
167.68428753300074
 11
141.43237100000007
 21
167.16334299999994
  0
LINE
  8
_0-3_0_5
  6
CONTINUOUS
 62
    3
 10
141.43237100000007
 20
167.16334299999994
 11
141.47306013683928
 21
166.64239846699917
  0
LINE
  8
_0-3_0_5
  6
CONTINUOUS
 62
    3
 10
141.47306013683928
 20
166.64239846699917
 11
141.59389122852372
 21
166.13728257002293
  0
LINE
  8
_0-3_0_5
  6
CONTINUOUS
 62
    3
 10
141.59389122852372
 20
166.13728257002293
 11
141.79119288347607
 21
165.66334299999994
  0
LINE
  8
_0-3_0_5
  6
CONTINUOUS
 62
    3
 10
141.79119288347607
 20
165.66334299999994
 11
142.05897019075005
 21
165.23498017094033
  0
LINE
  8
_0-3_0_5
  6
CONTINUOUS
 62
    3
 10
142.05897019075005
 20
165.23498017094033
 11
142.38908687236597
 21
164.86520967064303
  0
LINE
  8
_0-3_0_5
  6
CONTINUOUS
 62
    3
 10
142.38908687236597
 20
164.86520967064303
 11
142.77151250000006
 21
164.56526678864662
  0
LINE
  8
_0-3_0_5
  6
CONTINUOUS
 62
    3
 10
142.77151250000006
 20
164.56526678864662
 11
143.19462726447335
 21
164.34426513764222
  0
LINE
  8
_0-3_0_5
  6
CONTINUOUS
 62
    3
 10
143.19462726447335
 20
164.34426513764222
 11
143.64557503777374
 21
164.20891974096332
  0
LINE
  8
_0-3_0_5
  6
CONTINUOUS
 62
    3
 10
143.64557503777374
 20
164.20891974096332
 11
144.11065400000007
 21
164.16334299999994
  0
LINE
  8
_0-3_0_5
  6
CONTINUOUS
 62
    3
 10
140.09876725192535
 20
167.16334299999991
 11
140.01775182604669
 21
166.64239816801458
  0
LINE
  8
_0-3_0_5
  6
CONTINUOUS
 62
    3
 10
140.01775182604669
 20
166.64239816801458
 11
139.77716716113022
 21
166.1372819811383
  0
LINE
  8
_0-3_0_5
  6
CONTINUOUS
 62
    3
 10
139.77716716113022
 20
166.1372819811383
 11
139.38432330047775
 21
165.66334213910821
  0
LINE
  8
_0-3_0_5
  6
CONTINUOUS
 62
    3
 10
139.38432330047775
 20
165.66334213910821
 11
138.85115660600658
 21
165.23497906419928
  0
LINE
  8
_0-3_0_5
  6
CONTINUOUS
 62
    3
 10
138.85115660600658
 20
165.23497906419928
 11
138.19386707793291
 21
164.86520835168039
  0
LINE
  8
_0-3_0_5
  6
CONTINUOUS
 62
    3
 10
138.19386707793291
 20
164.86520835168039
 11
137.43242612596265
 21
164.56526529753845
  0
LINE
  8
_0-3_0_5
  6
CONTINUOUS
 62
    3
 10
137.43242612596265
 20
164.56526529753845
 11
136.5899697481137
 21
164.34426351969503
  0
LINE
  8
_0-3_0_5
  6
CONTINUOUS
 62
    3
 10
136.5899697481137
 20
164.34426351969503
 11
135.69209555512356
 21
164.20891804533767
  0
LINE
  8
_0-3_0_5
  6
CONTINUOUS
 62
    3
 10
135.69209555512356
 20
164.20891804533767
 11
134.76608499999995
 21
164.16334127821654
  0
LINE
  8
_0-3_0_5
  6
CONTINUOUS
 62
    3
 10
134.76608499999995
 20
164.16334127821654
 11
133.84007444487631
 21
164.20891804533767
  0
LINE
  8
_0-3_0_5
  6
CONTINUOUS
 62
    3
 10
133.84007444487631
 20
164.20891804533767
 11
132.94220025188616
 21
164.34426351969506
  0
LINE
  8
_0-3_0_5
  6
CONTINUOUS
 62
    3
 10
132.94220025188616
 20
164.34426351969506
 11
132.09974387403724
 21
164.56526529753845
  0
LINE
  8
_0-3_0_5
  6
CONTINUOUS
 62
    3
 10
132.09974387403724
 20
164.56526529753845
 11
131.33830292206699
 21
164.86520835168039
  0
LINE
  8
_0-3_0_5
  6
CONTINUOUS
 62
    3
 10
131.33830292206699
 20
164.86520835168039
 11
130.68101339399331
 21
165.23497906419928
  0
LINE
  8
_0-3_0_5
  6
CONTINUOUS
 62
    3
 10
130.68101339399331
 20
165.23497906419928
 11
130.14784669952218
 21
165.66334213910824
  0
LINE
  8
_0-3_0_5
  6
CONTINUOUS
 62
    3
 10
130.14784669952218
 20
165.66334213910824
 11
129.7550028388697
 21
166.13728198113833
  0
LINE
  8
_0-3_0_5
  6
CONTINUOUS
 62
    3
 10
129.7550028388697
 20
166.13728198113833
 11
129.51441817395323
 21
166.64239816801461
  0
LINE
  8
_0-3_0_5
  6
CONTINUOUS
 62
    3
 10
129.51441817395323
 20
166.64239816801461
 11
129.4334027480746
 21
167.16334299999994
  0
LINE
  8
_0-3_0_5
  6
CONTINUOUS
 62
    3
 10
129.4334027480746
 20
167.16334299999994
 11
129.51441817395326
 21
167.6842878319853
  0
LINE
  8
_0-3_0_5
  6
CONTINUOUS
 62
    3
 10
129.51441817395326
 20
167.6842878319853
 11
129.7550028388697
 21
168.18940401886155
  0
LINE
  8
_0-3_0_5
  6
CONTINUOUS
 62
    3
 10
129.7550028388697
 20
168.18940401886155
 11
130.1478466995222
 21
168.66334386089164
  0
LINE
  8
_0-3_0_5
  6
CONTINUOUS
 62
    3
 10
130.1478466995222
 20
168.66334386089164
 11
130.68101339399334
 21
169.0917069358006
  0
LINE
  8
_0-3_0_5
  6
CONTINUOUS
 62
    3
 10
130.68101339399334
 20
169.0917069358006
 11
131.33830292206704
 21
169.46147764831949
  0
LINE
  8
_0-3_0_5
  6
CONTINUOUS
 62
    3
 10
131.33830292206704
 20
169.46147764831949
 11
132.0997438740373
 21
169.76142070246144
  0
LINE
  8
_0-3_0_5
  6
CONTINUOUS
 62
    3
 10
132.0997438740373
 20
169.76142070246144
 11
132.94220025188622
 21
169.98242248030485
  0
LINE
  8
_0-3_0_5
  6
CONTINUOUS
 62
    3
 10
132.94220025188622
 20
169.98242248030485
 11
133.84007444487636
 21
170.11776795466221
  0
LINE
  8
_0-3_0_5
  6
CONTINUOUS
 62
    3
 10
133.84007444487636
 20
170.11776795466221
 11
134.76608499999998
 21
170.16334472178335
  0
ARC
  8
_0-3_0_5
  6
CONTINUOUS
 62
    3
 10
142.76608499999998
 20
167.16334299999994
 40
4
 50
311.40962200000001
 51
48.590377999999973
  0
LINE
  8
_0-3_0_5
  6
CONTINUOUS
 62
    3
 10
134.76608499999998
 20
164.16334127821654
 11
135.69209555512361
 21
164.20891804533767
  0
LINE
  8
_0-3_0_5
  6
CONTINUOUS
 62
    3
 10
135.69209555512361
 20
164.20891804533767
 11
136.58996974811376
 21
164.34426351969503
  0
LINE
  8
_0-3_0_5
  6
CONTINUOUS
 62
    3
 10
136.58996974811376
 20
164.34426351969503
 11
137.43242612596268
 21
164.56526529753845
  0
LINE
  8
_0-3_0_5
  6
CONTINUOUS
 62
    3
 10
137.43242612596268
 20
164.56526529753845
 11
138.19386707793294
 21
164.86520835168039
  0
LINE
  8
_0-3_0_5
  6
CONTINUOUS
 62
    3
 10
138.19386707793294
 20
164.86520835168039
 11
138.85115660600661
 21
165.23497906419928
  0
LINE
  8
_0-3_0_5
  6
CONTINUOUS
 62
    3
 10
138.85115660600661
 20
165.23497906419928
 11
139.38432330047777
 21
165.66334213910824
  0
LINE
  8
_0-3_0_5
  6
CONTINUOUS
 62
    3
 10
139.38432330047777
 20
165.66334213910824
 11
139.77716716113025
 21
166.13728198113833
  0
LINE
  8
_0-3_0_5
  6
CONTINUOUS
 62
    3
 10
139.77716716113025
 20
166.13728198113833
 11
140.01775182604669
 21
166.64239816801461
  0
LINE
  8
_0-3_0_5
  6
CONTINUOUS
 62
    3
 10
140.01775182604669
 20
166.64239816801461
 11
140.09876725192535
 21
167.16334299999994
  0
ARC
  8
_0-3_0_5
  6
CONTINUOUS
 62
    3
 10
115.76608499999998
 20
162.8133429999998
 40
26.9375
 50
180
 51
0
  0
LINE
  8
_0-3_0_5
  6
CONTINUOUS
 62
    3
 10
125.43294199999991
 20
164.16334299999994
 11
125.89802096222623
 21
164.20891974096332
  0
LINE
  8
_0-3_0_5
  6
CONTINUOUS
 62
    3
 10
125.89802096222623
 20
164.20891974096332
 11
126.34896873552661
 21
164.34426513764222
  0
LINE
  8
_0-3_0_5
  6
CONTINUOUS
 62
    3
 10
126.34896873552661
 20
164.34426513764222
 11
126.77208349999991
 21
164.56526678864662
  0
LINE
  8
_0-3_0_5
  6
CONTINUOUS
 62
    3
 10
126.77208349999991
 20
164.56526678864662
 11
127.154509127634
 21
164.865209670643
  0
LINE
  8
_0-3_0_5
  6
CONTINUOUS
 62
    3
 10
127.154509127634
 20
164.865209670643
 11
127.48462580924993
 21
165.23498017094033
  0
LINE
  8
_0-3_0_5
  6
CONTINUOUS
 62
    3
 10
127.48462580924993
 20
165.23498017094033
 11
127.75240311652391
 21
165.66334299999994
  0
LINE
  8
_0-3_0_5
  6
CONTINUOUS
 62
    3
 10
127.75240311652391
 20
165.66334299999994
 11
127.94970477147626
 21
166.13728257002293
  0
LINE
  8
_0-3_0_5
  6
CONTINUOUS
 62
    3
 10
127.94970477147626
 20
166.13728257002293
 11
128.0705358631607
 21
166.64239846699914
  0
LINE
  8
_0-3_0_5
  6
CONTINUOUS
 62
    3
 10
128.0705358631607
 20
166.64239846699914
 11
128.11122499999991
 21
167.16334299999994
  0
LINE
  8
_0-3_0_5
  6
CONTINUOUS
 62
    3
 10
128.11122499999991
 20
167.16334299999994
 11
128.0705358631607
 21
167.68428753300074
  0
LINE
  8
_0-3_0_5
  6
CONTINUOUS
 62
    3
 10
128.0705358631607
 20
167.68428753300074
 11
127.94970477147626
 21
168.18940342997695
  0
LINE
  8
_0-3_0_5
  6
CONTINUOUS
 62
    3
 10
127.94970477147626
 20
168.18940342997695
 11
127.75240311652391
 21
168.66334299999994
  0
LINE
  8
_0-3_0_5
  6
CONTINUOUS
 62
    3
 10
127.75240311652391
 20
168.66334299999994
 11
127.48462580924993
 21
169.09170582905955
  0
LINE
  8
_0-3_0_5
  6
CONTINUOUS
 62
    3
 10
127.48462580924993
 20
169.09170582905955
 11
127.154509127634
 21
169.46147632935688
  0
LINE
  8
_0-3_0_5
  6
CONTINUOUS
 62
    3
 10
127.154509127634
 20
169.46147632935688
 11
126.77208349999991
 21
169.76141921135326
  0
LINE
  8
_0-3_0_5
  6
CONTINUOUS
 62
    3
 10
126.77208349999991
 20
169.76141921135326
 11
126.34896873552661
 21
169.98242086235766
  0
LINE
  8
_0-3_0_5
  6
CONTINUOUS
 62
    3
 10
126.34896873552661
 20
169.98242086235766
 11
125.89802096222624
 21
170.11776625903656
  0
LINE
  8
_0-3_0_5
  6
CONTINUOUS
 62
    3
 10
125.89802096222624
 20
170.11776625903656
 11
125.43294199999991
 21
170.16334299999994
  0
LINE
  8
_0-3_0_5
  6
CONTINUOUS
 62
    3
 10
125.43294199999991
 20
170.16334299999994
 11
124.9678630377736
 21
170.11776625903656
  0
LINE
  8
_0-3_0_5
  6
CONTINUOUS
 62
    3
 10
124.9678630377736
 20
170.11776625903656
 11
124.51691526447321
 21
169.98242086235766
  0
LINE
  8
_0-3_0_5
  6
CONTINUOUS
 62
    3
 10
124.51691526447321
 20
169.98242086235766
 11
124.09380049999992
 21
169.76141921135326
  0
LINE
  8
_0-3_0_5
  6
CONTINUOUS
 62
    3
 10
124.09380049999992
 20
169.76141921135326
 11
123.71137487236582
 21
169.46147632935688
  0
LINE
  8
_0-3_0_5
  6
CONTINUOUS
 62
    3
 10
123.71137487236582
 20
169.46147632935688
 11
123.38125819074989
 21
169.09170582905958
  0
LINE
  8
_0-3_0_5
  6
CONTINUOUS
 62
    3
 10
123.38125819074989
 20
169.09170582905958
 11
123.11348088347592
 21
168.66334299999994
  0
LINE
  8
_0-3_0_5
  6
CONTINUOUS
 62
    3
 10
123.11348088347592
 20
168.66334299999994
 11
122.91617922852357
 21
168.18940342997695
  0
LINE
  8
_0-3_0_5
  6
CONTINUOUS
 62
    3
 10
122.91617922852357
 20
168.18940342997695
 11
122.79534813683912
 21
167.68428753300074
  0
LINE
  8
_0-3_0_5
  6
CONTINUOUS
 62
    3
 10
122.79534813683912
 20
167.68428753300074
 11
122.75465899999992
 21
167.16334299999994
  0
LINE
  8
_0-3_0_5
  6
CONTINUOUS
 62
    3
 10
122.75465899999992
 20
167.16334299999994
 11
122.79534813683911
 21
166.64239846699917
  0
LINE
  8
_0-3_0_5
  6
CONTINUOUS
 62
    3
 10
122.79534813683911
 20
166.64239846699917
 11
122.91617922852356
 21
166.13728257002293
  0
LINE
  8
_0-3_0_5
  6
CONTINUOUS
 62
    3
 10
122.91617922852356
 20
166.13728257002293
 11
123.11348088347592
 21
165.66334299999994
  0
LINE
  8
_0-3_0_5
  6
CONTINUOUS
 62
    3
 10
123.11348088347592
 20
165.66334299999994
 11
123.38125819074988
 21
165.23498017094033
  0
LINE
  8
_0-3_0_5
  6
CONTINUOUS
 62
    3
 10
123.38125819074988
 20
165.23498017094033
 11
123.71137487236581
 21
164.86520967064303
  0
LINE
  8
_0-3_0_5
  6
CONTINUOUS
 62
    3
 10
123.71137487236581
 20
164.86520967064303
 11
124.0938004999999
 21
164.56526678864662
  0
LINE
  8
_0-3_0_5
  6
CONTINUOUS
 62
    3
 10
124.0938004999999
 20
164.56526678864662
 11
124.5169152644732
 21
164.34426513764222
  0
LINE
  8
_0-3_0_5
  6
CONTINUOUS
 62
    3
 10
124.5169152644732
 20
164.34426513764222
 11
124.96786303777358
 21
164.20891974096332
  0
LINE
  8
_0-3_0_5
  6
CONTINUOUS
 62
    3
 10
124.96786303777358
 20
164.20891974096332
 11
125.4329419999999
 21
164.16334299999994
  0
LINE
  8
_0-3_0_5
  6
CONTINUOUS
 62
    3
 10
87.432941999999912
 20
205.83209299999999
 11
87.898020962226227
 21
205.87766974096337
  0
LINE
  8
_0-3_0_5
  6
CONTINUOUS
 62
    3
 10
87.898020962226227
 20
205.87766974096337
 11
88.348968735526611
 21
206.01301513764227
  0
LINE
  8
_0-3_0_5
  6
CONTINUOUS
 62
    3
 10
88.348968735526611
 20
206.01301513764227
 11
88.772083499999908
 21
206.23401678864667
  0
LINE
  8
_0-3_0_5
  6
CONTINUOUS
 62
    3
 10
88.772083499999908
 20
206.23401678864667
 11
89.154509127634
 21
206.53395967064304
  0
LINE
  8
_0-3_0_5
  6
CONTINUOUS
 62
    3
 10
89.154509127634
 20
206.53395967064304
 11
89.484625809249934
 21
206.90373017094038
  0
LINE
  8
_0-3_0_5
  6
CONTINUOUS
 62
    3
 10
89.484625809249934
 20
206.90373017094038
 11
89.752403116523908
 21
207.33209299999999
  0
LINE
  8
_0-3_0_5
  6
CONTINUOUS
 62
    3
 10
89.752403116523908
 20
207.33209299999999
 11
89.949704771476263
 21
207.80603257002298
  0
LINE
  8
_0-3_0_5
  6
CONTINUOUS
 62
    3
 10
89.949704771476263
 20
207.80603257002298
 11
90.070535863160714
 21
208.31114846699919
  0
LINE
  8
_0-3_0_5
  6
CONTINUOUS
 62
    3
 10
90.070535863160714
 20
208.31114846699919
 11
90.111224999999905
 21
208.83209299999999
  0
LINE
  8
_0-3_0_5
  6
CONTINUOUS
 62
    3
 10
90.111224999999905
 20
208.83209299999999
 11
90.070535863160714
 21
209.35303753300079
  0
LINE
  8
_0-3_0_5
  6
CONTINUOUS
 62
    3
 10
90.070535863160714
 20
209.35303753300079
 11
89.949704771476263
 21
209.85815342997699
  0
LINE
  8
_0-3_0_5
  6
CONTINUOUS
 62
    3
 10
89.949704771476263
 20
209.85815342997699
 11
89.752403116523908
 21
210.33209299999999
  0
LINE
  8
_0-3_0_5
  6
CONTINUOUS
 62
    3
 10
89.752403116523908
 20
210.33209299999999
 11
89.484625809249934
 21
210.76045582905959
  0
LINE
  8
_0-3_0_5
  6
CONTINUOUS
 62
    3
 10
89.484625809249934
 20
210.76045582905959
 11
89.154509127634
 21
211.13022632935693
  0
LINE
  8
_0-3_0_5
  6
CONTINUOUS
 62
    3
 10
89.154509127634
 20
211.13022632935693
 11
88.772083499999908
 21
211.4301692113533
  0
LINE
  8
_0-3_0_5
  6
CONTINUOUS
 62
    3
 10
88.772083499999908
 20
211.4301692113533
 11
88.348968735526611
 21
211.6511708623577
  0
LINE
  8
_0-3_0_5
  6
CONTINUOUS
 62
    3
 10
88.348968735526611
 20
211.6511708623577
 11
87.898020962226241
 21
211.7865162590366
  0
LINE
  8
_0-3_0_5
  6
CONTINUOUS
 62
    3
 10
87.898020962226241
 20
211.7865162590366
 11
87.432941999999912
 21
211.83209299999999
  0
LINE
  8
_0-3_0_5
  6
CONTINUOUS
 62
    3
 10
87.432941999999912
 20
211.83209299999999
 11
86.967863037773597
 21
211.7865162590366
  0
LINE
  8
_0-3_0_5
  6
CONTINUOUS
 62
    3
 10
86.967863037773597
 20
211.7865162590366
 11
86.516915264473212
 21
211.6511708623577
  0
LINE
  8
_0-3_0_5
  6
CONTINUOUS
 62
    3
 10
86.516915264473212
 20
211.6511708623577
 11
86.093800499999915
 21
211.4301692113533
  0
LINE
  8
_0-3_0_5
  6
CONTINUOUS
 62
    3
 10
86.093800499999915
 20
211.4301692113533
 11
85.711374872365823
 21
211.13022632935693
  0
LINE
  8
_0-3_0_5
  6
CONTINUOUS
 62
    3
 10
85.711374872365823
 20
211.13022632935693
 11
85.38125819074989
 21
210.76045582905962
  0
LINE
  8
_0-3_0_5
  6
CONTINUOUS
 62
    3
 10
85.38125819074989
 20
210.76045582905962
 11
85.113480883475916
 21
210.33209299999999
  0
LINE
  8
_0-3_0_5
  6
CONTINUOUS
 62
    3
 10
85.113480883475916
 20
210.33209299999999
 11
84.916179228523575
 21
209.85815342997699
  0
LINE
  8
_0-3_0_5
  6
CONTINUOUS
 62
    3
 10
84.916179228523575
 20
209.85815342997699
 11
84.795348136839124
 21
209.35303753300079
  0
LINE
  8
_0-3_0_5
  6
CONTINUOUS
 62
    3
 10
84.795348136839124
 20
209.35303753300079
 11
84.754658999999918
 21
208.83209299999999
  0
LINE
  8
_0-3_0_5
  6
CONTINUOUS
 62
    3
 10
84.754658999999918
 20
208.83209299999999
 11
84.79534813683911
 21
208.31114846699921
  0
LINE
  8
_0-3_0_5
  6
CONTINUOUS
 62
    3
 10
84.79534813683911
 20
208.31114846699921
 11
84.916179228523561
 21
207.80603257002298
  0
LINE
  8
_0-3_0_5
  6
CONTINUOUS
 62
    3
 10
84.916179228523561
 20
207.80603257002298
 11
85.113480883475916
 21
207.33209299999999
  0
LINE
  8
_0-3_0_5
  6
CONTINUOUS
 62
    3
 10
85.113480883475916
 20
207.33209299999999
 11
85.381258190749875
 21
206.90373017094038
  0
LINE
  8
_0-3_0_5
  6
CONTINUOUS
 62
    3
 10
85.381258190749875
 20
206.90373017094038
 11
85.711374872365809
 21
206.53395967064307
  0
LINE
  8
_0-3_0_5
  6
CONTINUOUS
 62
    3
 10
85.711374872365809
 20
206.53395967064307
 11
86.093800499999901
 21
206.23401678864667
  0
LINE
  8
_0-3_0_5
  6
CONTINUOUS
 62
    3
 10
86.093800499999901
 20
206.23401678864667
 11
86.516915264473198
 21
206.01301513764227
  0
LINE
  8
_0-3_0_5
  6
CONTINUOUS
 62
    3
 10
86.516915264473198
 20
206.01301513764227
 11
86.967863037773583
 21
205.87766974096337
  0
LINE
  8
_0-3_0_5
  6
CONTINUOUS
 62
    3
 10
86.967863037773583
 20
205.87766974096337
 11
87.432941999999898
 21
205.83209299999999
  0
LINE
  8
_0-3_0_5
  6
CONTINUOUS
 62
    3
 10
96.766084999999975
 20
181.76321299999995
 11
88.857999999999947
 21
181.76321299999995
  0
ARC
  8
_0-3_0_5
  6
CONTINUOUS
 62
    3
 10
86.328584999999975
 20
180.71308299999987
 40
2.5
 50
0
 51
24.837876000000001
  0
ARC
  8
_0-3_0_5
  6
CONTINUOUS
 62
    3
 10
90.866085000000112
 20
182.8133429999998
 40
2.5
 50
180
 51
204.83787599999999
  0
ARC
  8
_0-3_0_5
  6
CONTINUOUS
 62
    3
 10
107.20358499999998
 20
180.71308299999987
 40
2.5
 50
155.16212400000001
 51
180
  0
ARC
  8
_0-3_0_5
  6
CONTINUOUS
 62
    3
 10
102.66608500000007
 20
182.8133429999998
 40
2.5
 50
335.16212400000001
 51
0.0000000000000159
  0
LINE
  8
_0-3_0_5
  6
CONTINUOUS
 62
    3
 10
88.366085000000112
 20
182.8133429999998
 11
88.366085000000112
 21
205.3133429999998
  0
LINE
  8
_0-3_0_5
  6
CONTINUOUS
 62
    3
 10
88.065123000000085
 20
205.3133429999998
 11
96.766084999999975
 21
205.3133429999998
  0
LINE
  8
_0-3_0_5
  6
CONTINUOUS
 62
    3
 10
87.166621999999961
 20
205.83209299999999
 11
88.065123000000085
 21
205.3133429999998
  0
LINE
  8
_0-3_0_5
  6
CONTINUOUS
 62
    3
 10
88.828584999999975
 20
162.8133429999998
 11
88.828584999999975
 21
180.71308299999987
  0
LINE
  8
_0-3_0_5
  6
CONTINUOUS
 62
    3
 10
104.70358499999998
 20
162.8133429999998
 11
104.70358499999998
 21
180.71308299999987
  0
ARC
  8
_0-3_0_5
  6
CONTINUOUS
 62
    3
 10
115.76608499999998
 20
162.8133429999998
 40
11.0625
 50
180
 51
0
  0
LINE
  8
_0-3_0_5
  6
CONTINUOUS
 62
    3
 10
126.82858499999998
 20
162.8133429999998
 11
126.82858499999998
 21
164.16334299999994
  0
LINE
  8
_0-3_0_5
  6
CONTINUOUS
 62
    3
 10
142.70358499999998
 20
162.8133429999998
 11
142.70358499999998
 21
163.8133429999998
  0
LINE
  8
_0-3_0_5
  6
CENTER
 62
    7
 10
134.77179799999999
 20
162.8133429999998
 11
134.77179799999999
 21
170.8133429999998
  0
ARC
  8
_0-3_0_5
  6
CENTER
 62
    7
 10
115.76608499999998
 20
162.8133429999998
 40
19
 50
180
 51
0
  0
LINE
  8
_0-3_0_5
  6
CONTINUOUS
 62
    3
 10
134.77751200000012
 20
170.16334472178335
 11
133.85150144487648
 21
170.11776795466221
  0
LINE
  8
_0-3_0_5
  6
CONTINUOUS
 62
    3
 10
133.85150144487648
 20
170.11776795466221
 11
132.95362725188633
 21
169.98242248030485
  0
LINE
  8
_0-3_0_5
  6
CONTINUOUS
 62
    3
 10
132.95362725188633
 20
169.98242248030485
 11
132.11117087403741
 21
169.76142070246144
  0
LINE
  8
_0-3_0_5
  6
CONTINUOUS
 62
    3
 10
132.11117087403741
 20
169.76142070246144
 11
131.34972992206716
 21
169.46147764831949
  0
LINE
  8
_0-3_0_5
  6
CONTINUOUS
 62
    3
 10
131.34972992206716
 20
169.46147764831949
 11
130.69244039399348
 21
169.0917069358006
  0
LINE
  8
_0-3_0_5
  6
CONTINUOUS
 62
    3
 10
130.69244039399348
 20
169.0917069358006
 11
130.15927369952232
 21
168.66334386089164
  0
LINE
  8
_0-3_0_5
  6
CONTINUOUS
 62
    3
 10
130.15927369952232
 20
168.66334386089164
 11
129.76642983886984
 21
168.18940401886155
  0
LINE
  8
_0-3_0_5
  6
CONTINUOUS
 62
    3
 10
129.76642983886984
 20
168.18940401886155
 11
129.5258451739534
 21
167.68428783198527
  0
LINE
  8
_0-3_0_5
  6
CONTINUOUS
 62
    3
 10
129.5258451739534
 20
167.68428783198527
 11
129.44482974807474
 21
167.16334299999994
  0
LINE
  8
_0-3_0_5
  6
CONTINUOUS
 62
    3
 10
124.13175999999999
 20
164.16334299999994
 11
134.77751200000012
 21
164.16334299999994
  0
LINE
  8
_0-3_0_5
  6
CONTINUOUS
 62
    3
 10
134.77751200000012
 20
170.16334299999994
 11
124.13175999999999
 21
170.16334299999994
  0
ARC
  8
_0-3_0_5
  6
CONTINUOUS
 62
    3
 10
126.77751200000012
 20
167.16334299999994
 40
4
 50
131.40962200000001
 51
228.59037799999999
  0
LINE
  8
_0-3_0_5
  6
CONTINUOUS
 62
    3
 10
129.44482974807474
 20
167.16334299999997
 11
129.5258451739534
 21
167.6842878319853
  0
LINE
  8
_0-3_0_5
  6
CONTINUOUS
 62
    3
 10
129.5258451739534
 20
167.6842878319853
 11
129.76642983886987
 21
168.18940401886158
  0
LINE
  8
_0-3_0_5
  6
CONTINUOUS
 62
    3
 10
129.76642983886987
 20
168.18940401886158
 11
130.15927369952234
 21
168.66334386089167
  0
LINE
  8
_0-3_0_5
  6
CONTINUOUS
 62
    3
 10
130.15927369952234
 20
168.66334386089167
 11
130.69244039399351
 21
169.09170693580063
  0
LINE
  8
_0-3_0_5
  6
CONTINUOUS
 62
    3
 10
130.69244039399351
 20
169.09170693580063
 11
131.34972992206718
 21
169.46147764831952
  0
LINE
  8
_0-3_0_5
  6
CONTINUOUS
 62
    3
 10
131.34972992206718
 20
169.46147764831952
 11
132.11117087403744
 21
169.76142070246144
  0
LINE
  8
_0-3_0_5
  6
CONTINUOUS
 62
    3
 10
132.11117087403744
 20
169.76142070246144
 11
132.95362725188639
 21
169.98242248030485
  0
LINE
  8
_0-3_0_5
  6
CONTINUOUS
 62
    3
 10
132.95362725188639
 20
169.98242248030485
 11
133.85150144487653
 21
170.11776795466221
  0
LINE
  8
_0-3_0_5
  6
CONTINUOUS
 62
    3
 10
133.85150144487653
 20
170.11776795466221
 11
134.77751200000014
 21
170.16334472178335
  0
LINE
  8
_0-3_0_5
  6
CONTINUOUS
 62
    3
 10
134.77751200000014
 20
170.16334472178335
 11
135.70352255512378
 21
170.11776795466221
  0
LINE
  8
_0-3_0_5
  6
CONTINUOUS
 62
    3
 10
135.70352255512378
 20
170.11776795466221
 11
136.60139674811393
 21
169.98242248030482
  0
LINE
  8
_0-3_0_5
  6
CONTINUOUS
 62
    3
 10
136.60139674811393
 20
169.98242248030482
 11
137.44385312596285
 21
169.76142070246144
  0
LINE
  8
_0-3_0_5
  6
CONTINUOUS
 62
    3
 10
137.44385312596285
 20
169.76142070246144
 11
138.2052940779331
 21
169.46147764831949
  0
LINE
  8
_0-3_0_5
  6
CONTINUOUS
 62
    3
 10
138.2052940779331
 20
169.46147764831949
 11
138.86258360600678
 21
169.0917069358006
  0
LINE
  8
_0-3_0_5
  6
CONTINUOUS
 62
    3
 10
138.86258360600678
 20
169.0917069358006
 11
139.39575030047791
 21
168.66334386089164
  0
LINE
  8
_0-3_0_5
  6
CONTINUOUS
 62
    3
 10
139.39575030047791
 20
168.66334386089164
 11
139.78859416113039
 21
168.18940401886155
  0
LINE
  8
_0-3_0_5
  6
CONTINUOUS
 62
    3
 10
139.78859416113039
 20
168.18940401886155
 11
140.02917882604686
 21
167.68428783198527
  0
LINE
  8
_0-3_0_5
  6
CONTINUOUS
 62
    3
 10
140.02917882604686
 20
167.68428783198527
 11
140.11019425192549
 21
167.16334299999994
  0
LINE
  8
_0-3_0_5
  6
CONTINUOUS
 62
    3
 10
140.11019425192549
 20
167.16334299999994
 11
140.02917882604683
 21
166.64239816801458
  0
LINE
  8
_0-3_0_5
  6
CONTINUOUS
 62
    3
 10
140.02917882604683
 20
166.64239816801458
 11
139.78859416113036
 21
166.1372819811383
  0
LINE
  8
_0-3_0_5
  6
CONTINUOUS
 62
    3
 10
139.78859416113036
 20
166.1372819811383
 11
139.39575030047789
 21
165.66334213910821
  0
LINE
  8
_0-3_0_5
  6
CONTINUOUS
 62
    3
 10
139.39575030047789
 20
165.66334213910821
 11
138.86258360600675
 21
165.23497906419928
  0
LINE
  8
_0-3_0_5
  6
CONTINUOUS
 62
    3
 10
138.86258360600675
 20
165.23497906419928
 11
138.20529407793305
 21
164.86520835168039
  0
LINE
  8
_0-3_0_5
  6
CONTINUOUS
 62
    3
 10
138.20529407793305
 20
164.86520835168039
 11
137.44385312596279
 21
164.56526529753845
  0
LINE
  8
_0-3_0_5
  6
CONTINUOUS
 62
    3
 10
137.44385312596279
 20
164.56526529753845
 11
136.60139674811387
 21
164.34426351969503
  0
LINE
  8
_0-3_0_5
  6
CONTINUOUS
 62
    3
 10
136.60139674811387
 20
164.34426351969503
 11
135.70352255512373
 21
164.20891804533767
  0
LINE
  8
_0-3_0_5
  6
CONTINUOUS
 62
    3
 10
135.70352255512373
 20
164.20891804533767
 11
134.77751200000012
 21
164.16334127821654
  0
LINE
  8
_0-3_0_5
  6
CONTINUOUS
 62
    3
 10
96.766084999999975
 20
211.83209472178339
 11
97.692095555123601
 21
211.78651795466226
  0
LINE
  8
_0-3_0_5
  6
CONTINUOUS
 62
    3
 10
97.692095555123601
 20
211.78651795466226
 11
98.589969748113745
 21
211.65117248030489
  0
LINE
  8
_0-3_0_5
  6
CONTINUOUS
 62
    3
 10
98.589969748113745
 20
211.65117248030489
 11
99.432426125962664
 21
211.43017070246148
  0
LINE
  8
_0-3_0_5
  6
CONTINUOUS
 62
    3
 10
99.432426125962664
 20
211.43017070246148
 11
100.19386707793292
 21
211.13022764831953
  0
LINE
  8
_0-3_0_5
  6
CONTINUOUS
 62
    3
 10
100.19386707793292
 20
211.13022764831953
 11
100.85115660600661
 21
210.76045693580065
  0
LINE
  8
_0-3_0_5
  6
CONTINUOUS
 62
    3
 10
100.85115660600661
 20
210.76045693580065
 11
101.38432330047777
 21
210.33209386089169
  0
LINE
  8
_0-3_0_5
  6
CONTINUOUS
 62
    3
 10
101.38432330047777
 20
210.33209386089169
 11
101.77716716113024
 21
209.8581540188616
  0
LINE
  8
_0-3_0_5
  6
CONTINUOUS
 62
    3
 10
101.77716716113024
 20
209.8581540188616
 11
102.01775182604671
 21
209.35303783198532
  0
LINE
  8
_0-3_0_5
  6
CONTINUOUS
 62
    3
 10
102.01775182604671
 20
209.35303783198532
 11
102.09876725192537
 21
208.83209299999999
  0
LINE
  8
_0-3_0_5
  6
CONTINUOUS
 62
    3
 10
102.09876725192537
 20
208.83209299999999
 11
102.01775182604671
 21
208.31114816801465
  0
LINE
  8
_0-3_0_5
  6
CONTINUOUS
 62
    3
 10
102.01775182604671
 20
208.31114816801465
 11
101.77716716113025
 21
207.80603198113837
  0
LINE
  8
_0-3_0_5
  6
CONTINUOUS
 62
    3
 10
101.77716716113025
 20
207.80603198113837
 11
101.38432330047777
 21
207.33209213910828
  0
LINE
  8
_0-3_0_5
  6
CONTINUOUS
 62
    3
 10
101.38432330047777
 20
207.33209213910828
 11
100.85115660600663
 21
206.90372906419933
  0
LINE
  8
_0-3_0_5
  6
CONTINUOUS
 62
    3
 10
100.85115660600663
 20
206.90372906419933
 11
100.19386707793294
 21
206.53395835168044
  0
LINE
  8
_0-3_0_5
  6
CONTINUOUS
 62
    3
 10
100.19386707793294
 20
206.53395835168044
 11
99.432426125962678
 21
206.23401529753849
  0
LINE
  8
_0-3_0_5
  6
CONTINUOUS
 62
    3
 10
99.432426125962678
 20
206.23401529753849
 11
98.589969748113759
 21
206.01301351969511
  0
LINE
  8
_0-3_0_5
  6
CONTINUOUS
 62
    3
 10
98.589969748113759
 20
206.01301351969511
 11
97.692095555123615
 21
205.87766804533771
  0
LINE
  8
_0-3_0_5
  6
CONTINUOUS
 62
    3
 10
97.692095555123615
 20
205.87766804533771
 11
96.76608499999999
 21
205.83209127821658
  0
LINE
  8
_0-3_0_5
  6
CONTINUOUS
 62
    3
 10
86.120333000000073
 20
205.83209299999999
 11
96.766084999999975
 21
205.83209299999999
  0
LINE
  8
_0-3_0_5
  6
CONTINUOUS
 62
    3
 10
96.766084999999975
 20
211.83209299999999
 11
86.120333000000073
 21
211.83209299999999
  0
ARC
  8
_0-3_0_5
  6
CONTINUOUS
 62
    3
 10
88.766084999999975
 20
208.83209299999999
 40
4
 50
131.40962200000001
 51
228.59037799999999
  0
LINE
  8
_0-3_0_5
  6
CONTINUOUS
 62
    3
 10
104.35358500000007
 20
164.71314399999983
 11
104.35358500000007
 21
164.66873099999998
  0
LINE
  8
_0-3_0_5
  6
CONTINUOUS
 62
    3
 10
104.70358499999998
 20
164.71314399999983
 11
104.70358499999998
 21
164.66873099999998
  0
LINE
  8
_0-3_0_5
  6
CENTER
 62
    7
 10
96.766084999999975
 20
162.8133429999998
 11
96.766084999999975
 21
217.25030099999981
  0
LINE
  8
_0-3_0_5
  6
CONTINUOUS
 62
    3
 10
142.71501200000012
 20
170.16334299999994
 11
142.71501200000012
 21
170.8133429999998
  0
INSERT
  2
-009-_D11
  8
_0-3_0_5
 10
-940.19092599999999
 20
1590.4066519999999
 41
1
 42
1
 50
0
  0
INSERT
  2
-010-_D12
  8
_0-3_0_5
 10
-940.19092599999999
 20
1590.4066519999999
 41
1
 42
1
 50
0
  0
LINE
  8
_0-3_0_5
  6
CONTINUOUS
 62
    3
 10
105.16608500000007
 20
182.8133429999998
 11
105.16608500000007
 21
205.3133429999998
  0
LINE
  8
_0-3_0_5
  6
CONTINUOUS
 62
    3
 10
105.46704700000009
 20
205.3133429999998
 11
96.766084999999975
 21
205.3133429999998
  0
LINE
  8
_0-3_0_5
  6
CONTINUOUS
 62
    3
 10
96.766084999999975
 20
205.83209127821658
 11
97.692095555123601
 21
205.87766804533771
  0
LINE
  8
_0-3_0_5
  6
CONTINUOUS
 62
    3
 10
97.692095555123601
 20
205.87766804533771
 11
98.589969748113759
 21
206.01301351969508
  0
LINE
  8
_0-3_0_5
  6
CONTINUOUS
 62
    3
 10
98.589969748113759
 20
206.01301351969508
 11
99.432426125962678
 21
206.23401529753849
  0
LINE
  8
_0-3_0_5
  6
CONTINUOUS
 62
    3
 10
99.432426125962678
 20
206.23401529753849
 11
100.19386707793294
 21
206.53395835168044
  0
LINE
  8
_0-3_0_5
  6
CONTINUOUS
 62
    3
 10
100.19386707793294
 20
206.53395835168044
 11
100.85115660600663
 21
206.90372906419933
  0
LINE
  8
_0-3_0_5
  6
CONTINUOUS
 62
    3
 10
100.85115660600663
 20
206.90372906419933
 11
101.38432330047777
 21
207.33209213910828
  0
LINE
  8
_0-3_0_5
  6
CONTINUOUS
 62
    3
 10
101.38432330047777
 20
207.33209213910828
 11
101.77716716113025
 21
207.80603198113837
  0
LINE
  8
_0-3_0_5
  6
CONTINUOUS
 62
    3
 10
101.77716716113025
 20
207.80603198113837
 11
102.01775182604671
 21
208.31114816801465
  0
LINE
  8
_0-3_0_5
  6
CONTINUOUS
 62
    3
 10
102.01775182604671
 20
208.31114816801465
 11
102.09876725192537
 21
208.83209299999999
  0
LINE
  8
_0-3_0_5
  6
CONTINUOUS
 62
    3
 10
102.09876725192537
 20
208.83209299999999
 11
102.01775182604671
 21
209.35303783198532
  0
LINE
  8
_0-3_0_5
  6
CONTINUOUS
 62
    3
 10
102.01775182604671
 20
209.35303783198532
 11
101.77716716113025
 21
209.8581540188616
  0
LINE
  8
_0-3_0_5
  6
CONTINUOUS
 62
    3
 10
101.77716716113025
 20
209.8581540188616
 11
101.38432330047777
 21
210.33209386089169
  0
LINE
  8
_0-3_0_5
  6
CONTINUOUS
 62
    3
 10
101.38432330047777
 20
210.33209386089169
 11
100.85115660600661
 21
210.76045693580065
  0
LINE
  8
_0-3_0_5
  6
CONTINUOUS
 62
    3
 10
100.85115660600661
 20
210.76045693580065
 11
100.19386707793292
 21
211.13022764831953
  0
LINE
  8
_0-3_0_5
  6
CONTINUOUS
 62
    3
 10
100.19386707793292
 20
211.13022764831953
 11
99.432426125962664
 21
211.43017070246148
  0
LINE
  8
_0-3_0_5
  6
CONTINUOUS
 62
    3
 10
99.432426125962664
 20
211.43017070246148
 11
98.589969748113745
 21
211.65117248030489
  0
LINE
  8
_0-3_0_5
  6
CONTINUOUS
 62
    3
 10
98.589969748113745
 20
211.65117248030489
 11
97.692095555123601
 21
211.78651795466226
  0
LINE
  8
_0-3_0_5
  6
CONTINUOUS
 62
    3
 10
97.692095555123601
 20
211.78651795466226
 11
96.766084999999975
 21
211.83209472178339
  0
LINE
  8
_0-3_0_5
  6
CONTINUOUS
 62
    3
 10
107.41183599999999
 20
205.83209299999999
 11
96.766084999999975
 21
205.83209299999999
  0
LINE
  8
_0-3_0_5
  6
CONTINUOUS
 62
    3
 10
96.766084999999975
 20
211.83209299999999
 11
107.41183599999999
 21
211.83209299999999
  0
ARC
  8
_0-3_0_5
  6
CONTINUOUS
 62
    3
 10
104.76608499999998
 20
208.83209299999999
 40
4
 50
311.40962200000001
 51
48.590377999999973
  0
LINE
  8
_0-3_0_5
  6
CONTINUOUS
 62
    3
 10
106.36554799999999
 20
205.83209299999999
 11
105.46704700000009
 21
205.3133429999998
  0
LINE
  8
_0-3_0_5
  6
CONTINUOUS
 62
    3
 10
106.09922800000004
 20
205.83209299999999
 11
106.56430696222635
 21
205.87766974096337
  0
LINE
  8
_0-3_0_5
  6
CONTINUOUS
 62
    3
 10
106.56430696222635
 20
205.87766974096337
 11
107.01525473552674
 21
206.01301513764227
  0
LINE
  8
_0-3_0_5
  6
CONTINUOUS
 62
    3
 10
107.01525473552674
 20
206.01301513764227
 11
107.43836950000004
 21
206.23401678864667
  0
LINE
  8
_0-3_0_5
  6
CONTINUOUS
 62
    3
 10
107.43836950000004
 20
206.23401678864667
 11
107.82079512763413
 21
206.53395967064304
  0
LINE
  8
_0-3_0_5
  6
CONTINUOUS
 62
    3
 10
107.82079512763413
 20
206.53395967064304
 11
108.15091180925006
 21
206.90373017094038
  0
LINE
  8
_0-3_0_5
  6
CONTINUOUS
 62
    3
 10
108.15091180925006
 20
206.90373017094038
 11
108.41868911652404
 21
207.33209299999999
  0
LINE
  8
_0-3_0_5
  6
CONTINUOUS
 62
    3
 10
108.41868911652404
 20
207.33209299999999
 11
108.61599077147639
 21
207.80603257002298
  0
LINE
  8
_0-3_0_5
  6
CONTINUOUS
 62
    3
 10
108.61599077147639
 20
207.80603257002298
 11
108.73682186316084
 21
208.31114846699919
  0
LINE
  8
_0-3_0_5
  6
CONTINUOUS
 62
    3
 10
108.73682186316084
 20
208.31114846699919
 11
108.77751100000003
 21
208.83209299999999
  0
LINE
  8
_0-3_0_5
  6
CONTINUOUS
 62
    3
 10
108.77751100000003
 20
208.83209299999999
 11
108.73682186316084
 21
209.35303753300079
  0
LINE
  8
_0-3_0_5
  6
CONTINUOUS
 62
    3
 10
108.73682186316084
 20
209.35303753300079
 11
108.61599077147639
 21
209.85815342997699
  0
LINE
  8
_0-3_0_5
  6
CONTINUOUS
 62
    3
 10
108.61599077147639
 20
209.85815342997699
 11
108.41868911652404
 21
210.33209299999999
  0
LINE
  8
_0-3_0_5
  6
CONTINUOUS
 62
    3
 10
108.41868911652404
 20
210.33209299999999
 11
108.15091180925006
 21
210.76045582905959
  0
LINE
  8
_0-3_0_5
  6
CONTINUOUS
 62
    3
 10
108.15091180925006
 20
210.76045582905959
 11
107.82079512763413
 21
211.13022632935693
  0
LINE
  8
_0-3_0_5
  6
CONTINUOUS
 62
    3
 10
107.82079512763413
 20
211.13022632935693
 11
107.43836950000004
 21
211.4301692113533
  0
LINE
  8
_0-3_0_5
  6
CONTINUOUS
 62
    3
 10
107.43836950000004
 20
211.4301692113533
 11
107.01525473552674
 21
211.6511708623577
  0
LINE
  8
_0-3_0_5
  6
CONTINUOUS
 62
    3
 10
107.01525473552674
 20
211.6511708623577
 11
106.56430696222637
 21
211.7865162590366
  0
LINE
  8
_0-3_0_5
  6
CONTINUOUS
 62
    3
 10
106.56430696222637
 20
211.7865162590366
 11
106.09922800000004
 21
211.83209299999999
  0
LINE
  8
_0-3_0_5
  6
CONTINUOUS
 62
    3
 10
106.09922800000004
 20
211.83209299999999
 11
105.63414903777372
 21
211.7865162590366
  0
LINE
  8
_0-3_0_5
  6
CONTINUOUS
 62
    3
 10
105.63414903777372
 20
211.7865162590366
 11
105.18320126447334
 21
211.6511708623577
  0
LINE
  8
_0-3_0_5
  6
CONTINUOUS
 62
    3
 10
105.18320126447334
 20
211.6511708623577
 11
104.76008650000004
 21
211.4301692113533
  0
LINE
  8
_0-3_0_5
  6
CONTINUOUS
 62
    3
 10
104.76008650000004
 20
211.4301692113533
 11
104.37766087236595
 21
211.13022632935693
  0
LINE
  8
_0-3_0_5
  6
CONTINUOUS
 62
    3
 10
104.37766087236595
 20
211.13022632935693
 11
104.04754419075002
 21
210.76045582905962
  0
LINE
  8
_0-3_0_5
  6
CONTINUOUS
 62
    3
 10
104.04754419075002
 20
210.76045582905962
 11
103.77976688347604
 21
210.33209299999999
  0
LINE
  8
_0-3_0_5
  6
CONTINUOUS
 62
    3
 10
103.77976688347604
 20
210.33209299999999
 11
103.5824652285237
 21
209.85815342997699
  0
LINE
  8
_0-3_0_5
  6
CONTINUOUS
 62
    3
 10
103.5824652285237
 20
209.85815342997699
 11
103.46163413683925
 21
209.35303753300079
  0
LINE
  8
_0-3_0_5
  6
CONTINUOUS
 62
    3
 10
103.46163413683925
 20
209.35303753300079
 11
103.42094500000005
 21
208.83209299999999
  0
LINE
  8
_0-3_0_5
  6
CONTINUOUS
 62
    3
 10
103.42094500000005
 20
208.83209299999999
 11
103.46163413683924
 21
208.31114846699921
  0
LINE
  8
_0-3_0_5
  6
CONTINUOUS
 62
    3
 10
103.46163413683924
 20
208.31114846699921
 11
103.58246522852369
 21
207.80603257002298
  0
LINE
  8
_0-3_0_5
  6
CONTINUOUS
 62
    3
 10
103.58246522852369
 20
207.80603257002298
 11
103.77976688347604
 21
207.33209299999999
  0
LINE
  8
_0-3_0_5
  6
CONTINUOUS
 62
    3
 10
103.77976688347604
 20
207.33209299999999
 11
104.04754419075
 21
206.90373017094038
  0
LINE
  8
_0-3_0_5
  6
CONTINUOUS
 62
    3
 10
104.04754419075
 20
206.90373017094038
 11
104.37766087236594
 21
206.53395967064307
  0
LINE
  8
_0-3_0_5
  6
CONTINUOUS
 62
    3
 10
104.37766087236594
 20
206.53395967064307
 11
104.76008650000003
 21
206.23401678864667
  0
LINE
  8
_0-3_0_5
  6
CONTINUOUS
 62
    3
 10
104.76008650000003
 20
206.23401678864667
 11
105.18320126447333
 21
206.01301513764227
  0
LINE
  8
_0-3_0_5
  6
CONTINUOUS
 62
    3
 10
105.18320126447333
 20
206.01301513764227
 11
105.63414903777371
 21
205.87766974096337
  0
LINE
  8
_0-3_0_5
  6
CONTINUOUS
 62
    3
 10
105.63414903777371
 20
205.87766974096337
 11
106.09922800000002
 21
205.83209299999999
  0
LINE
  8
_0-3_0_5
  6
CONTINUOUS
 62
    3
 10
96.766084999999975
 20
181.76321299999995
 11
104.67417
 21
181.76321299999995
  0
TEXT
  8
_0-2_PV
 62
    7
 10
131.07580400000006
 20
3.6999999999998181
 40
4
 41
0.875
 50
0
  1
※２　テール管の差込代は、15mm以上を確保すること。
  0
TEXT
  8
_0-2_PV
 62
    7
 10
131.07580400000006
 20
9.6999999999998181
 40
4
 41
0.875
 50
0
  1
※１　（　）内寸法は参考寸法である。
  0
TEXT
  8
_0-2_PV
 62
    7
 10
131.07580400000006
 20
-2.3000000000001819
 40
4
 41
0.875
 50
0
  1
※３　床排水管の差込代は、40mm以上を確保すること。
  0
TEXT
  8
_0-2_PV
 62
    7
 10
139.77351799999997
 20
-12.223474000000081
 40
3.2000000000000002
 41
1.1154539999999999
 50
0
  1
検 図
  0
TEXT
  8
_0-2_PV
 62
    7
 10
157.27351799999997
 20
-12.223474000000081
 40
3.2000000000000002
 41
1.1154539999999999
 50
0
  1
承 認
  0
TEXT
  8
_0-0_0
 62
    7
 10
61.208900210868222
 20
-29.410173540621599
 40
4
 41
1
 50
0
  1
日鉄物産マテックス株式会社
  0
TEXT
  8
_0-0_0
 62
    7
 10
180.86206900000002
 20
-17.25
 40
5
 41
1.034483
 50
0
  1
N-501
  0
TEXT
  8
_0-0_0
 62
    7
 10
180.56603799999993
 20
-29.25
 40
4
 41
0.8490569999999999
 50
0
  1
Sトラップユニット(洗面用)
  0
TEXT
  8
_0-2_PV
 62
    7
 10
122.02109199999995
 20
-28.5
 40
3
 41
1.0333333333333334
 50
0
  1
2019年07月01日 作成
  0
LINE
  8
_0-3_0_5
  6
CONTINUOUS
 62
    7
 10
189.27751200000012
 20
26.156021999999894
 11
156.27751200000012
 21
26.156021999999894
  0
LINE
  8
_0-3_0_5
  6
CONTINUOUS
 62
    7
 10
189.27751200000012
 20
57.729748999999856
 11
189.27751200000012
 21
24.656021999999894
  0
LINE
  8
_0-3_0_5
  6
CONTINUOUS
 62
    7
 10
156.27751200000012
 20
57.729748999999856
 11
156.27751200000012
 21
24.656021999999894
  0
INSERT
  2
-000-_OPEN30
  8
_0-3_0_5
 10
189.27751200000012
 20
26.156021999999894
 41
2.77
 42
2.77
 50
0
  0
INSERT
  2
-000-_OPEN30
  8
_0-3_0_5
 10
156.27751200000012
 20
26.156021999999894
 41
2.77
 42
2.77
 50
180
  0
POINT
  8
_0-3_0_5
 62
    7
 10
189.27751200000012
 20
59.229748999999856
  0
POINT
  8
_0-3_0_5
 62
    7
 10
156.27751200000012
 20
59.229748999999856
  0
POINT
  8
_0-3_0_5
 62
    7
 10
156.27751200000012
 20
26.156021999999894
  0
LINE
  8
_0-3_0_5
  6
CONTINUOUS
 62
    7
 10
180.71501200000012
 20
33.820640999999796
 11
164.84001200000012
 21
33.820640999999796
  0
LINE
  8
_0-3_0_5
  6
CONTINUOUS
 62
    7
 10
208.48982799999999
 20
33.820640999999796
 11
180.71501200000012
 21
33.820640999999796
  0
LINE
  8
_0-3_0_5
  6
CONTINUOUS
 62
    7
 10
180.71501200000012
 20
42.729750999999851
 11
180.71501200000012
 21
32.320640999999796
  0
LINE
  8
_0-3_0_5
  6
CONTINUOUS
 62
    7
 10
164.84001200000012
 20
42.729750999999851
 11
164.84001200000012
 21
32.320640999999796
  0
LINE
  8
_0-3_0_5
  6
CONTINUOUS
 62
    7
 10
180.71501200000012
 20
33.820640999999796
 11
185.21501200000012
 21
33.820640999999796
  0
LINE
  8
_0-3_0_5
  6
CONTINUOUS
 62
    7
 10
164.84001200000012
 20
33.820640999999796
 11
160.34001200000012
 21
33.820640999999796
  0
INSERT
  2
-000-_OPEN30
  8
_0-3_0_5
 10
180.71501200000012
 20
33.820640999999796
 41
2.77
 42
2.77
 50
180
  0
INSERT
  2
-000-_OPEN30
  8
_0-3_0_5
 10
164.84001200000012
 20
33.820640999999796
 41
2.77
 42
2.77
 50
0
  0
POINT
  8
_0-3_0_5
 62
    7
 10
180.71501200000012
 20
44.229750999999851
  0
POINT
  8
_0-3_0_5
 62
    7
 10
164.84001200000012
 20
44.229750999999851
  0
POINT
  8
_0-3_0_5
 62
    7
 10
164.84001200000012
 20
33.820640999999796
  0
TEXT
  8
_0-3_0_5
 62
    7
 10
169.78107074569789
 20
27.237093690248571
 40
2.5
 41
1
 50
0
  1
66.0
  0
TEXT
  8
_0-3_0_5
 62
    7
 10
197.08508604206503
 20
34.86615678776289
 40
2.5
 41
1
 50
0
  1
31.75
  0
ENDSEC
  0
EOF
